  0
SECTION
  2
HEADER
  9
$ACADVER
  1
AC1009
  9
$INSBASE
 10
519.9789582917356938
 20
-2.560025949809055
 30
0.0
  9
$EXTMIN
 10
517.9435252208355678
 20
-15.5521519340590508
 30
0.0
  9
$EXTMAX
 10
522.7276195515355539
 20
10.4321000344409391
 30
0.0
  9
$LIMMIN
 10
0.0
 20
0.0
  9
$LIMMAX
 10
11.6929133858000007
 20
8.2677165353999982
  9
$ORTHOMODE
 70
     1
  9
$REGENMODE
 70
     1
  9
$FILLMODE
 70
     1
  9
$QTEXTMODE
 70
     0
  9
$MIRRTEXT
 70
     0
  9
$DRAGMODE
 70
     2
  9
$LTSCALE
 40
0.6431102362
  9
$OSMODE
 70
  4095
  9
$ATTMODE
 70
     1
  9
$TEXTSIZE
 40
0.2
  9
$TRACEWID
 40
0.05
  9
$TEXTSTYLE
  7
STANDARD
  9
$CLAYER
  8
0
  9
$CELTYPE
  6
BYLAYER
  9
$CECOLOR
 62
   256
  9
$DIMSCALE
 40
1.0
  9
$DIMASZ
 40
0.1875
  9
$DIMEXO
 40
0.0625
  9
$DIMDLI
 40
0.4443307087
  9
$DIMRND
 40
0.0
  9
$DIMDLE
 40
0.0
  9
$DIMEXE
 40
0.125
  9
$DIMTP
 40
0.01
  9
$DIMTM
 40
0.01
  9
$DIMTXT
 40
1.0
  9
$DIMCEN
 40
0.1052362205
  9
$DIMTSZ
 40
0.0
  9
$DIMTOL
 70
     1
  9
$DIMLIM
 70
     0
  9
$DIMTIH
 70
     1
  9
$DIMTOH
 70
     1
  9
$DIMSE1
 70
     0
  9
$DIMSE2
 70
     0
  9
$DIMTAD
 70
     0
  9
$DIMZIN
 70
     0
  9
$DIMBLK
  1

  9
$DIMASO
 70
     1
  9
$DIMSHO
 70
     1
  9
$DIMPOST
  1
\X
  9
$DIMAPOST
  1

  9
$DIMALT
 70
     1
  9
$DIMALTD
 70
     2
  9
$DIMALTF
 40
25.3999999999999986
  9
$DIMLFAC
 40
1.0
  9
$DIMTOFL
 70
     0
  9
$DIMTVP
 40
0.0
  9
$DIMTIX
 70
     0
  9
$DIMSOXD
 70
     0
  9
$DIMSAH
 70
     0
  9
$DIMBLK1
  1

  9
$DIMBLK2
  1

  9
$DIMSTYLE
  2
STANDARD
  9
$DIMCLRD
 70
     0
  9
$DIMCLRE
 70
     0
  9
$DIMCLRT
 70
     0
  9
$DIMTFAC
 40
1.0
  9
$DIMGAP
 40
0.09
  9
$LUNITS
 70
     2
  9
$LUPREC
 70
     4
  9
$SKETCHINC
 40
0.1
  9
$FILLETRAD
 40
0.0
  9
$AUNITS
 70
     0
  9
$AUPREC
 70
     0
  9
$MENU
  1
.
  9
$ELEVATION
 40
0.0
  9
$PELEVATION
 40
0.0
  9
$THICKNESS
 40
0.0
  9
$LIMCHECK
 70
     0
  9
$BLIPMODE
 70
     0
  9
$CHAMFERA
 40
0.0
  9
$CHAMFERB
 40
0.0
  9
$SKPOLY
 70
     0
  9
$TDCREATE
 40
2458306.6094560190103948
  9
$TDUPDATE
 40
2459891.6241319449618459
  9
$TDINDWG
 40
0.063018287
  9
$TDUSRTIMER
 40
0.0630181597
  9
$USRTIMER
 70
     1
  9
$ANGBASE
 50
0.0
  9
$ANGDIR
 70
     0
  9
$PDMODE
 70
     0
  9
$PDSIZE
 40
0.3125
  9
$PLINEWID
 40
0.0
  9
$COORDS
 70
     1
  9
$SPLFRAME
 70
     0
  9
$SPLINETYPE
 70
     6
  9
$SPLINESEGS
 70
     8
  9
$ATTDIA
 70
     1
  9
$ATTREQ
 70
     1
  9
$HANDLING
 70
     1
  9
$HANDSEED
  5
1CE4
  9
$SURFTAB1
 70
     6
  9
$SURFTAB2
 70
     6
  9
$SURFTYPE
 70
     6
  9
$SURFU
 70
     6
  9
$SURFV
 70
     6
  9
$UCSNAME
  2

  9
$UCSORG
 10
0.0
 20
0.0
 30
0.0
  9
$UCSXDIR
 10
1.0
 20
0.0
 30
0.0
  9
$UCSYDIR
 10
0.0
 20
1.0
 30
0.0
  9
$PUCSNAME
  2

  9
$PUCSORG
 10
0.0
 20
0.0
 30
0.0
  9
$PUCSXDIR
 10
1.0
 20
0.0
 30
0.0
  9
$PUCSYDIR
 10
0.0
 20
1.0
 30
0.0
  9
$USERI1
 70
     0
  9
$USERI2
 70
     0
  9
$USERI3
 70
     0
  9
$USERI4
 70
     0
  9
$USERI5
 70
     0
  9
$USERR1
 40
0.0
  9
$USERR2
 40
0.0
  9
$USERR3
 40
0.0
  9
$USERR4
 40
0.0
  9
$USERR5
 40
0.0
  9
$WORLDVIEW
 70
     1
  9
$SHADEDGE
 70
     3
  9
$SHADEDIF
 70
    70
  9
$TILEMODE
 70
     1
  9
$MAXACTVP
 70
    64
  9
$PLIMCHECK
 70
     0
  9
$PEXTMIN
 10
1.0000000000000000E+20
 20
1.0000000000000000E+20
 30
1.0000000000000000E+20
  9
$PEXTMAX
 10
-1.0000000000000000E+20
 20
-1.0000000000000000E+20
 30
-1.0000000000000000E+20
  9
$PLIMMIN
 10
0.0
 20
0.0
  9
$PLIMMAX
 10
12.0
 20
9.0
  9
$UNITMODE
 70
     0
  9
$VISRETAIN
 70
     1
  9
$PLINEGEN
 70
     0
  9
$PSLTSCALE
 70
     1
  0
ENDSEC
  0
SECTION
  2
TABLES
  0
TABLE
  2
VPORT
 70
     1
  0
VPORT
  2
*ACTIVE
 70
     0
 10
0.0
 20
0.0
 11
1.0
 21
1.0
 12
0.0
 22
0.0
 13
0.0
 23
0.0
 14
1.0
 24
1.0
 15
0.0
 25
0.0
 16
0.0
 26
0.0
 36
75.0808767689548091
 17
520.3355712890623863
 27
-2.5600261688232422
 37
0.0
 40
26.4101533497811793
 41
2.127494456762749
 42
50.0
 43
0.0
 44
0.0
 50
0.0
 51
0.0
 71
     0
 72
   100
 73
     1
 74
     1
 75
     0
 76
     0
 77
     0
 78
     0
  0
ENDTAB
  0
TABLE
  2
LTYPE
 70
     1
  0
LTYPE
  2
CONTINUOUS
 70
     0
  3
Solid line
 72
    65
 73
     0
 40
0.0
  0
ENDTAB
  0
TABLE
  2
LAYER
 70
     2
  0
LAYER
  2
0
 70
     0
 62
   255
  6
CONTINUOUS
  0
LAYER
  2
DEFPOINT
 70
     0
 62
     7
  6
CONTINUOUS
  0
ENDTAB
  0
TABLE
  2
STYLE
 70
     1
  0
STYLE
  2
STANDARD
 70
     0
 40
0.0
 41
0.8
 50
0.0
 71
     0
 42
0.2
  3
txt
  4

  0
ENDTAB
  0
TABLE
  2
VIEW
 70
     0
  0
ENDTAB
  0
TABLE
  2
UCS
 70
     0
  0
ENDTAB
  0
TABLE
  2
APPID
 70
    10
  0
APPID
  2
ACAD
 70
     0
  0
APPID
  2
ACADANNOTATIVE
 70
     0
  0
APPID
  2
ACAD_MLEADERVER
 70
     0
  0
APPID
  2
ACAD_EXEMPT_FROM_CAD_STANDARDS
 70
     0
  0
APPID
  2
ACAD_DSTYLE_DIMJAG
 70
     0
  0
APPID
  2
ACAD_DSTYLE_DIMTALN
 70
     0
  0
APPID
  2
ACAD_NAV_VCDISPLAY
 70
     0
  0
APPID
  2
ACAECLAYERSTANDARD
 70
     0
  0
APPID
  2
ACCMTRANSPARENCY
 70
     0
  0
APPID
  2
ACDBATTR
 70
     0
  0
ENDTAB
  0
TABLE
  2
DIMSTYLE
 70
     1
  0
DIMSTYLE
  2
STANDARD
 70
     0
  3

  4

  5

  6

  7

 40
1.0
 41
0.1875
 42
0.0625
 43
0.38
 44
0.125
 45
0.0
 46
0.0
 47
0.01
 48
0.01
140
0.15625
141
0.09
142
0.0
143
25.3999999999999986
144
1.0
145
0.0
146
1.0
147
0.09
 71
     1
 72
     0
 73
     1
 74
     1
 75
     0
 76
     0
 77
     0
 78
     4
170
     0
171
     2
172
     0
173
     0
174
     0
175
     0
176
     0
177
     0
178
     0
  0
ENDTAB
  0
ENDSEC
  0
SECTION
  2
BLOCKS
  0
BLOCK
  8
0
  2
$MODEL_SPACE
 70
     0
 10
0.0
 20
0.0
 30
0.0
  3
$MODEL_SPACE
  1

  0
ENDBLK
  5
1598
  8
0
  0
BLOCK
 67
     1
  8
0
  2
$PAPER_SPACE
 70
     0
 10
0.0
 20
0.0
 30
0.0
  3
$PAPER_SPACE
  1

  0
ENDBLK
  5
1594
 67
     1
  8
0
  0
ENDSEC
  0
SECTION
  2
ENTITIES
  0
ATTDEF
  5
659
  8
DEFPOINT
 10
519.9738124198131572
 20
-2.5620909250209212
 30
0.0
 40
0.001
  1
P21629-00
  3

  2
MODELNUMBER
 70
     0
1001
ACDBATTR
1070
     0
1070
     1
  0
ATTDEF
  5
65A
  8
DEFPOINT
 10
519.9738124198131572
 20
-2.5637575916875859
 30
0.0
 40
0.001
  1
ONE
  3

  2
TRADENAME
 70
     0
1001
ACDBATTR
1070
     0
1070
     1
  0
ATTDEF
  5
65B
  8
DEFPOINT
 10
519.9738124198131572
 20
-2.565424258354251
 30
0.0
 40
0.001
  1
SLIDEBAR
  3

  2
PRODUCT
 70
     0
1001
ACDBATTR
1070
     0
1070
     1
  0
LINE
  5
1BB0
  8
0
 10
519.6049425436355023
 20
-15.4537267372590499
 30
0.0
 11
520.3529740397357273
 21
-15.4537267372590499
 31
0.0
  0
LINE
  5
1BB1
  8
0
 10
519.5852575043356865
 20
-15.3553015403590507
 30
0.0
 11
520.3726590790356568
 21
-15.3553015403590507
 31
0.0
  0
LINE
  5
1BB2
  8
0
 10
517.9435252208356815
 20
-1.058348987459055
 30
0.0
 11
517.9435252208356815
 21
-2.1197564805590541
 31
0.0
  0
LINE
  5
1BB3
  8
0
 10
519.1246275830357035
 20
-2.2256678791590541
 30
0.0
 11
519.1246275830357035
 21
-0.9343292965590563
 31
0.0
  0
LINE
  5
1BB4
  8
0
 10
519.1443126224355638
 20
-0.9324158560590554
 30
0.0
 11
519.1443126224355638
 21
-2.2276278608590552
 31
0.0
  0
LINE
  5
1BB5
  8
0
 10
519.5557299452357256
 20
-2.2292559707952431
 30
0.0
 11
519.5557299452357256
 21
-2.304408036659054
 31
0.0
  0
LINE
  5
1BB6
  8
0
 10
519.5557299452357256
 20
-0.9305872140054489
 30
0.0
 11
519.5557299452357256
 21
-0.8555891390590559
 31
0.0
  0
LINE
  5
1BB7
  8
0
 10
519.5852575043356865
 20
10.3139897982409501
 30
0.0
 11
519.5852575043356865
 21
-0.8591469729171733
 31
0.0
  0
LINE
  5
1BB8
  8
0
 10
519.5852575043356865
 20
-2.3008370802717621
 30
0.0
 11
519.5852575043356865
 21
-15.4340416978590493
 31
0.0
  0
LINE
  5
1BB9
  8
0
 10
520.5616354570356634
 20
-0.914644257159054
 30
0.0
 11
520.5616354570356634
 21
-2.2453529185590559
 31
0.0
  0
LINE
  5
1BBA
  8
0
 10
519.5557299452357256
 20
-2.304408036659054
 30
0.0
 11
519.579351992535635
 21
-2.304408036659054
 31
0.0
  0
LINE
  5
1BBB
  8
0
 10
521.4159661657356537
 20
-2.2453529185590559
 30
0.0
 11
520.5616354570356634
 21
-2.2453529185590559
 31
0.0
  0
LINE
  5
1BBC
  8
0
 10
518.7728857591356473
 20
-2.2453529185590559
 30
0.0
 11
519.1049425436355023
 21
-2.2453529185590559
 31
0.0
  0
LINE
  5
1BBD
  8
0
 10
519.1561236460356668
 20
-2.2394474067590551
 30
0.0
 11
519.2501020832356744
 21
-2.2394474067590551
 31
0.0
  0
LINE
  5
1BBE
  8
0
 10
519.4272657296355646
 20
-2.2394474067590551
 30
0.0
 11
519.5419504177357339
 21
-2.2394474067590551
 31
0.0
  0
LINE
  5
1BBF
  8
0
 10
519.1246275830357035
 20
-2.1705497689590549
 30
0.0
 11
519.1443126224355638
 21
-2.1705497689590549
 31
0.0
  0
LINE
  5
1BC0
  8
0
 10
517.9632102602356554
 20
-2.1394415198590551
 30
0.0
 11
518.0758838975357321
 21
-2.1394415198590551
 31
0.0
  0
LINE
  5
1BC1
  8
0
 10
521.427777189335643
 20
-1.8909592177590531
 30
0.0
 11
521.8960919925357302
 21
-1.8909592177590531
 31
0.0
  0
LINE
  5
1BC2
  8
0
 10
521.427777189335643
 20
-2.2335376162590559
 30
0.0
 11
521.427777189335643
 21
-0.9264594679590558
 31
0.0
  0
LINE
  5
1BC3
  8
0
 10
521.9080919925356739
 20
-1.8789592177590531
 30
0.0
 11
521.9080919925356739
 21
-1.2810379981590529
 31
0.0
  0
LINE
  5
1BC4
  8
0
 10
521.8960919925357302
 20
-1.2690379579590561
 30
0.0
 11
521.427777189335643
 21
-1.2690379579590561
 31
0.0
  0
LINE
  5
1BC5
  8
0
 10
518.0023696145354961
 20
-1.038663877359056
 30
0.0
 11
517.9632102602356554
 21
-1.0386638650590561
 31
0.0
  0
LINE
  5
1BC6
  8
0
 10
519.1246275830357035
 20
-0.989447406759055
 30
0.0
 11
519.1443126224355638
 21
-0.989447406759055
 31
0.0
  0
LINE
  5
1BC7
  8
0
 10
519.1561236460356668
 20
-0.9205497689590558
 30
0.0
 11
519.5419504177357339
 21
-0.9205497689590558
 31
0.0
  0
LINE
  5
1BC8
  8
0
 10
521.4159661657356537
 20
-0.914644257159054
 30
0.0
 11
520.5616354570356634
 21
-0.914644257159054
 31
0.0
  0
LINE
  5
1BC9
  8
0
 10
518.8481111449357286
 20
-0.914644257159054
 30
0.0
 11
519.1049425436355023
 21
-0.914644257159054
 31
0.0
  0
LINE
  5
1BCA
  8
0
 10
519.579351992535635
 20
-0.8555891390590559
 30
0.0
 11
519.5557299452357256
 21
-0.8555891390590559
 31
0.0
  0
LINE
  5
1BCB
  8
0
 10
519.5852575043356865
 20
10.2352496407409408
 30
0.0
 11
520.3726590790356568
 21
10.2352496407409408
 31
0.0
  0
LINE
  5
1BCC
  8
0
 10
520.3529707980356989
 20
10.33367483754094
 30
0.0
 11
519.6049457853356444
 21
10.33367483754094
 31
0.0
  0
ARC
  5
1BCD
  8
0
 10
519.9789582917356938
 20
-14.3710495718590501
 30
0.0
 40
1.1811023622000001
 50
109.4712206344927949
 51
70.5287793706541351
  0
ARC
  5
1BCE
  8
0
 10
519.6081369374184078
 20
-15.4308473040762593
 30
0.0
 40
0.0231013552504038
 50
187.9481751509572973
 51
262.0518248490417932
  0
ARC
  5
1BCF
  8
0
 10
519.9789582917356938
 20
9.2509976722409402
 30
0.0
 40
1.1811023622000001
 50
289.4712206293457939
 51
250.5287793655072051
  0
ARC
  5
1BD0
  8
0
 10
519.6070498236759931
 20
10.3118821713332807
 30
0.0
 40
0.0218940009540683
 50
95.5147001935377631
 51
174.4758649172894138
  0
ARC
  5
1BD1
  8
0
 10
517.9645145858098658
 20
-2.1184521549847801
 30
0.0
 40
0.021029852762848
 50
183.5559139613033039
 51
266.4440860386940244
  0
ARC
  5
1BD2
  8
0
 10
517.9649534507823319
 20
-1.060092087547136
 30
0.0
 40
0.021499010129922
 50
94.6507827046656303
 51
175.3494591677992958
  0
ARC
  5
1BD3
  8
0
 10
519.1040230304371335
 20
-2.2247483659605538
 30
0.0
 40
0.0206250598134048
 50
272.5552262137924231
 51
357.4447737862016083
  0
ARC
  5
1BD4
  8
0
 10
519.1038162920746117
 20
-0.9354555481199859
 30
0.0
 40
0.020841743546044
 50
3.097673094573087
 51
86.9023269054244167
  0
ARC
  5
1BD5
  8
0
 10
519.1576652427349927
 20
-0.933895363377573
 30
0.0
 40
0.0134343370051281
 50
96.589233673530245
 51
173.6772600306696859
  0
ARC
  5
1BD6
  8
0
 10
519.1576894945652612
 20
-2.2260716605876989
 30
0.0
 40
0.0134670882991986
 50
186.6356842379541092
 51
263.3229886327475242
  0
ARC
  5
1BD7
  8
0
 10
521.8960919925357302
 20
-1.281037957959053
 30
0.0
 40
0.012
 50
0.0
 51
90.0
  0
ARC
  5
1BD8
  8
0
 10
521.8960919925357302
 20
-1.8789592177590531
 30
0.0
 40
0.012
 50
270.0
 51
0.0
  0
ARC
  5
1BD9
  8
0
 10
521.4153009807271246
 20
-2.2328769500606742
 30
0.0
 40
0.0124936888494997
 50
273.0519667212175818
 51
356.96878567592438
  0
ARC
  5
1BDA
  8
0
 10
521.4141663495189505
 20
-0.9282544598795823
 30
0.0
 40
0.0137286909975887
 50
7.5127891601594667
 51
82.466902154043197
  0
ARC
  5
1BDB
  8
0
 10
520.0431171497630203
 20
-2.9026483940873709
 30
0.0
 40
0.8312662887932972
 50
94.4266096026884441
 51
127.0775575937801989
  0
ARC
  5
1BDC
  8
0
 10
520.0222950138428359
 20
-3.026701887541182
 30
0.0
 40
0.8598786950881926
 50
92.888853562960179
 51
122.8604026644702998
  0
ARC
  5
1BDD
  8
0
 10
520.0088569887122958
 20
-3.00803842331129
 30
0.0
 40
0.8243605174685446
 50
92.0785140860862441
 51
121.4004255839303994
  0
ARC
  5
1BDE
  8
0
 10
520.0512742700542503
 20
-0.235820820798363
 30
0.0
 40
0.853384156748844
 50
233.356919425334695
 51
265.1389121669839142
  0
ARC
  5
1BDF
  8
0
 10
520.0147836148277065
 20
-0.1565862854542352
 30
0.0
 40
0.8362626745907249
 50
236.7060347328327907
 51
267.5447090396432941
  0
ARC
  5
1BE0
  8
0
 10
520.0104235941522575
 20
-0.1467500237791768
 30
0.0
 40
0.829623780439774
 50
238.6946498225453013
 51
267.8264105069611105
  0
LINE
  5
1BE1
  8
0
 10
520.4021866381355039
 20
-2.2292559707952431
 30
0.0
 11
520.4021866381355039
 21
-2.304408036659054
 31
0.0
  0
LINE
  5
1BE2
  8
0
 10
520.4021866381355039
 20
-0.9305872140054489
 30
0.0
 11
520.4021866381355039
 21
-0.8555891390590559
 31
0.0
  0
LINE
  5
1BE3
  8
0
 10
520.3726590790356568
 20
10.3139897982409501
 30
0.0
 11
520.3726590790356568
 21
-0.8591469729171733
 31
0.0
  0
LINE
  5
1BE4
  8
0
 10
520.3726590790356568
 20
-2.3008370802717621
 30
0.0
 11
520.3726590790356568
 21
-15.4340416978590493
 31
0.0
  0
LINE
  5
1BE5
  8
0
 10
520.4021866381355039
 20
-2.304408036659054
 30
0.0
 11
520.3785645908355946
 21
-2.304408036659054
 31
0.0
  0
LINE
  5
1BE6
  8
0
 10
520.5616354570356634
 20
-2.2394474067590551
 30
0.0
 11
520.4159661656356093
 21
-2.2394474067590551
 31
0.0
  0
LINE
  5
1BE7
  8
0
 10
520.5616354570356634
 20
-0.9205497689590558
 30
0.0
 11
520.4159661656356093
 21
-0.9205497689590558
 31
0.0
  0
LINE
  5
1BE8
  8
0
 10
520.3785645908355946
 20
-0.8555891390590559
 30
0.0
 11
520.4021866381355039
 21
-0.8555891390590559
 31
0.0
  0
ARC
  5
1BE9
  8
0
 10
520.3497796459528217
 20
-15.4308473040762593
 30
0.0
 40
0.0231013552504038
 50
277.9481751509582068
 51
352.0518248490424185
  0
ARC
  5
1BEA
  8
0
 10
520.3508667596952364
 20
10.3118821713332807
 30
0.0
 40
0.0218940009540683
 50
5.5241350827105569
 51
84.4852998064622653
  0
ARC
  5
1BEB
  8
0
 10
519.9147994336083229
 20
-2.9026483940873709
 30
0.0
 40
0.8312662887932972
 50
52.922442406219723
 51
85.5733903973115702
  0
ARC
  5
1BEC
  8
0
 10
519.9356215695285073
 20
-3.026701887541182
 30
0.0
 40
0.8598786950881926
 50
57.1395973355296718
 51
87.111146437039821
  0
ARC
  5
1BED
  8
0
 10
519.9490595946590474
 20
-3.00803842331129
 30
0.0
 40
0.8243605174685446
 50
58.599574416069558
 51
87.9214859139137559
  0
ARC
  5
1BEE
  8
0
 10
519.9066423133168655
 20
-0.235820820798363
 30
0.0
 40
0.853384156748844
 50
274.8610878330160858
 51
306.6430805746625765
  0
ARC
  5
1BEF
  8
0
 10
519.943132968543523
 20
-0.1565862854542352
 30
0.0
 40
0.8362626745907249
 50
272.4552909603567059
 51
303.2939652671672093
  0
ARC
  5
1BF0
  8
0
 10
519.9474929892188584
 20
-0.1467500237791768
 30
0.0
 40
0.829623780439774
 50
272.1735894930388895
 51
301.3053501774547271
  0
ARC
  5
1BF1
  8
0
 10
519.3386839064355627
 20
-2.8929637651585369
 30
0.0
 40
0.6594925095079986
 50
82.2808055112363661
 51
97.7191944887636055
  0
ARC
  5
1BF2
  8
0
 10
518.0751680637265508
 20
-2.116734608641444
 30
0.0
 40
0.0227181917213194
 50
271.8056474896599184
 51
294.8479819105397155
  0
ARC
  5
1BF3
  8
0
 10
518.3399141107411197
 20
-2.5895188416887152
 30
0.0
 40
0.5192145763248888
 50
82.9994494615621363
 51
119.4399324463832954
  0
ARC
  5
1BF4
  8
0
 10
518.1986815684778094
 20
-2.9784867777930049
 30
0.0
 40
0.9271492130191255
 50
52.6114476405184632
 51
77.2566919835501409
  0
ARC
  5
1BF5
  8
0
 10
518.7744349977438105
 20
-2.2207579414596199
 30
0.0
 40
0.0246437220968439
 50
238.7824525337495913
 51
266.3956984675563149
  0
ARC
  5
1BF6
  8
0
 10
518.0012016942480386
 20
-1.0645630198418199
 30
0.0
 40
0.0259254627565433
 50
59.3576115603081931
 51
87.4179994995880065
  0
ARC
  5
1BF7
  8
0
 10
518.3412294283377832
 20
-0.6500363449183268
 30
0.0
 40
0.5105340415473333
 50
230.1976185842588905
 51
279.1055116344372777
  0
ARC
  5
1BF8
  8
0
 10
518.03385459933736
 20
-0.0144615632845131
 30
0.0
 40
1.2039662216243681
 50
288.8086160881106252
 51
311.0017774423907895
  0
ARC
  5
1BF9
  8
0
 10
518.8508247195572949
 20
-0.9618471447881944
 30
0.0
 40
0.047280821563895
 50
93.290168177799714
 51
124.9258541281772068
  0
LINE
  5
1BFA
  8
0
 10
521.9558657968357238
 20
-2.7666525828090509
 30
0.0
 11
522.6658953729355517
 21
-2.8082309461090551
 31
0.0
  0
LINE
  5
1BFB
  8
0
 10
521.9080919925356739
 20
-1.7549985212090531
 30
0.0
 11
521.9276195515357131
 21
-1.7549985212090531
 31
0.0
  0
LINE
  5
1BFC
  8
0
 10
522.694312765935706
 20
-1.4268720279090481
 30
0.0
 11
521.9559348391355798
 21
-1.4684057863090549
 31
0.0
  0
LINE
  5
1BFD
  8
0
 10
521.9080919925356739
 20
-1.4049985212090439
 30
0.0
 11
521.9276195515357131
 21
-1.404998521209051
 31
0.0
  0
LINE
  5
1BFE
  8
0
 10
521.9559347148947381
 20
-1.691591249202453
 30
0.0
 11
522.694312708435632
 21
-1.7331250113090491
 31
0.0
  0
LINE
  5
1BFF
  8
0
 10
521.9558657968357238
 20
-0.3933444596090538
 30
0.0
 11
522.6658953729355517
 21
-0.351766096409051
 31
0.0
  0
LINE
  5
1C00
  8
0
 10
521.9276195515357131
 20
-2.7367037450090521
 30
0.0
 11
521.9276195515357131
 21
-0.4232932975090478
 31
0.0
  0
LINE
  5
1C01
  8
0
 10
522.6976116177356744
 20
-1.7017299257090519
 30
0.0
 11
522.6976116177356744
 21
-1.4582671168090471
 31
0.0
  0
ARC
  5
1C02
  8
0
 10
498.7276195515356108
 20
-1.579998521209049
 30
0.0
 40
24.0
 50
357.1345336182999972
 51
2.8654663817000059
  0
ARC
  5
1C03
  8
0
 10
520.1878577363355589
 20
-69.4427096272090552
 30
0.0
 40
68.1347191899999984
 50
87.8901131873019068
 51
88.5116060743005164
  0
ARC
  5
1C04
  8
0
 10
520.289679562535639
 20
63.040726970490951
 30
0.0
 40
64.8911845095999951
 50
271.4728724115021805
 51
272.1254303469015099
  0
ARC
  5
1C05
  8
0
 10
522.6951743546263742
 20
-1.459079490572655
 30
0.0
 40
0.0322189848738315
 50
4.3000876484631574
 51
91.5323661314761665
  0
ARC
  5
1C06
  8
0
 10
522.6951744040949279
 20
-1.7009176005786479
 30
0.0
 40
0.0322189358198867
 50
268.467441241857216
 51
355.6998923869040254
  0
ARC
  5
1C07
  8
0
 10
521.959135566640839
 20
-0.4247229843951459
 30
0.0
 40
0.0315484264695435
 50
95.948982812020887
 51
177.4026251963169045
  0
ARC
  5
1C08
  8
0
 10
522.6676491276356273
 20
-2.7782822509090499
 30
0.0
 40
0.03
 50
266.6486645279977097
 51
357.1345336178000025
  0
ARC
  5
1C09
  8
0
 10
521.9605649917974688
 20
-2.733925895734437
 30
0.0
 40
0.0330623423344685
 50
184.8195886694576018
 51
261.828803513170385
  0
ARC
  5
1C0A
  8
0
 10
522.6676491276356273
 20
-0.3817147916090491
 30
0.0
 40
0.03
 50
2.8654663822000059
 51
93.3513354719990645
  0
ARC
  5
1C0B
  8
0
 10
521.9602659459851566
 20
-1.6591369112435781
 30
0.0
 40
0.0327420771348811
 50
184.3813405731933983
 51
262.3984426151832281
  0
ARC
  5
1C0C
  8
0
 10
521.9606081735896623
 20
-1.5011836928712441
 30
0.0
 40
0.0331093825404418
 50
98.1143012628968449
 51
175.104955939302414
  0
ARC
  5
1C0D
  8
0
 10
522.6661209324039419
 20
-1.6999922076586169
 30
0.0
 40
0.0315385942408136
 50
269.7154329750298984
 51
356.8415093402571756
  0
ARC
  5
1C0E
  8
0
 10
522.665341345659499
 20
-1.4608318785883361
 30
0.0
 40
0.0323720321087164
 50
4.5441755316769292
 51
88.8789140807784861
  0
ARC
  5
1C0F
  8
0
 10
521.9586136630822466
 20
-1.3623029844422729
 30
0.0
 40
0.0313401313704059
 50
91.8172846379740974
 51
171.4780672037908005
  0
ARC
  5
1C10
  8
0
 10
521.9586720210702424
 20
-1.797627875263565
 30
0.0
 40
0.0314077052411851
 50
188.6255743714201003
 51
268.0792622842727155
  0
ARC
  5
1C11
  8
0
 10
522.6953936626989616
 20
-1.7732992208579139
 30
0.0
 40
0.0325282686125901
 50
271.6233621168443051
 51
344.7095308742955808
  0
ARC
  5
1C12
  8
0
 10
522.6947916214378438
 20
-1.387462890987549
 30
0.0
 40
0.0333157945978581
 50
16.2866650392501704
 51
87.3779078068590564
  0
ENDSEC
  0
EOF
