  0
SECTION
  2
HEADER
  9
$ACADVER
  1
AC1009
  9
$INSBASE
 10
2378.7666936928958421
 20
140.9754497947878065
 30
0.0
  9
$EXTMIN
 10
2378.3604436947030081
 20
129.4397514604877983
 30
0.0
  9
$EXTMAX
 10
2379.1729436947330214
 20
140.9808754570223925
 30
0.0
  9
$LIMMIN
 10
0.0
 20
0.0
  9
$LIMMAX
 10
11.6929133858000007
 20
8.2677165353999982
  9
$ORTHOMODE
 70
     0
  9
$REGENMODE
 70
     1
  9
$FILLMODE
 70
     1
  9
$QTEXTMODE
 70
     0
  9
$MIRRTEXT
 70
     0
  9
$DRAGMODE
 70
     2
  9
$LTSCALE
 40
0.6431102362
  9
$OSMODE
 70
  4095
  9
$ATTMODE
 70
     1
  9
$TEXTSIZE
 40
0.2
  9
$TRACEWID
 40
0.05
  9
$TEXTSTYLE
  7
STANDARD
  9
$CLAYER
  8
0
  9
$CELTYPE
  6
BYLAYER
  9
$CECOLOR
 62
   256
  9
$DIMSCALE
 40
1.0
  9
$DIMASZ
 40
0.1875
  9
$DIMEXO
 40
0.0625
  9
$DIMDLI
 40
0.4443307087
  9
$DIMRND
 40
0.0
  9
$DIMDLE
 40
0.0
  9
$DIMEXE
 40
0.125
  9
$DIMTP
 40
0.01
  9
$DIMTM
 40
0.01
  9
$DIMTXT
 40
2.0
  9
$DIMCEN
 40
0.1052362205
  9
$DIMTSZ
 40
0.0
  9
$DIMTOL
 70
     1
  9
$DIMLIM
 70
     0
  9
$DIMTIH
 70
     1
  9
$DIMTOH
 70
     1
  9
$DIMSE1
 70
     0
  9
$DIMSE2
 70
     0
  9
$DIMTAD
 70
     0
  9
$DIMZIN
 70
     0
  9
$DIMBLK
  1

  9
$DIMASO
 70
     1
  9
$DIMSHO
 70
     1
  9
$DIMPOST
  1
\X
  9
$DIMAPOST
  1

  9
$DIMALT
 70
     1
  9
$DIMALTD
 70
     2
  9
$DIMALTF
 40
25.3999999999999986
  9
$DIMLFAC
 40
1.0
  9
$DIMTOFL
 70
     0
  9
$DIMTVP
 40
0.0
  9
$DIMTIX
 70
     0
  9
$DIMSOXD
 70
     0
  9
$DIMSAH
 70
     0
  9
$DIMBLK1
  1

  9
$DIMBLK2
  1

  9
$DIMSTYLE
  2
STANDARD
  9
$DIMCLRD
 70
     0
  9
$DIMCLRE
 70
     0
  9
$DIMCLRT
 70
     0
  9
$DIMTFAC
 40
1.0
  9
$DIMGAP
 40
0.09
  9
$LUNITS
 70
     2
  9
$LUPREC
 70
     4
  9
$SKETCHINC
 40
0.1
  9
$FILLETRAD
 40
0.0
  9
$AUNITS
 70
     0
  9
$AUPREC
 70
     0
  9
$MENU
  1
.
  9
$ELEVATION
 40
0.0
  9
$PELEVATION
 40
0.0
  9
$THICKNESS
 40
0.0
  9
$LIMCHECK
 70
     0
  9
$BLIPMODE
 70
     0
  9
$CHAMFERA
 40
0.0
  9
$CHAMFERB
 40
0.0
  9
$SKPOLY
 70
     0
  9
$TDCREATE
 40
2458060.468368056230247
  9
$TDUPDATE
 40
2459578.593912037089467
  9
$TDINDWG
 40
0.3279121528
  9
$TDUSRTIMER
 40
0.3279121528
  9
$USRTIMER
 70
     1
  9
$ANGBASE
 50
0.0
  9
$ANGDIR
 70
     0
  9
$PDMODE
 70
     0
  9
$PDSIZE
 40
0.3125
  9
$PLINEWID
 40
0.0
  9
$COORDS
 70
     1
  9
$SPLFRAME
 70
     0
  9
$SPLINETYPE
 70
     6
  9
$SPLINESEGS
 70
     8
  9
$ATTDIA
 70
     1
  9
$ATTREQ
 70
     1
  9
$HANDLING
 70
     1
  9
$HANDSEED
  5
8F22
  9
$SURFTAB1
 70
     6
  9
$SURFTAB2
 70
     6
  9
$SURFTYPE
 70
     6
  9
$SURFU
 70
     6
  9
$SURFV
 70
     6
  9
$UCSNAME
  2

  9
$UCSORG
 10
0.0
 20
0.0
 30
0.0
  9
$UCSXDIR
 10
1.0
 20
0.0
 30
0.0
  9
$UCSYDIR
 10
0.0
 20
1.0
 30
0.0
  9
$PUCSNAME
  2

  9
$PUCSORG
 10
0.0
 20
0.0
 30
0.0
  9
$PUCSXDIR
 10
1.0
 20
0.0
 30
0.0
  9
$PUCSYDIR
 10
0.0
 20
1.0
 30
0.0
  9
$USERI1
 70
     0
  9
$USERI2
 70
     0
  9
$USERI3
 70
     0
  9
$USERI4
 70
     0
  9
$USERI5
 70
     0
  9
$USERR1
 40
0.0
  9
$USERR2
 40
0.0
  9
$USERR3
 40
0.0
  9
$USERR4
 40
0.0
  9
$USERR5
 40
0.0
  9
$WORLDVIEW
 70
     1
  9
$SHADEDGE
 70
     3
  9
$SHADEDIF
 70
    70
  9
$TILEMODE
 70
     1
  9
$MAXACTVP
 70
    64
  9
$PLIMCHECK
 70
     0
  9
$PEXTMIN
 10
1.0000000000000000E+20
 20
1.0000000000000000E+20
 30
1.0000000000000000E+20
  9
$PEXTMAX
 10
-1.0000000000000000E+20
 20
-1.0000000000000000E+20
 30
-1.0000000000000000E+20
  9
$PLIMMIN
 10
0.0
 20
0.0
  9
$PLIMMAX
 10
12.0
 20
9.0
  9
$UNITMODE
 70
     0
  9
$VISRETAIN
 70
     1
  9
$PLINEGEN
 70
     0
  9
$PSLTSCALE
 70
     1
  0
ENDSEC
  0
SECTION
  2
TABLES
  0
TABLE
  2
VPORT
 70
     1
  0
VPORT
  2
*ACTIVE
 70
     0
 10
0.0
 20
0.0
 11
1.0
 21
1.0
 12
36.79184017909256
 22
-1.123184121436821
 13
0.0
 23
0.0
 14
1.0
 24
1.0
 15
0.0
 25
0.0
 16
0.0
 26
0.0
 36
48.1717359839548322
 17
2341.974853515625
 27
136.3334975801919029
 37
0.0
 40
11.63259921975677
 41
1.67063492063492
 42
50.0
 43
0.0
 44
0.0
 50
0.0
 51
0.0
 71
     0
 72
   100
 73
     1
 74
     1
 75
     0
 76
     0
 77
     0
 78
     0
  0
ENDTAB
  0
TABLE
  2
LTYPE
 70
     2
  0
LTYPE
  2
CONTINUOUS
 70
     0
  3
Solid line
 72
    65
 73
     0
 40
0.0
  0
LTYPE
  2
PHANTOM2
 70
     0
  3
___ _ _ ___ _ _ ___ _ _ ___ _ _
 72
    65
 73
     6
 40
1.25
 49
0.625
 49
-0.125
 49
0.125
 49
-0.125
 49
0.125
 49
-0.125
  0
ENDTAB
  0
TABLE
  2
LAYER
 70
     2
  0
LAYER
  2
0
 70
     0
 62
   255
  6
CONTINUOUS
  0
LAYER
  2
DEFPOINTS
 70
     0
 62
     7
  6
CONTINUOUS
  0
ENDTAB
  0
TABLE
  2
STYLE
 70
     1
  0
STYLE
  2
STANDARD
 70
     0
 40
0.0
 41
0.8
 50
0.0
 71
     0
 42
0.2
  3
txt
  4

  0
ENDTAB
  0
TABLE
  2
VIEW
 70
     0
  0
ENDTAB
  0
TABLE
  2
UCS
 70
     0
  0
ENDTAB
  0
TABLE
  2
APPID
 70
     9
  0
APPID
  2
ACAD
 70
     0
  0
APPID
  2
ACAD_MLEADERVER
 70
     0
  0
APPID
  2
ACAD_EXEMPT_FROM_CAD_STANDARDS
 70
     0
  0
APPID
  2
ACAD_NAV_VCDISPLAY
 70
     0
  0
APPID
  2
ACAECLAYERSTANDARD
 70
     0
  0
APPID
  2
ACCMTRANSPARENCY
 70
     0
  0
APPID
  2
ACAD_DSTYLE_DIMJAG
 70
     0
  0
APPID
  2
ACAD_DSTYLE_DIMTALN
 70
     0
  0
APPID
  2
ACDBATTR
 70
     0
  0
ENDTAB
  0
TABLE
  2
DIMSTYLE
 70
     1
  0
DIMSTYLE
  2
STANDARD
 70
     0
  3

  4

  5

  6

  7

 40
1.0
 41
0.1875
 42
0.0625
 43
0.38
 44
0.125
 45
0.0
 46
0.0
 47
0.01
 48
0.01
140
0.15625
141
0.09
142
0.0
143
25.3999999999999986
144
1.0
145
0.0
146
1.0
147
0.09
 71
     1
 72
     0
 73
     1
 74
     1
 75
     0
 76
     0
 77
     0
 78
     4
170
     0
171
     2
172
     0
173
     0
174
     0
175
     0
176
     0
177
     0
178
     0
  0
ENDTAB
  0
ENDSEC
  0
SECTION
  2
BLOCKS
  0
BLOCK
  8
0
  2
$MODEL_SPACE
 70
     0
 10
0.0
 20
0.0
 30
0.0
  3
$MODEL_SPACE
  1

  0
ENDBLK
  5
21
  8
0
  0
BLOCK
 67
     1
  8
0
  2
$PAPER_SPACE
 70
     0
 10
0.0
 20
0.0
 30
0.0
  3
$PAPER_SPACE
  1

  0
ENDBLK
  5
1D
 67
     1
  8
0
  0
ENDSEC
  0
SECTION
  2
ENTITIES
  0
ATTDEF
  5
3930
  8
DEFPOINTS
 10
2378.7628743138147911
 20
140.9798754570223025
 30
0.0
 40
0.001
  1
P21522-00
  3

  2
MODELNUMBER
 70
     0
1001
ACDBATTR
1070
     0
1070
     1
  0
ATTDEF
  5
3931
  8
DEFPOINTS
 10
2378.7628743138147911
 20
140.9782087903556089
 30
0.0
 40
0.001
  1

  3

  2
TRADENAME
 70
     0
1001
ACDBATTR
1070
     0
1070
     1
  0
ATTDEF
  5
3932
  8
DEFPOINTS
 10
2378.7628743138147911
 20
140.9765421236888869
 30
0.0
 40
0.001
  1
SHOWER ARM
  3

  2
PRODUCT
 70
     0
1001
ACDBATTR
1070
     0
1070
     1
  0
LINE
  5
8E4D
  8
0
 10
2379.172943691060027
 20
140.9754497947878065
 30
0.0
 11
2379.172943691060027
 21
129.8588518071894953
 31
0.0
  0
LINE
  5
8E4E
  8
0
 10
2378.3604436947330214
 20
140.9754497947878065
 30
0.0
 11
2378.3604436947330214
 21
129.8239380675877896
 31
0.0
  0
LINE
  5
8E4F
  8
0
 10
2378.3604436947330214
 20
129.7535634622877865
 30
0.0
 11
2378.3604436947330214
 21
129.7799692478878057
 31
0.0
  0
LINE
  5
8E50
  8
0
 10
2378.3604436947330214
 20
129.7074834244878048
 30
0.0
 11
2378.3604436947030081
 21
129.6837697150878057
 31
0.0
  0
LINE
  5
8E51
  8
0
 10
2378.3604436947330214
 20
129.6349937464877939
 30
0.0
 11
2378.3604436947471186
 21
129.6112821427877861
 31
0.0
  0
LINE
  5
8E52
  8
0
 10
2378.3604436947771319
 20
129.5624932314387934
 30
0.0
 11
2378.3604436947330214
 21
129.5424585514878117
 31
0.0
  0
LINE
  5
8E53
  8
0
 10
2379.1473225464460484
 20
129.4688146088755047
 30
0.0
 11
2379.1290023939332059
 21
129.4794526762885027
 31
0.0
  0
LINE
  5
8E54
  8
0
 10
2379.1363523220311436
 20
129.7680957422927008
 30
0.0
 11
2379.1363523220329625
 21
129.7654516548921038
 31
0.0
  0
LINE
  5
8E55
  8
0
 10
2379.1345207490307985
 20
129.6964167150082119
 30
0.0
 11
2379.1345207490330722
 21
129.6937291817644109
 31
0.0
  0
LINE
  5
8E56
  8
0
 10
2379.1326181096310393
 20
129.6248482325206055
 30
0.0
 11
2379.1326181096328582
 21
129.622316509297093
 31
0.0
  0
LINE
  5
8E57
  8
0
 10
2379.1307934848309742
 20
129.5536812190819091
 30
0.0
 11
2379.1307934848327932
 21
129.5511478864098933
 31
0.0
  0
LINE
  5
8E58
  8
0
 10
2379.1290023939332059
 20
129.4815950276878027
 30
0.0
 11
2379.1290023939332059
 21
129.4794526762885027
 31
0.0
  0
LINE
  5
8E59
  8
0
 10
2379.172943691060027
 20
129.8588518071894953
 30
0.0
 11
2379.1381775861641472
 21
129.8387370831534042
 31
0.0
  0
LINE
  5
8E5A
  8
0
 10
2379.1381775861650567
 20
129.836574395853404
 30
0.0
 11
2379.1729436947330214
 21
129.81623955618781
 31
0.0
  0
LINE
  5
8E5B
  8
0
 10
2379.1729436947330214
 20
129.788750322987795
 30
0.0
 11
2379.1363523220311436
 21
129.7680957422927008
 31
0.0
  0
LINE
  5
8E5C
  8
0
 10
2379.1363523220329625
 20
129.7654516548921038
 30
0.0
 11
2379.1729436947330214
 21
129.7437267723877881
 31
0.0
  0
LINE
  5
8E5D
  8
0
 10
2379.1729436947330214
 20
129.7183776908223081
 30
0.0
 11
2379.1345207490307985
 21
129.6964167150082119
 31
0.0
  0
LINE
  5
8E5E
  8
0
 10
2379.1345207490330722
 20
129.6937291817644109
 30
0.0
 11
2379.1729436947330214
 21
129.6712390597878084
 31
0.0
  0
LINE
  5
8E5F
  8
0
 10
2379.1729436947330214
 20
129.6712390597878084
 30
0.0
 11
2379.172943694724836
 21
129.6475261926150893
 31
0.0
  0
LINE
  5
8E60
  8
0
 10
2379.172943694724836
 20
129.6475261926150893
 30
0.0
 11
2379.1326181096310393
 21
129.6248482325206055
 31
0.0
  0
LINE
  5
8E61
  8
0
 10
2379.1326181096328582
 20
129.622316509297093
 30
0.0
 11
2379.1729436923119465
 21
129.5987358995315901
 31
0.0
  0
LINE
  5
8E62
  8
0
 10
2379.1729436923119465
 20
129.5987358995315901
 30
0.0
 11
2379.1729436442510632
 21
129.577648897952713
 31
0.0
  0
LINE
  5
8E63
  8
0
 10
2379.1729436442510632
 20
129.577648897952713
 30
0.0
 11
2379.1307934848309742
 21
129.5536812190819091
 31
0.0
  0
LINE
  5
8E64
  8
0
 10
2379.1307934848327932
 20
129.5511478864098933
 30
0.0
 11
2379.1729436947330214
 21
129.5262508823878136
 31
0.0
  0
LINE
  5
8E65
  8
0
 10
2379.1729436947330214
 20
129.5262508823878136
 30
0.0
 11
2379.172943694632977
 21
129.5072671503878041
 31
0.0
  0
LINE
  5
8E66
  8
0
 10
2379.172943694632977
 20
129.5072671503878041
 30
0.0
 11
2379.1290023939332059
 21
129.4815950276878027
 31
0.0
  0
LINE
  5
8E67
  8
0
 10
2379.1729436947330214
 20
129.81623955618781
 30
0.0
 11
2379.1729436947330214
 21
129.788750322987795
 31
0.0
  0
LINE
  5
8E68
  8
0
 10
2379.1729436947330214
 20
129.7437267723877881
 30
0.0
 11
2379.1729436947330214
 21
129.7183776908223081
 31
0.0
  0
LINE
  5
8E69
  8
0
 10
2378.3961213896309346
 20
129.8032965464877861
 30
0.0
 11
2378.3961213896332083
 21
129.8008631739878069
 31
0.0
  0
LINE
  5
8E6A
  8
0
 10
2378.3979501085309494
 20
129.7318935325760947
 30
0.0
 11
2378.3979501085332231
 21
129.7294401145877885
 31
0.0
  0
LINE
  5
8E6B
  8
0
 10
2378.3997846478309839
 20
129.6603842404124123
 30
0.0
 11
2378.3997846478328029
 21
129.657991726712396
 31
0.0
  0
LINE
  5
8E6C
  8
0
 10
2378.4016867664331585
 20
129.5887468485435079
 30
0.0
 11
2378.4016867664331585
 21
129.5862933086878002
 31
0.0
  0
LINE
  5
8E6D
  8
0
 10
2378.4034912149340926
 20
129.5172648817134018
 30
0.0
 11
2378.4034912156330392
 21
129.5148663655878067
 31
0.0
  0
LINE
  5
8E6E
  8
0
 10
2378.3604436947330214
 20
129.8239380675877896
 30
0.0
 11
2378.3961213896332083
 21
129.8032965464877009
 31
0.0
  0
LINE
  5
8E6F
  8
0
 10
2378.3961213896332083
 20
129.8008631739878069
 30
0.0
 11
2378.3604436947330214
 21
129.7799692478878057
 31
0.0
  0
LINE
  5
8E70
  8
0
 10
2378.3604436947330214
 20
129.7535634622877865
 30
0.0
 11
2378.3979501085309494
 21
129.7318935325760947
 31
0.0
  0
LINE
  5
8E71
  8
0
 10
2378.3979501085332231
 20
129.7294401145877885
 30
0.0
 11
2378.3604436947330214
 21
129.7074834244878048
 31
0.0
  0
LINE
  5
8E72
  8
0
 10
2378.3604436947030081
 20
129.6837697150878057
 30
0.0
 11
2378.3997846478309839
 21
129.6603842404124123
 31
0.0
  0
LINE
  5
8E73
  8
0
 10
2378.3997846478328029
 20
129.657991726712396
 30
0.0
 11
2378.3604436947330214
 21
129.6349937464877939
 31
0.0
  0
LINE
  5
8E74
  8
0
 10
2378.3604436947471186
 20
129.6112821427877861
 30
0.0
 11
2378.4016867664331585
 21
129.5887468485435079
 31
0.0
  0
LINE
  5
8E75
  8
0
 10
2378.4016867664331585
 20
129.5862933086878002
 30
0.0
 11
2378.3604436947771319
 21
129.5624932314387934
 31
0.0
  0
LINE
  5
8E76
  8
0
 10
2378.3604436947330214
 20
129.5424585514878117
 30
0.0
 11
2378.4034912149340926
 21
129.5172648817134018
 31
0.0
  0
LINE
  5
8E77
  8
0
 10
2378.4034912156330392
 20
129.5148663655878067
 30
0.0
 11
2378.363128116533062
 21
129.4915670386878048
 31
0.0
  0
LINE
  5
8E78
  8
0
 10
2379.1729436947330214
 20
129.788750322987795
 30
0.0
 11
2378.3604436947330214
 21
129.8239380675877896
 31
0.0
  0
LINE
  5
8E79
  8
0
 10
2379.1363523220311436
 20
129.7680957422927008
 30
0.0
 11
2378.3961213896309346
 21
129.8032965464877861
 31
0.0
  0
LINE
  5
8E7A
  8
0
 10
2378.3961213896332083
 20
129.8008631739878069
 30
0.0
 11
2379.1363523220329625
 21
129.7654516548921038
 31
0.0
  0
LINE
  5
8E7B
  8
0
 10
2379.1729436947330214
 20
129.7437267723877881
 30
0.0
 11
2378.3604436947330214
 21
129.7799692478878057
 31
0.0
  0
LINE
  5
8E7C
  8
0
 10
2378.3604436947330214
 20
129.7535634622877865
 30
0.0
 11
2379.1729436947330214
 21
129.7183776908223081
 31
0.0
  0
LINE
  5
8E7D
  8
0
 10
2379.1345207490307985
 20
129.6964167150082119
 30
0.0
 11
2378.3979501085309494
 21
129.7318935325760947
 31
0.0
  0
LINE
  5
8E7E
  8
0
 10
2378.3979501085332231
 20
129.7294401145877885
 30
0.0
 11
2379.1345207490330722
 21
129.6937291817644109
 31
0.0
  0
LINE
  5
8E7F
  8
0
 10
2379.1729436947330214
 20
129.6712390597878084
 30
0.0
 11
2378.3604436947330214
 21
129.7074834244878048
 31
0.0
  0
LINE
  5
8E80
  8
0
 10
2378.3604436947030081
 20
129.6837697150878057
 30
0.0
 11
2379.172943694724836
 21
129.6475261926150893
 31
0.0
  0
LINE
  5
8E81
  8
0
 10
2379.1326181096310393
 20
129.6248482325206055
 30
0.0
 11
2378.3997846478309839
 21
129.6603842404124123
 31
0.0
  0
LINE
  5
8E82
  8
0
 10
2378.3997846478328029
 20
129.657991726712396
 30
0.0
 11
2379.1326181096328582
 21
129.622316509297093
 31
0.0
  0
LINE
  5
8E83
  8
0
 10
2379.1729436923119465
 20
129.5987358995315901
 30
0.0
 11
2378.3604436947330214
 21
129.6349937464877939
 31
0.0
  0
LINE
  5
8E84
  8
0
 10
2378.3604436947471186
 20
129.6112821427877861
 30
0.0
 11
2379.1729436442510632
 21
129.577648897952713
 31
0.0
  0
LINE
  5
8E85
  8
0
 10
2379.1307934848309742
 20
129.5536812190819091
 30
0.0
 11
2378.4016867664331585
 21
129.5887468485435079
 31
0.0
  0
LINE
  5
8E86
  8
0
 10
2378.4016867664331585
 20
129.5862933086878002
 30
0.0
 11
2379.1307934848327932
 21
129.5511478864098933
 31
0.0
  0
LINE
  5
8E87
  8
0
 10
2379.1729436947330214
 20
129.5262508823878136
 30
0.0
 11
2378.3604436947771319
 21
129.5624932314387934
 31
0.0
  0
LINE
  5
8E88
  8
0
 10
2378.3604436947330214
 20
129.5424585514878117
 30
0.0
 11
2379.172943694632977
 21
129.5072671503878041
 31
0.0
  0
LINE
  5
8E89
  8
0
 10
2379.1290023939332059
 20
129.4815950276878027
 30
0.0
 11
2378.4034912149340926
 21
129.5172648817134018
 31
0.0
  0
LINE
  5
8E8A
  8
0
 10
2378.4034912156330392
 20
129.5148663655878067
 30
0.0
 11
2379.1290023939332059
 21
129.4794526762885027
 31
0.0
  0
LINE
  5
8E8B
  8
0
 10
2378.4149436947332106
 20
129.4397514604877983
 30
0.0
 11
2379.1184436947328322
 21
129.439751460487912
 31
0.0
  0
LINE
  5
8E8C
  8
0
 10
2378.4149436947332106
 20
129.4397514604877983
 30
0.0
 11
2378.363128116533062
 21
129.4915670386878048
 31
0.0
  0
LINE
  5
8E8D
  8
0
 10
2379.1473225464460484
 20
129.4688146088755047
 30
0.0
 11
2379.1184436947328322
 21
129.439751460487912
 31
0.0
  0
LINE
  5
8E8E
  8
0
 10
2378.363128116533062
 20
129.4915670386878048
 30
0.0
 11
2379.1473225464460484
 21
129.4688146088755047
 31
0.0
  0
LINE
  5
8E8F
  8
0
 10
2378.8971813731332077
 20
129.8484740282877965
 30
0.0
 11
2378.8971813731332077
 21
129.8457027469877971
 31
0.0
  0
LINE
  5
8E90
  8
0
 10
2378.8971813731332077
 20
129.8484847136849964
 30
0.0
 11
2379.0179625210857921
 21
129.8484847136849964
 31
0.0
  0
LINE
  5
8E91
  8
0
 10
2379.0179625210857921
 20
129.8484847136849964
 30
0.0
 11
2379.0412786761330608
 21
129.8684122408878068
 31
0.0
  0
LINE
  5
8E92
  8
0
 10
2379.0412786761330608
 20
129.8684122408878068
 30
0.0
 11
2379.1729436947330214
 21
129.8591271745877975
 31
0.0
  0
LINE
  5
8E93
  8
0
 10
2379.0412659034191165
 20
129.8684013244825906
 30
0.0
 11
2378.8971813731332077
 21
129.8484740282877965
 31
0.0
  0
LINE
  5
8E94
  8
0
 10
2379.0179625210857921
 20
129.8484847136849964
 30
0.0
 11
2379.0179493749328685
 21
129.8456882215878068
 31
0.0
  0
LINE
  5
8E95
  8
0
 10
2379.1381775861641472
 20
129.8387370831534042
 30
0.0
 11
2379.01795001163282
 21
129.8484890599877986
 31
0.0
  0
LINE
  5
8E96
  8
0
 10
2379.0179493749328685
 20
129.8456882215878068
 30
0.0
 11
2379.0412779676330501
 21
129.8257754877878085
 31
0.0
  0
LINE
  5
8E97
  8
0
 10
2379.0412779676330501
 20
129.8257754877878085
 30
0.0
 11
2379.1729436947330214
 21
129.81623955618781
 31
0.0
  0
LINE
  5
8E98
  8
0
 10
2379.0412782126331876
 20
129.8257648949877989
 30
0.0
 11
2378.8971813731332077
 21
129.8457027469877971
 31
0.0
  0
LINE
  5
8E99
  8
0
 10
2379.138177530628127
 20
129.8365744284776895
 30
0.0
 11
2379.1381775861641472
 21
129.8387370831534042
 31
0.0
  0
LINE
  5
8E9A
  8
0
 10
2378.8971813731332077
 20
129.8457027469877971
 30
0.0
 11
2379.0179719577381547
 21
129.8456834568129068
 31
0.0
  0
LINE
  5
8E9B
  8
0
 10
2379.1381775861650567
 20
129.836574395853404
 30
0.0
 11
2379.0179320641332197
 21
129.8457175338878073
 31
0.0
  0
LINE
  5
8E9D
  8
0
 10
2378.3604436947330214
 20
140.9754497947878065
 30
0.0
 11
2379.172943691060027
 21
140.9754497947878065
 31
0.0
  0
ENDSEC
  0
EOF
