  0
SECTION
  2
HEADER
  9
$ACADVER
  1
AC1009
  9
$INSBASE
 10
59.0471601647894886
 20
35.5127092141166898
 30
0.0
  9
$EXTMIN
 10
58.6523016063361808
 20
29.5112686379209883
 30
-0.0000000000112498
  9
$EXTMAX
 10
59.4414313683683417
 20
35.5188790484242602
 30
0.0000000000002956
  9
$LIMMIN
 10
0.0
 20
0.0
  9
$LIMMAX
 10
11.6929133858000007
 20
8.2677165353999982
  9
$ORTHOMODE
 70
     0
  9
$REGENMODE
 70
     1
  9
$FILLMODE
 70
     1
  9
$QTEXTMODE
 70
     0
  9
$MIRRTEXT
 70
     0
  9
$DRAGMODE
 70
     2
  9
$LTSCALE
 40
0.6431102362
  9
$OSMODE
 70
   575
  9
$ATTMODE
 70
     1
  9
$TEXTSIZE
 40
0.2
  9
$TRACEWID
 40
0.05
  9
$TEXTSTYLE
  7
STANDARD
  9
$CLAYER
  8
0
  9
$CELTYPE
  6
BYLAYER
  9
$CECOLOR
 62
   256
  9
$DIMSCALE
 40
1.0
  9
$DIMASZ
 40
0.1875
  9
$DIMEXO
 40
0.0625
  9
$DIMDLI
 40
0.4443307087
  9
$DIMRND
 40
0.0
  9
$DIMDLE
 40
0.0
  9
$DIMEXE
 40
0.125
  9
$DIMTP
 40
0.01
  9
$DIMTM
 40
0.01
  9
$DIMTXT
 40
1.0
  9
$DIMCEN
 40
0.1052362205
  9
$DIMTSZ
 40
0.0
  9
$DIMTOL
 70
     1
  9
$DIMLIM
 70
     0
  9
$DIMTIH
 70
     1
  9
$DIMTOH
 70
     1
  9
$DIMSE1
 70
     0
  9
$DIMSE2
 70
     0
  9
$DIMTAD
 70
     0
  9
$DIMZIN
 70
     0
  9
$DIMBLK
  1

  9
$DIMASO
 70
     1
  9
$DIMSHO
 70
     1
  9
$DIMPOST
  1
\X
  9
$DIMAPOST
  1

  9
$DIMALT
 70
     1
  9
$DIMALTD
 70
     2
  9
$DIMALTF
 40
25.3999999999999986
  9
$DIMLFAC
 40
1.0
  9
$DIMTOFL
 70
     0
  9
$DIMTVP
 40
0.0
  9
$DIMTIX
 70
     0
  9
$DIMSOXD
 70
     0
  9
$DIMSAH
 70
     0
  9
$DIMBLK1
  1

  9
$DIMBLK2
  1

  9
$DIMSTYLE
  2
STANDARD
  9
$DIMCLRD
 70
     0
  9
$DIMCLRE
 70
     0
  9
$DIMCLRT
 70
     0
  9
$DIMTFAC
 40
1.0
  9
$DIMGAP
 40
0.09
  9
$LUNITS
 70
     2
  9
$LUPREC
 70
     4
  9
$SKETCHINC
 40
0.1
  9
$FILLETRAD
 40
0.0
  9
$AUNITS
 70
     0
  9
$AUPREC
 70
     0
  9
$MENU
  1
.
  9
$ELEVATION
 40
0.0
  9
$PELEVATION
 40
0.0
  9
$THICKNESS
 40
0.0
  9
$LIMCHECK
 70
     0
  9
$BLIPMODE
 70
     0
  9
$CHAMFERA
 40
0.0
  9
$CHAMFERB
 40
0.0
  9
$SKPOLY
 70
     0
  9
$TDCREATE
 40
2458172.4620254631154239
  9
$TDUPDATE
 40
2459507.5259606479667127
  9
$TDINDWG
 40
0.1274364931
  9
$TDUSRTIMER
 40
0.1274364931
  9
$USRTIMER
 70
     1
  9
$ANGBASE
 50
0.0
  9
$ANGDIR
 70
     0
  9
$PDMODE
 70
     0
  9
$PDSIZE
 40
0.3125
  9
$PLINEWID
 40
0.0
  9
$COORDS
 70
     1
  9
$SPLFRAME
 70
     0
  9
$SPLINETYPE
 70
     6
  9
$SPLINESEGS
 70
     8
  9
$ATTDIA
 70
     1
  9
$ATTREQ
 70
     1
  9
$HANDLING
 70
     1
  9
$HANDSEED
  5
B640
  9
$SURFTAB1
 70
     6
  9
$SURFTAB2
 70
     6
  9
$SURFTYPE
 70
     6
  9
$SURFU
 70
     6
  9
$SURFV
 70
     6
  9
$UCSNAME
  2

  9
$UCSORG
 10
0.0
 20
0.0
 30
0.0
  9
$UCSXDIR
 10
1.0
 20
0.0
 30
0.0
  9
$UCSYDIR
 10
0.0
 20
1.0
 30
0.0
  9
$PUCSNAME
  2

  9
$PUCSORG
 10
0.0
 20
0.0
 30
0.0
  9
$PUCSXDIR
 10
1.0
 20
0.0
 30
0.0
  9
$PUCSYDIR
 10
0.0
 20
1.0
 30
0.0
  9
$USERI1
 70
     0
  9
$USERI2
 70
     0
  9
$USERI3
 70
     0
  9
$USERI4
 70
     0
  9
$USERI5
 70
     0
  9
$USERR1
 40
0.0
  9
$USERR2
 40
0.0
  9
$USERR3
 40
0.0
  9
$USERR4
 40
0.0
  9
$USERR5
 40
0.0
  9
$WORLDVIEW
 70
     1
  9
$SHADEDGE
 70
     3
  9
$SHADEDIF
 70
    70
  9
$TILEMODE
 70
     1
  9
$MAXACTVP
 70
    64
  9
$PLIMCHECK
 70
     0
  9
$PEXTMIN
 10
1.0000000000000000E+20
 20
1.0000000000000000E+20
 30
1.0000000000000000E+20
  9
$PEXTMAX
 10
-1.0000000000000000E+20
 20
-1.0000000000000000E+20
 30
-1.0000000000000000E+20
  9
$PLIMMIN
 10
0.0
 20
0.0
  9
$PLIMMAX
 10
12.0
 20
9.0
  9
$UNITMODE
 70
     0
  9
$VISRETAIN
 70
     1
  9
$PLINEGEN
 70
     0
  9
$PSLTSCALE
 70
     1
  0
ENDSEC
  0
SECTION
  2
TABLES
  0
TABLE
  2
VPORT
 70
     1
  0
VPORT
  2
*ACTIVE
 70
     0
 10
0.0
 20
0.0
 11
1.0
 21
1.0
 12
-65.5642921127203806
 22
27.2027996727948
 13
0.0
 23
0.0
 14
1.0
 24
1.0
 15
0.0
 25
0.0
 16
0.0
 26
0.0
 36
30.6214257250603907
 17
124.6111586000725993
 27
5.3122741703778242
 37
0.0
 40
6.0644647677004491
 41
2.4470774091627172
 42
50.0
 43
0.0
 44
0.0
 50
0.0
 51
0.0
 71
     0
 72
   100
 73
     1
 74
     1
 75
     0
 76
     0
 77
     0
 78
     0
  0
ENDTAB
  0
TABLE
  2
LTYPE
 70
     2
  0
LTYPE
  2
CONTINUOUS
 70
     0
  3
Solid line
 72
    65
 73
     0
 40
0.0
  0
LTYPE
  2
PHANTOM2
 70
     0
  3
___ _ _ ___ _ _ ___ _ _ ___ _ _
 72
    65
 73
     6
 40
1.25
 49
0.625
 49
-0.125
 49
0.125
 49
-0.125
 49
0.125
 49
-0.125
  0
ENDTAB
  0
TABLE
  2
LAYER
 70
     2
  0
LAYER
  2
0
 70
     0
 62
   255
  6
CONTINUOUS
  0
LAYER
  2
DEFPOINTS
 70
     0
 62
     7
  6
CONTINUOUS
  0
ENDTAB
  0
TABLE
  2
STYLE
 70
     1
  0
STYLE
  2
STANDARD
 70
     0
 40
0.0
 41
0.8
 50
0.0
 71
     0
 42
0.2
  3
txt
  4

  0
ENDTAB
  0
TABLE
  2
VIEW
 70
     0
  0
ENDTAB
  0
TABLE
  2
UCS
 70
     0
  0
ENDTAB
  0
TABLE
  2
APPID
 70
     9
  0
APPID
  2
ACAD
 70
     0
  0
APPID
  2
ACAD_MLEADERVER
 70
     0
  0
APPID
  2
ACAD_EXEMPT_FROM_CAD_STANDARDS
 70
     0
  0
APPID
  2
ACAD_DSTYLE_DIMJAG
 70
     0
  0
APPID
  2
ACAD_DSTYLE_DIMTALN
 70
     0
  0
APPID
  2
ACAD_NAV_VCDISPLAY
 70
     0
  0
APPID
  2
ACAECLAYERSTANDARD
 70
     0
  0
APPID
  2
ACCMTRANSPARENCY
 70
     0
  0
APPID
  2
ACDBATTR
 70
     0
  0
ENDTAB
  0
TABLE
  2
DIMSTYLE
 70
     1
  0
DIMSTYLE
  2
STANDARD
 70
     0
  3

  4

  5

  6

  7

 40
1.0
 41
0.1875
 42
0.0625
 43
0.38
 44
0.125
 45
0.0
 46
0.0
 47
0.01
 48
0.01
140
0.15625
141
0.09
142
0.0
143
25.3999999999999986
144
1.0
145
0.0
146
1.0
147
0.09
 71
     1
 72
     0
 73
     1
 74
     1
 75
     0
 76
     0
 77
     0
 78
     4
170
     0
171
     2
172
     0
173
     0
174
     0
175
     0
176
     0
177
     0
178
     0
  0
ENDTAB
  0
ENDSEC
  0
SECTION
  2
BLOCKS
  0
BLOCK
  8
0
  2
$MODEL_SPACE
 70
     0
 10
0.0
 20
0.0
 30
0.0
  3
$MODEL_SPACE
  1

  0
ENDBLK
  5
21
  8
0
  0
BLOCK
 67
     1
  8
0
  2
$PAPER_SPACE
 70
     0
 10
0.0
 20
0.0
 30
0.0
  3
$PAPER_SPACE
  1

  0
ENDBLK
  5
1D
 67
     1
  8
0
  0
ENDSEC
  0
SECTION
  2
ENTITIES
  0
ATTDEF
  5
383D
  8
DEFPOINTS
 10
59.0471514095673911
 20
35.5162233385305512
 30
0.0
 40
0.001
  1
P21521-00
  3

  2
MODELNUMBER
 70
     0
1001
ACDBATTR
1070
     0
1070
     1
  0
ATTDEF
  5
383E
  8
DEFPOINTS
 10
59.0471515396459665
 20
35.514556671863879
 30
0.0
 40
0.001
  1

  3

  2
TRADENAME
 70
     0
1001
ACDBATTR
1070
     0
1070
     1
  0
ATTDEF
  5
383F
  8
DEFPOINTS
 10
59.0471515375770579
 20
35.5128900051972209
 30
0.0
 40
0.001
  1
SHOWER ARM
  3

  2
PRODUCT
 70
     0
1001
ACDBATTR
1070
     0
1070
     1
  0
LINE
  5
B39F
  8
0
 10
58.6531601647894902
 20
29.5327092141166894
 30
0.0
 11
59.1305714026894904
 21
29.5327092141166894
 31
0.0
  0
LINE
  5
B3A0
  8
0
 10
58.6753454923894893
 20
35.4543465690166926
 30
0.0
 11
58.6536481596894816
 21
35.4430304607166917
 31
0.0
  0
LINE
  5
B3A1
  8
0
 10
58.6753433255895018
 20
35.3843464687166929
 30
0.0
 11
58.6536440658894875
 21
35.3730295304166873
 31
0.0
  0
LINE
  5
B3A2
  8
0
 10
58.6753934313894874
 20
35.3144668509166877
 30
0.0
 11
58.6537294662894908
 21
35.3031712692166906
 31
0.0
  0
LINE
  5
B3A3
  8
0
 10
58.6754426491894918
 20
29.571023148216689
 30
0.0
 11
58.6754426491894918
 21
29.571023148216689
 31
0.0
  0
LINE
  5
B3A4
  8
0
 10
58.6537294458894891
 20
29.7222337356166904
 30
0.0
 11
58.6753906070894899
 21
29.7109530500166912
 31
0.0
  0
LINE
  5
B3A5
  8
0
 10
58.6536481596894816
 20
29.5823879675166914
 30
0.0
 11
58.6754426491894918
 21
29.571023148216689
 31
0.0
  0
LINE
  5
B3A6
  8
0
 10
58.6536440658894875
 20
29.6523888978166887
 30
0.0
 11
58.6753452394894879
 21
29.6410709612166912
 31
0.0
  0
LINE
  5
B3A7
  8
0
 10
58.6754011488894918
 20
35.244468697716691
 30
0.0
 11
58.6537329206894924
 21
35.2331706605166914
 31
0.0
  0
LINE
  5
B3A8
  8
0
 10
59.4188837692894225
 20
35.5059306760166606
 30
0.0
 11
59.4244105779894909
 21
35.5088113183166882
 31
0.0
  0
LINE
  5
B3A9
  8
0
 10
59.4189663284894891
 20
35.4359850170166908
 30
0.0
 11
59.4406305242894888
 21
35.4472549189166912
 31
0.0
  0
LINE
  5
B3AA
  8
0
 10
58.6537329206894924
 20
29.7922477677166917
 30
0.0
 11
58.6753951955894877
 21
29.7809528349166897
 31
0.0
  0
LINE
  5
B3AB
  8
0
 10
59.4406304870894928
 20
29.5781381754166901
 30
0.0
 11
59.4189656680894913
 21
29.5894337555166906
 31
0.0
  0
LINE
  5
B3AC
  8
0
 10
58.6536481596894816
 20
35.4430304607166917
 30
0.0
 11
58.6531601647894902
 21
35.4425857548166903
 31
0.0
  0
LINE
  5
B3AD
  8
0
 10
58.6537294662894908
 20
35.3031712692166906
 30
0.0
 11
58.6531601647894902
 21
35.3025857548166897
 31
0.0
  0
LINE
  5
B3AE
  8
0
 10
58.6731601647894934
 20
35.5127092141166898
 30
0.0
 11
58.6531601647894902
 21
35.4927092141166867
 31
0.0
  0
LINE
  5
B3AF
  8
0
 10
59.434079769989502
 20
35.2256960135167034
 30
0.0
 11
59.4398080178894901
 21
35.228647924116693
 31
0.0
  0
LINE
  5
B3B0
  8
0
 10
59.4189201499894821
 20
35.3659514093167004
 30
0.0
 11
59.4405831314894897
 21
35.3772296579166934
 31
0.0
  0
LINE
  5
B3B1
  8
0
 10
59.4189258847894877
 20
35.2959532388166934
 30
0.0
 11
59.4405874323894921
 21
35.3072318896166877
 31
0.0
  0
LINE
  5
B3B2
  8
0
 10
59.4405831050894875
 20
29.6481715335166918
 30
0.0
 11
59.4189126299894923
 21
29.659470940316691
 31
0.0
  0
LINE
  5
B3B3
  8
0
 10
59.4405874081894865
 20
29.7181706477166898
 30
0.0
 11
59.4189191561894887
 21
29.7294686980166887
 31
0.0
  0
LINE
  5
B3B4
  8
0
 10
59.4398080663894888
 20
29.7967843100166903
 30
0.0
 11
59.4339725809894901
 21
29.7997781304166907
 31
0.0
  0
LINE
  5
B3B5
  8
0
 10
58.6731601647894934
 20
29.5127092141166898
 30
0.0
 11
58.6531601647894902
 21
29.5327092141166894
 31
0.0
  0
LINE
  5
B3B6
  8
0
 10
58.6531601647894902
 20
29.7228326734166899
 30
0.0
 11
58.6537294458894891
 21
29.7222337356166904
 31
0.0
  0
LINE
  5
B3B7
  8
0
 10
58.6531601647894902
 20
29.5828326734166893
 30
0.0
 11
58.6536481596894816
 21
29.5823879675166914
 31
0.0
  0
LINE
  5
B3B8
  8
0
 10
58.6536440658894875
 20
35.3730295304166873
 30
0.0
 11
58.6531601647894902
 21
35.37258575481669
 31
0.0
  0
LINE
  5
B3B9
  8
0
 10
58.6537329206894924
 20
35.2331706605166914
 30
0.0
 11
58.6531601647894902
 21
35.2325857548166894
 31
0.0
  0
LINE
  5
B3BA
  8
0
 10
58.6531601647894902
 20
29.7928326734166902
 30
0.0
 11
58.6537329206894924
 21
29.7922477677166917
 31
0.0
  0
LINE
  5
B3BB
  8
0
 10
58.6531601647894902
 20
29.6528326734166896
 30
0.0
 11
58.6536440658894875
 21
29.6523888978166887
 31
0.0
  0
LINE
  5
B3BC
  8
0
 10
59.4406305242894888
 20
35.4472549189166912
 30
0.0
 11
59.4411601647894869
 21
35.4478326734166913
 31
0.0
  0
LINE
  5
B3BD
  8
0
 10
59.4405874323894921
 20
35.3072318896166877
 30
0.0
 11
59.4411601647894869
 21
35.3078326734166907
 31
0.0
  0
LINE
  5
B3BE
  8
0
 10
59.4405831314894897
 20
35.3772296579166934
 30
0.0
 11
59.4411601647894869
 21
35.377832673416691
 31
0.0
  0
LINE
  5
B3BF
  8
0
 10
59.4398080178894901
 20
35.228647924116693
 30
0.0
 11
59.4411601647894869
 21
35.2300241677166994
 31
0.0
  0
LINE
  5
B3C0
  8
0
 10
59.4411601647894869
 20
29.7954065641166892
 30
0.0
 11
59.4398080663894888
 21
29.7967843100166903
 31
0.0
  0
LINE
  5
B3C1
  8
0
 10
59.4411601647894869
 20
29.6475857548166886
 30
0.0
 11
59.4405831050894875
 21
29.6481715335166918
 31
0.0
  0
LINE
  5
B3C2
  8
0
 10
59.4411601647894869
 20
29.7175857548166888
 30
0.0
 11
59.4405874081894865
 21
29.7181706477166898
 31
0.0
  0
LINE
  5
B3C3
  8
0
 10
59.4411601647894869
 20
29.5775857548166883
 30
0.0
 11
59.4406304870894928
 21
29.5781381754166901
 31
0.0
  0
LINE
  5
B3C4
  8
0
 10
59.4246112763894914
 20
35.5092581024166876
 30
0.0
 11
59.4244105779894909
 21
35.5088113183166882
 31
0.0
  0
LINE
  5
B3C5
  8
0
 10
59.4244105869895023
 20
29.5166071188166903
 30
0.0
 11
59.4246112794894827
 21
29.5161603288166887
 31
0.0
  0
LINE
  5
B3C6
  8
0
 10
58.6531601647894902
 20
35.4425857548166903
 30
0.0
 11
58.6531601647894902
 21
35.4128326734166876
 31
0.0
  0
LINE
  5
B3C7
  8
0
 10
58.6531601647894902
 20
35.37258575481669
 30
0.0
 11
58.6531601647894902
 21
35.3428326734166873
 31
0.0
  0
LINE
  5
B3C8
  8
0
 10
58.6531601647894902
 20
35.3025857548166897
 30
0.0
 11
58.6531601647894902
 21
35.272832673416687
 31
0.0
  0
LINE
  5
B3C9
  8
0
 10
58.6531601647894902
 20
35.2325857548166894
 30
0.0
 11
58.6531601647894902
 21
29.7928326734166902
 31
0.0
  0
LINE
  5
B3CA
  8
0
 10
58.6531601647894902
 20
29.752585754816689
 30
0.0
 11
58.6531601647894902
 21
29.7228326734166899
 31
0.0
  0
LINE
  5
B3CB
  8
0
 10
58.6531601647894902
 20
29.6825857548166887
 30
0.0
 11
58.6531601647894902
 21
29.6528326734166896
 31
0.0
  0
LINE
  5
B3CC
  8
0
 10
58.6531601647894902
 20
29.6125857548166884
 30
0.0
 11
58.6531601647894902
 21
29.5828326734166893
 31
0.0
  0
LINE
  5
B3CD
  8
0
 10
58.6531601647894902
 20
29.5327092141166894
 30
0.0
 11
58.6531601647894902
 21
29.54258575591669
 31
0.0
  0
LINE
  5
B3CE
  8
0
 10
58.6531601647894902
 20
35.4828326720166913
 30
0.0
 11
58.6531601647894902
 21
35.4927092141166867
 31
0.0
  0
LINE
  5
B3CF
  8
0
 10
59.4411601647894869
 20
35.4775857548166869
 30
0.0
 11
59.4411601647894869
 21
35.4478326734166913
 31
0.0
  0
LINE
  5
B3D0
  8
0
 10
59.4411601647894869
 20
35.4075857548166866
 30
0.0
 11
59.4411601647894869
 21
35.377832673416691
 31
0.0
  0
LINE
  5
B3D1
  8
0
 10
59.4411601647894869
 20
35.3375857548166934
 30
0.0
 11
59.4411601647894869
 21
35.3078326734166907
 31
0.0
  0
LINE
  5
B3D2
  8
0
 10
59.4411601647894869
 20
35.2675857548166931
 30
0.0
 11
59.4411601647894869
 21
35.2300241677166994
 31
0.0
  0
LINE
  5
B3D3
  8
0
 10
59.4411601647894869
 20
35.205394260516691
 30
0.0
 11
59.4411601647894869
 21
29.8200241677166886
 31
0.0
  0
LINE
  5
B3D4
  8
0
 10
59.4411601647894727
 20
29.7954065641166892
 30
0.0
 11
59.4411601647894869
 21
29.75783267341669
 31
0.0
  0
LINE
  5
B3D5
  8
0
 10
59.4411601647894869
 20
29.7175857548166888
 30
0.0
 11
59.4411601647894869
 21
29.6878326734166897
 31
0.0
  0
LINE
  5
B3D6
  8
0
 10
59.4411601647894869
 20
29.6475857548166886
 30
0.0
 11
59.4411601647894869
 21
29.6178326734166895
 31
0.0
  0
LINE
  5
B3D7
  8
0
 10
59.4411601647894869
 20
29.5775857548166883
 30
0.0
 11
59.4411601647894869
 21
29.5478326734166892
 31
0.0
  0
LINE
  5
B3D8
  8
0
 10
58.6531601647894902
 20
29.752585754816689
 30
0.0
 11
58.6537520606894915
 21
29.7531925609166912
 31
0.0
  0
LINE
  5
B3D9
  8
0
 10
58.6537528106894825
 20
35.2722190740166894
 30
0.0
 11
58.6531601647894902
 21
35.272832673416687
 31
0.0
  0
LINE
  5
B3DA
  8
0
 10
58.6531601647894902
 20
29.6825857548166887
 30
0.0
 11
58.6537480069897228
 21
29.68319317281669
 31
0.0
  0
LINE
  5
B3DB
  8
0
 10
58.6531601647894902
 20
29.6125857548166884
 30
0.0
 11
58.6538035266893587
 21
29.6132323630166887
 31
0.0
  0
LINE
  5
B3DC
  8
0
 10
58.6538035042896269
 20
35.4121861929166712
 30
0.0
 11
58.6531601647894902
 21
35.4128326734166876
 31
0.0
  0
LINE
  5
B3DD
  8
0
 10
58.6537480069894883
 20
35.3422252553166913
 30
0.0
 11
58.6531601647894902
 21
35.3428326734166873
 31
0.0
  0
LINE
  5
B3DE
  8
0
 10
58.653742090589482
 20
29.543141730916691
 30
0.0
 11
58.6531601647894902
 21
29.54258575591669
 31
0.0
  0
LINE
  5
B3DF
  8
0
 10
58.6531601647894902
 20
35.4828326720166913
 30
0.0
 11
58.6537420906894909
 21
35.4822768019166901
 31
0.0
  0
LINE
  5
B3E0
  8
0
 10
59.4411601647894869
 20
29.6178326734166895
 30
0.0
 11
59.4406722945894899
 21
29.6172782049166905
 31
0.0
  0
LINE
  5
B3E1
  8
0
 10
59.4411601647894869
 20
29.8200241677166886
 30
0.0
 11
59.4410359261894925
 21
29.8198900375166893
 31
0.0
  0
LINE
  5
B3E2
  8
0
 10
59.4411601647894869
 20
29.75783267341669
 30
0.0
 11
59.4405682581894865
 21
29.7572258699166916
 31
0.0
  0
LINE
  5
B3E3
  8
0
 10
59.4405682581894865
 20
35.2681925583166915
 30
0.0
 11
59.4411601647894869
 21
35.2675857548166931
 31
0.0
  0
LINE
  5
B3E4
  8
0
 10
59.4406715167894575
 20
35.408119792116679
 30
0.0
 11
59.4411601647894869
 21
35.4075857548166866
 31
0.0
  0
LINE
  5
B3E5
  8
0
 10
59.4411601647894869
 20
29.5478326734166892
 30
0.0
 11
59.4406710555894904
 21
29.5472774749166902
 31
0.0
  0
LINE
  5
B3E6
  8
0
 10
59.4411601647894869
 20
29.6878326734166897
 30
0.0
 11
59.4405660846895927
 21
29.6872188649166411
 31
0.0
  0
LINE
  5
B3E7
  8
0
 10
59.4211601647894767
 20
29.5127092141166898
 30
0.0
 11
59.4246112794894827
 21
29.5161603288166887
 31
0.0
  0
LINE
  5
B3E8
  8
0
 10
58.675817941539492
 20
29.6247046290666916
 30
0.0
 11
58.6538035266893587
 21
29.6132323630166887
 31
0.0
  0
LINE
  5
B3E9
  8
0
 10
58.67539649828948
 20
29.7644780646166893
 30
0.0
 11
58.6537520606894915
 21
29.7531925609166912
 31
0.0
  0
LINE
  5
B3EA
  8
0
 10
58.6753875161894882
 20
29.6944758392166896
 30
0.0
 11
58.6537480069894883
 21
29.68319317281669
 31
0.0
  0
LINE
  5
B3EB
  8
0
 10
58.6537528106894825
 20
35.2722190740166894
 30
0.0
 11
58.6753988841894909
 21
35.2609391081166876
 31
0.0
  0
LINE
  5
B3EC
  8
0
 10
58.6537480069894883
 20
35.3422252553166913
 30
0.0
 11
58.6753898132894918
 21
35.3309413797166911
 31
0.0
  0
LINE
  5
B3ED
  8
0
 10
58.6538035042896269
 20
35.4121861929166712
 30
0.0
 11
58.6754831830894901
 21
35.4009598030166899
 31
0.0
  0
LINE
  5
B3EE
  8
0
 10
59.4211601647894909
 20
35.5127092141166898
 30
0.0
 11
59.4246112763894914
 21
35.5092581024166876
 31
0.0
  0
LINE
  5
B3EF
  8
0
 10
59.4405668500894819
 20
35.3381898294166916
 30
0.0
 11
59.4411601647894869
 21
35.3375857548166934
 31
0.0
  0
LINE
  5
B3F0
  8
0
 10
59.4406710555894904
 20
35.4781409550166913
 30
0.0
 11
59.4411601647894869
 21
35.4775857548166869
 31
0.0
  0
LINE
  5
B3F1
  8
0
 10
58.6754454199894866
 20
29.5543865594166917
 30
0.0
 11
58.6537420905895104
 21
29.5431417309167017
 31
0.0
  0
LINE
  5
B3F2
  8
0
 10
59.4189196114894926
 20
29.7459381706166894
 30
0.0
 11
59.4405682581894865
 21
29.7572258699166916
 31
0.0
  0
LINE
  5
B3F3
  8
0
 10
59.4340441719894912
 20
29.8162774144166889
 30
0.0
 11
59.4410359261894925
 21
29.8198900375166893
 31
0.0
  0
LINE
  5
B3F4
  8
0
 10
58.6755565363894931
 20
35.4709761901166871
 30
0.0
 11
58.6754464396894875
 21
35.4710313368167007
 31
0.0
  0
LINE
  5
B3F5
  8
0
 10
59.4405682581894865
 20
35.2681925583166915
 30
0.0
 11
59.4189238059894933
 21
35.2794780704166868
 31
0.0
  0
LINE
  5
B3F6
  8
0
 10
58.653742090689498
 20
35.4822768019166688
 30
0.0
 11
58.6754464396894875
 21
35.4710313368167007
 31
0.0
  0
LINE
  5
B3F7
  8
0
 10
59.4189136692894877
 20
29.6759383020166894
 30
0.0
 11
59.4405660846895927
 21
29.6872188649166411
 31
0.0
  0
LINE
  5
B3F8
  8
0
 10
59.418973567789493
 20
29.6060655353166915
 30
0.0
 11
59.4406722945894899
 21
29.6172782049166905
 31
0.0
  0
LINE
  5
B3F9
  8
0
 10
59.4188593198894921
 20
29.5360183300166916
 30
0.0
 11
59.4406710555894904
 21
29.5472774749166902
 31
0.0
  0
LINE
  5
B3FA
  8
0
 10
59.1305714026894904
 20
35.4927092141166867
 30
0.0
 11
58.6531601647894902
 21
35.4927092141166867
 31
0.0
  0
LINE
  5
B3FB
  8
0
 10
59.4405668500894819
 20
35.3381898294166916
 30
0.0
 11
59.4189083568894887
 21
35.3494828988166887
 31
0.0
  0
LINE
  5
B3FC
  8
0
 10
59.4406715167893722
 20
35.408119792116743
 30
0.0
 11
59.4189755839894929
 21
35.4193518412166881
 31
0.0
  0
LINE
  5
B3FD
  8
0
 10
59.4406710555894975
 20
35.4781409550166913
 30
0.0
 11
59.4189755817894891
 21
35.4893421803166902
 31
0.0
  0
ARC
  5
B3FE
  8
0
 10
59.2780231404895019
 20
33.9454390008166911
 30
0.0
 40
1.5696587301
 50
86.2518910281999354
 51
86.8387834477939151
  0
ARC
  5
B3FF
  8
0
 10
59.3066676919894888
 20
34.3838216869166899
 30
0.0
 40
1.1303412114999991
 50
85.9483913948999856
 51
86.2481462003000274
  0
ARC
  5
B400
  8
0
 10
59.1072808464516015
 20
32.557649591960157
 30
0.0
 40
3.0466235979445222
 50
271.904665349760819
 51
275.7840824199088274
  0
ARC
  5
B401
  8
0
 10
59.3729262138119367
 20
35.233468884667019
 30
0.0
 40
0.2782019793776101
 50
79.9137599713226621
 51
87.196778395474567
  0
ARC
  5
B402
  8
0
 10
59.0734056046247673
 20
30.9682078213195915
 30
0.0
 40
4.5248625152474293
 50
85.3444035653579931
 51
89.2761225148457953
  0
ARC
  5
B403
  8
0
 10
48.7533838983208128
 20
-199.8648823356336948
 30
0.0
 40
235.555306470588107
 50
87.3994439481466685
 51
87.5911564468920858
  0
ARC
  5
B404
  8
0
 10
72.0166395213228441
 20
331.7700311341724841
 30
0.0
 40
296.6286187568010178
 50
267.4178816283118749
 51
267.5701403106160114
  0
ARC
  5
B405
  8
0
 10
51.4784010061479904
 20
-138.0825931774454887
 30
0.0
 40
173.6430962341462134
 50
87.3716631760257485
 51
87.6317090580236737
  0
ARC
  5
B406
  8
0
 10
71.1960365408530578
 20
313.4796119880679726
 30
0.0
 40
278.3897300334327269
 50
267.4176589000762192
 51
267.5798707671806937
  0
ARC
  5
B407
  8
0
 10
52.6624507707737308
 20
-110.8585071405732947
 30
0.0
 40
146.3234423995940858
 50
87.3447146052584458
 51
87.6533354356227363
  0
ARC
  5
B408
  8
0
 10
70.4568256148955356
 20
296.5084468748340214
 30
0.0
 40
261.4724237878783129
 50
267.4126138462750077
 51
267.5853211361306876
  0
ARC
  5
B409
  8
0
 10
57.9411852201013673
 20
14.6067783065591108
 30
0.0
 40
20.6777221831722606
 50
85.8400743868773617
 51
88.0251596317629463
  0
ARC
  5
B40A
  8
0
 10
59.755889220237961
 20
55.7577102976136914
 30
0.0
 40
20.5547257064417686
 50
266.9246941627363867
 51
269.1226664113639799
  0
ARC
  5
B40B
  8
0
 10
55.1575027770794435
 20
-45.0233674127648626
 30
0.0
 40
80.5640590748400456
 50
86.9712060112670571
 51
87.4938555524123842
  0
ARC
  5
B40C
  8
0
 10
59.630044367491692
 20
45.0640136305843697
 30
0.0
 40
9.5672319997857116
 50
266.6934150095867153
 51
268.7064831238204192
  0
ARC
  5
B40D
  8
0
 10
60.0708832114388187
 20
56.3499886175276004
 30
0.0
 40
21.0019781240062002
 50
266.2031719771117082
 51
268.2088254976723078
  0
ARC
  5
B40E
  8
0
 10
62.1326574169448804
 20
100.8511268456905015
 30
0.0
 40
65.6200588046493465
 50
266.9840624505397955
 51
267.6256684326456252
  0
ARC
  5
B40F
  8
0
 10
75.1649907849428303
 20
383.7214305763130824
 30
0.0
 40
348.8591643742540782
 50
267.2915610311832211
 51
267.4147400520234896
  0
ARC
  5
B410
  8
0
 10
58.67068969968674
 20
35.252703255242821
 30
0.0
 40
0.0094871329305049
 50
299.7762786733861162
 51
60.239477795070492
  0
ARC
  5
B411
  8
0
 10
58.6706817522080186
 20
35.3227030809453098
 30
0.0
 40
0.0094886988461715
 50
299.7724686496836171
 51
60.2526976975882889
  0
ARC
  5
B412
  8
0
 10
58.6707291628327496
 20
35.3926925683680906
 30
0.0
 40
0.0095366596529755
 50
298.9361251176242718
 51
60.0992214240050728
  0
ARC
  5
B413
  8
0
 10
58.6708170545219616
 20
35.4627166565539369
 30
0.0
 40
0.0095165705430698
 50
298.4145557400254916
 51
60.892143191594819
  0
ARC
  5
B414
  8
0
 10
59.4405007324617003
 20
35.2165498263180083
 30
0.0
 40
0.0111750391204067
 50
125.0702778559420949
 51
264.8577474932766904
  0
ARC
  5
B415
  8
0
 10
59.4236265526561311
 20
35.287715061365752
 30
0.0
 40
0.009484927311558
 50
119.7088908371136995
 51
240.2766502556546016
  0
ARC
  5
B416
  8
0
 10
59.4241942898608784
 20
35.3577133730327233
 30
0.0
 40
0.0097817070697792
 50
122.6281069423609011
 51
237.2898340588164103
  0
ARC
  5
B417
  8
0
 10
59.4240799132170778
 20
35.4276712719863767
 30
0.0
 40
0.0097604869343323
 50
121.594673524061605
 51
238.4690907310670127
  0
ARC
  5
B418
  8
0
 10
59.4233313526104183
 20
35.4976607901693271
 30
0.0
 40
0.0093899951717206
 50
118.271571890101896
 51
242.3626525914750118
  0
ARC
  5
B419
  8
0
 10
58.6702203808629292
 20
29.5627039838246617
 30
0.0
 40
0.0098224529857027
 50
302.1372018595728264
 51
57.8818832000140731
  0
ARC
  5
B41A
  8
0
 10
58.6701567879760475
 20
29.632731112797881
 30
0.0
 40
0.0098220721212994
 50
305.1956724864893999
 51
58.1131085897383599
  0
ARC
  5
B41B
  8
0
 10
58.6701969286919223
 20
29.7027154185900102
 30
0.0
 40
0.0097382168192777
 50
302.2091978082892751
 51
57.7693063784864407
  0
ARC
  5
B41C
  8
0
 10
58.6701250148813926
 20
29.7727150329892289
 30
0.0
 40
0.0097793755062408
 50
302.6183728296047093
 51
57.3906882025616909
  0
ARC
  5
B41D
  8
0
 10
59.4387450178141989
 20
29.808007219955801
 30
0.0
 40
0.0095128370052622
 50
119.6142523358139016
 51
239.8885337960821005
  0
ARC
  5
B41E
  8
0
 10
59.423627195368482
 20
29.7377033041688286
 30
0.0
 40
0.0094854821380753
 50
119.7550866271904937
 51
240.2417454792054912
  0
ARC
  5
B41F
  8
0
 10
59.4242094695677565
 20
29.6677042869015288
 30
0.0
 40
0.0097900207100879
 50
122.7475575588139947
 51
237.2452102561275069
  0
ARC
  5
B420
  8
0
 10
59.423926343717838
 20
29.5977422054983705
 30
0.0
 40
0.009685443131883
 50
120.7546520642827943
 51
239.2406765049271939
  0
ARC
  5
B421
  8
0
 10
59.4240467284584284
 20
29.5277067579960395
 30
0.0
 40
0.0097975219885216
 50
121.9690631603296964
 51
232.0841354539896031
  0
ARC
  5
B422
  8
0
 10
59.492223543331022
 20
29.6528022456317188
 30
0.0
 40
0.152143713691827
 50
240.8117994393813888
 51
243.5308136943021964
  0
ARC
  5
B423
  8
0
 10
59.07055833758087
 20
34.1178169392178603
 30
0.0
 40
4.5855004545595861
 50
270.7498840198978769
 51
274.6295905267182889
  0
ARC
  5
B424
  8
0
 10
54.273312478024053
 20
138.7010109680543906
 30
0.0
 40
109.2457256828967047
 50
272.2980068971401124
 51
272.7113775140038001
  0
ARC
  5
B425
  8
0
 10
638.0083487800566218
 20
-13005.2972852932507521
 30
0.0
 40
13047.7489293877097225
 50
92.5414599231447568
 51
92.5449236307677268
  0
ARC
  5
B426
  8
0
 10
53.0026913183124506
 20
168.1729429490841028
 30
0.0
 40
138.6749020799597076
 50
272.335495144367826
 51
272.6611142134638044
  0
ARC
  5
B427
  8
0
 10
44.56391999861399
 20
361.313475003326289
 30
0.0
 40
331.9597691876959971
 50
272.4325133071737923
 51
272.5685480001101268
  0
ARC
  5
B428
  8
0
 10
47.6578374972134924
 20
290.4636719244288088
 30
0.0
 40
261.0121992280418226
 50
272.4144686377059088
 51
272.5874813359372979
  0
ARC
  5
B429
  8
0
 10
63.7849872083338596
 20
-77.8304129690889397
 30
0.0
 40
107.6756067874334946
 50
92.3122005670867765
 51
92.7317557640013348
  0
ARC
  5
B42A
  8
0
 10
58.0615694161306806
 20
48.1638176320598532
 30
0.0
 40
18.4201464650724596
 50
271.8422987886735882
 51
274.295232572466773
  0
ARC
  5
B42B
  8
0
 10
59.7173779457276623
 20
10.2886698020871901
 30
0.0
 40
19.5331750823211792
 50
90.8106085960775431
 51
93.1231683228470359
  0
LINE
  5
B42C
  8
0
 10
59.4211601647894909
 20
35.5127092141166898
 30
0.0
 11
58.6731601647894934
 21
35.5127092141166898
 31
0.0
  0
LINE
  5
B42D
  8
0
 10
59.4211601647894767
 20
29.5127092141166898
 30
0.0
 11
58.6731601647894934
 21
29.5127092141166898
 31
0.0
  0
ENDSEC
  0
EOF
