  0
SECTION
  2
HEADER
  9
$ACADVER
  1
AC1009
  9
$INSBASE
 10
5600.811706976410278
 20
21.3018360833288511
 30
0.0
  9
$EXTMIN
 10
5600.3916552240361852
 20
18.0674615668993113
 30
0.0
  9
$EXTMAX
 10
5601.2316552240363308
 20
21.3018360833288511
 30
0.0
  9
$LIMMIN
 10
0.0
 20
0.0
  9
$LIMMAX
 10
11.6929133858000007
 20
8.2677165353999982
  9
$ORTHOMODE
 70
     0
  9
$REGENMODE
 70
     1
  9
$FILLMODE
 70
     1
  9
$QTEXTMODE
 70
     0
  9
$MIRRTEXT
 70
     0
  9
$DRAGMODE
 70
     2
  9
$LTSCALE
 40
0.6431102362
  9
$OSMODE
 70
  4095
  9
$ATTMODE
 70
     1
  9
$TEXTSIZE
 40
0.2
  9
$TRACEWID
 40
0.05
  9
$TEXTSTYLE
  7
STANDARD
  9
$CLAYER
  8
0
  9
$CELTYPE
  6
BYLAYER
  9
$CECOLOR
 62
   256
  9
$DIMSCALE
 40
1.0
  9
$DIMASZ
 40
0.1875
  9
$DIMEXO
 40
0.0625
  9
$DIMDLI
 40
0.4443307087
  9
$DIMRND
 40
0.0
  9
$DIMDLE
 40
0.0
  9
$DIMEXE
 40
0.125
  9
$DIMTP
 40
0.01
  9
$DIMTM
 40
0.01
  9
$DIMTXT
 40
2.0
  9
$DIMCEN
 40
0.1052362205
  9
$DIMTSZ
 40
0.0
  9
$DIMTOL
 70
     1
  9
$DIMLIM
 70
     0
  9
$DIMTIH
 70
     1
  9
$DIMTOH
 70
     1
  9
$DIMSE1
 70
     0
  9
$DIMSE2
 70
     0
  9
$DIMTAD
 70
     0
  9
$DIMZIN
 70
     0
  9
$DIMBLK
  1

  9
$DIMASO
 70
     1
  9
$DIMSHO
 70
     1
  9
$DIMPOST
  1
\X
  9
$DIMAPOST
  1

  9
$DIMALT
 70
     1
  9
$DIMALTD
 70
     2
  9
$DIMALTF
 40
25.3999999999999986
  9
$DIMLFAC
 40
1.0
  9
$DIMTOFL
 70
     0
  9
$DIMTVP
 40
0.0
  9
$DIMTIX
 70
     0
  9
$DIMSOXD
 70
     0
  9
$DIMSAH
 70
     0
  9
$DIMBLK1
  1

  9
$DIMBLK2
  1

  9
$DIMSTYLE
  2
STANDARD
  9
$DIMCLRD
 70
     0
  9
$DIMCLRE
 70
     0
  9
$DIMCLRT
 70
     0
  9
$DIMTFAC
 40
1.0
  9
$DIMGAP
 40
0.09
  9
$LUNITS
 70
     2
  9
$LUPREC
 70
     4
  9
$SKETCHINC
 40
0.1
  9
$FILLETRAD
 40
0.0
  9
$AUNITS
 70
     0
  9
$AUPREC
 70
     0
  9
$MENU
  1
.
  9
$ELEVATION
 40
0.0
  9
$PELEVATION
 40
0.0
  9
$THICKNESS
 40
0.0
  9
$LIMCHECK
 70
     0
  9
$BLIPMODE
 70
     0
  9
$CHAMFERA
 40
0.0
  9
$CHAMFERB
 40
0.0
  9
$SKPOLY
 70
     0
  9
$TDCREATE
 40
2458060.468368056230247
  9
$TDUPDATE
 40
2460129.4677546289749444
  9
$TDINDWG
 40
0.6266621528
  9
$TDUSRTIMER
 40
0.6266621528
  9
$USRTIMER
 70
     1
  9
$ANGBASE
 50
0.0
  9
$ANGDIR
 70
     0
  9
$PDMODE
 70
     0
  9
$PDSIZE
 40
0.3125
  9
$PLINEWID
 40
0.0
  9
$COORDS
 70
     1
  9
$SPLFRAME
 70
     0
  9
$SPLINETYPE
 70
     6
  9
$SPLINESEGS
 70
     8
  9
$ATTDIA
 70
     1
  9
$ATTREQ
 70
     1
  9
$HANDLING
 70
     1
  9
$HANDSEED
  5
234BC
  9
$SURFTAB1
 70
     6
  9
$SURFTAB2
 70
     6
  9
$SURFTYPE
 70
     6
  9
$SURFU
 70
     6
  9
$SURFV
 70
     6
  9
$UCSNAME
  2

  9
$UCSORG
 10
0.0
 20
0.0
 30
0.0
  9
$UCSXDIR
 10
1.0
 20
0.0
 30
0.0
  9
$UCSYDIR
 10
0.0
 20
1.0
 30
0.0
  9
$PUCSNAME
  2

  9
$PUCSORG
 10
0.0
 20
0.0
 30
0.0
  9
$PUCSXDIR
 10
1.0
 20
0.0
 30
0.0
  9
$PUCSYDIR
 10
0.0
 20
1.0
 30
0.0
  9
$USERI1
 70
     0
  9
$USERI2
 70
     0
  9
$USERI3
 70
     0
  9
$USERI4
 70
     0
  9
$USERI5
 70
     0
  9
$USERR1
 40
0.0
  9
$USERR2
 40
0.0
  9
$USERR3
 40
0.0
  9
$USERR4
 40
0.0
  9
$USERR5
 40
0.0
  9
$WORLDVIEW
 70
     1
  9
$SHADEDGE
 70
     3
  9
$SHADEDIF
 70
    70
  9
$TILEMODE
 70
     1
  9
$MAXACTVP
 70
    64
  9
$PLIMCHECK
 70
     0
  9
$PEXTMIN
 10
1.0000000000000000E+20
 20
1.0000000000000000E+20
 30
1.0000000000000000E+20
  9
$PEXTMAX
 10
-1.0000000000000000E+20
 20
-1.0000000000000000E+20
 30
-1.0000000000000000E+20
  9
$PLIMMIN
 10
0.0
 20
0.0
  9
$PLIMMAX
 10
12.0
 20
9.0
  9
$UNITMODE
 70
     0
  9
$VISRETAIN
 70
     1
  9
$PLINEGEN
 70
     0
  9
$PSLTSCALE
 70
     1
  0
ENDSEC
  0
SECTION
  2
TABLES
  0
TABLE
  2
VPORT
 70
     1
  0
VPORT
  2
*ACTIVE
 70
     0
 10
0.0
 20
0.0
 11
1.0
 21
1.0
 12
1808.4537450677848938
 22
-100.4960076079914018
 13
0.0
 23
0.0
 14
1.0
 24
1.0
 15
0.0
 25
0.0
 16
0.0
 26
0.0
 36
5.1040778033513332
 17
3792.35791015625
 27
120.1806564331053977
 37
0.0
 40
3.2633823596262062
 41
2.8398203592814371
 42
50.0
 43
0.0
 44
0.0
 50
0.0
 51
0.0
 71
     0
 72
   100
 73
     1
 74
     1
 75
     0
 76
     0
 77
     0
 78
     0
  0
ENDTAB
  0
TABLE
  2
LTYPE
 70
     2
  0
LTYPE
  2
CONTINUOUS
 70
     0
  3
Solid line
 72
    65
 73
     0
 40
0.0
  0
LTYPE
  2
PHANTOM2
 70
     0
  3
___ _ _ ___ _ _ ___ _ _ ___ _ _
 72
    65
 73
     6
 40
1.25
 49
0.625
 49
-0.125
 49
0.125
 49
-0.125
 49
0.125
 49
-0.125
  0
ENDTAB
  0
TABLE
  2
LAYER
 70
     2
  0
LAYER
  2
0
 70
     0
 62
   255
  6
CONTINUOUS
  0
LAYER
  2
DEFPOINTS
 70
     0
 62
     7
  6
CONTINUOUS
  0
ENDTAB
  0
TABLE
  2
STYLE
 70
     1
  0
STYLE
  2
STANDARD
 70
     0
 40
0.0
 41
0.8
 50
0.0
 71
     0
 42
0.2
  3
txt
  4

  0
ENDTAB
  0
TABLE
  2
VIEW
 70
     0
  0
ENDTAB
  0
TABLE
  2
UCS
 70
     0
  0
ENDTAB
  0
TABLE
  2
APPID
 70
     9
  0
APPID
  2
ACAD
 70
     0
  0
APPID
  2
ACAD_MLEADERVER
 70
     0
  0
APPID
  2
ACAD_EXEMPT_FROM_CAD_STANDARDS
 70
     0
  0
APPID
  2
ACAD_NAV_VCDISPLAY
 70
     0
  0
APPID
  2
ACAECLAYERSTANDARD
 70
     0
  0
APPID
  2
ACCMTRANSPARENCY
 70
     0
  0
APPID
  2
ACAD_DSTYLE_DIMJAG
 70
     0
  0
APPID
  2
ACAD_DSTYLE_DIMTALN
 70
     0
  0
APPID
  2
ACDBATTR
 70
     0
  0
ENDTAB
  0
TABLE
  2
DIMSTYLE
 70
     1
  0
DIMSTYLE
  2
STANDARD
 70
     0
  3

  4

  5

  6

  7

 40
1.0
 41
0.1875
 42
0.0625
 43
0.38
 44
0.125
 45
0.0
 46
0.0
 47
0.01
 48
0.01
140
0.15625
141
0.09
142
0.0
143
25.3999999999999986
144
1.0
145
0.0
146
1.0
147
0.09
 71
     1
 72
     0
 73
     1
 74
     1
 75
     0
 76
     0
 77
     0
 78
     4
170
     0
171
     2
172
     0
173
     0
174
     0
175
     0
176
     0
177
     0
178
     0
  0
ENDTAB
  0
ENDSEC
  0
SECTION
  2
BLOCKS
  0
BLOCK
  8
0
  2
$MODEL_SPACE
 70
     0
 10
0.0
 20
0.0
 30
0.0
  3
$MODEL_SPACE
  1

  0
ENDBLK
  5
21
  8
0
  0
BLOCK
 67
     1
  8
0
  2
$PAPER_SPACE
 70
     0
 10
0.0
 20
0.0
 30
0.0
  3
$PAPER_SPACE
  1

  0
ENDBLK
  5
1D
 67
     1
  8
0
  0
BLOCK
  8
0
  2
_FILLED
 70
     0
 10
0.0
 20
0.0
 30
0.0
  3
_FILLED
  1

  0
SOLID
  5
1CCA0
  8
0
  6
BYBLOCK
 62
     0
 10
0.0
 20
0.0
 30
0.0
 11
-1.0
 21
0.1666666667
 31
0.0
 12
-1.0
 22
-0.1666666667
 32
0.0
 13
-1.0
 23
-0.1666666667
 33
0.0
  0
ENDBLK
  5
1CCA1
  8
0
  6
BYBLOCK
 62
     0
  0
BLOCK
  8
0
  2
A$C54BF7565
 70
     0
 10
0.0
 20
0.0
 30
0.0
  3
A$C54BF7565
  1

  0
LINE
  5
1EDB5
  8
0
 10
4.213411105075707
 20
0.392500014379415
 30
0.0
 11
4.2134111050757026
 21
29.1282889381617487
 31
0.0
  0
LINE
  5
1EDB6
  8
0
 10
4.6059111050757053
 20
29.5207889381617505
 30
0.0
 11
70.7849254185449297
 21
29.5207889381617505
 31
0.0
  0
ARC
  5
1EDB7
  8
0
 10
4.6059111050757009
 20
29.1282889381617487
 30
0.0
 40
0.3925
 50
89.9999999999993889
 51
180.0
  0
LINE
  5
1EDB8
  8
0
 10
5.89937377115979
 20
28.8903825271539816
 30
0.0
 11
69.4914627524608335
 21
28.8903825271539816
 31
0.0
  0
LINE
  5
1EDB9
  8
0
 10
4.8893737711618419
 20
1.6404064253871229
 30
0.0
 11
4.8893737711597574
 21
27.8803825271538983
 31
0.0
  0
ARC
  5
1EDBA
  8
0
 10
5.8993737711597944
 20
27.8803825271539587
 30
0.0
 40
1.01
 50
90.0000000000001847
 51
180.0000000000036096
  0
LINE
  5
1EDBB
  8
0
 10
10.9121358131603206
 20
28.1376674354441683
 30
0.0
 11
64.4787007104603163
 21
28.1376674354441683
 31
0.0
  0
LINE
  5
1EDBC
  8
0
 10
8.9771358131603112
 20
26.2026674354441695
 30
0.0
 11
8.9771358131603094
 21
3.3181215170969902
 31
0.0
  0
ARC
  5
1EDBD
  8
0
 10
10.9121358131603099
 20
26.2026674354441802
 30
0.0
 40
1.9350000000000001
 50
89.999999999999801
 51
180.000000000000199
  0
LINE
  5
1EDBE
  8
0
 10
5.1851959221613591
 20
28.5945603761523515
 30
0.0
 11
9.5438841915643415
 21
27.5709190570401397
 31
0.0
  0
CIRCLE
  5
1EDBF
  8
0
 10
17.9746459467603117
 20
14.7603944762705801
 30
0.0
 40
2.6574803149999968
  0
CIRCLE
  5
1EDC0
  8
0
 10
17.9746459467603117
 20
14.7603944762705801
 30
0.0
 40
1.318897637799999
  0
LINE
  5
1EDC1
  8
0
 10
19.4313388601603094
 20
16.6895283345705785
 30
0.0
 11
16.5179530334603086
 21
16.6895283345705785
 31
0.0
  0
LINE
  5
1EDC2
  8
0
 10
16.5179530334603086
 20
12.8312606180704591
 30
0.0
 11
16.5179530334603086
 21
16.6895283345705785
 31
0.0
  0
LINE
  5
1EDC3
  8
0
 10
19.4313388601603094
 20
12.8312606180707007
 30
0.0
 11
19.4313388601603094
 21
16.6895283345705785
 31
0.0
  0
LINE
  5
1EDC4
  8
0
 10
16.5179530334603086
 20
12.8312606180704591
 30
0.0
 11
19.4313388601603094
 21
12.8312606180707007
 31
0.0
  0
LINE
  5
1EDC5
  8
0
 10
71.1774254185449422
 20
0.392500014379415
 30
0.0
 11
71.177425418544928
 21
29.1282889381617487
 31
0.0
  0
ARC
  5
1EDC6
  8
0
 10
70.7849254185449297
 20
29.1282889381617487
 30
0.0
 40
0.3925
 50
0.0
 51
90.0000000000003979
  0
LINE
  5
1EDC7
  8
0
 10
70.5014627524587922
 20
1.6404064253871229
 30
0.0
 11
70.5014627524608812
 21
27.8803825271538983
 31
0.0
  0
ARC
  5
1EDC8
  8
0
 10
69.4914627524608477
 20
27.8803825271539587
 30
0.0
 40
1.01
 50
359.9999999999964189
 51
89.999999999999801
  0
LINE
  5
1EDC9
  8
0
 10
66.4137007104603185
 20
26.2026674354441695
 30
0.0
 11
66.4137007104603185
 21
3.3181215170969902
 31
0.0
  0
ARC
  5
1EDCA
  8
0
 10
64.4787007104603163
 20
26.2026674354441802
 30
0.0
 40
1.9350000000000001
 50
359.9999999999997726
 51
90.0
  0
LINE
  5
1EDCB
  8
0
 10
70.2056406014592795
 20
28.5945603761523515
 30
0.0
 11
65.8469523320562757
 21
27.5709190570401397
 31
0.0
  0
LINE
  5
1EDCC
  8
0
 10
6.0587804917603156
 20
16.9648612744813292
 30
0.0
 11
6.0587804917603156
 21
12.5707899059285495
 31
0.0
  0
LINE
  5
1EDCD
  8
0
 10
6.1845708572603106
 20
16.9745707898439697
 30
0.0
 11
6.1845708572603106
 21
12.5516456001736803
 31
0.0
  0
ARC
  5
1EDCE
  8
0
 10
6.6768621544985933
 20
16.9224693827637793
 30
0.0
 40
0.6195337071513586
 50
164.1442345569018073
 51
176.0764429610183868
  0
ARC
  5
1EDCF
  8
0
 10
6.2840565643031701
 20
17.0322553910392891
 30
0.0
 40
0.2116849357968146
 50
148.9114272159978043
 51
163.6808251279447859
  0
ARC
  5
1EDD0
  8
0
 10
6.1492013395549563
 20
17.1135685847582408
 30
0.0
 40
0.0542118678941835
 50
122.0236997237583978
 51
148.9114272159970938
  0
ARC
  5
1EDD1
  8
0
 10
6.1294117326997544
 20
17.1440896121663009
 30
0.0
 40
0.0178513052483979
 50
68.3637245332240724
 51
120.1174353847827945
  0
ARC
  5
1EDD2
  8
0
 10
6.1093204837146011
 20
17.1172519626224791
 30
0.0
 40
0.0509679580751473
 50
18.2421840615057
 51
58.4438507226990467
  0
ARC
  5
1EDD3
  8
0
 10
5.8217205392181093
 20
17.0102690391100708
 30
0.0
 40
0.3577903413166022
 50
5.3853596804652684
 51
20.0965078311244412
  0
ARC
  5
1EDD4
  8
0
 10
3.097786928403635
 20
16.7137066941642907
 30
0.0
 40
3.0977871295269188
 50
4.8305879622378782
 51
6.1178368155844636
  0
ARC
  5
1EDD5
  8
0
 10
6.6288147452080004
 20
12.5871305066994204
 30
0.0
 40
0.5702684151671137
 50
181.6419910366743125
 51
196.0954335816371099
  0
ARC
  5
1EDD6
  8
0
 10
6.2840565643031701
 20
12.4885112934841995
 30
0.0
 40
0.2116849357968146
 50
196.3191748720554131
 51
211.0885727840025083
  0
ARC
  5
1EDD7
  8
0
 10
6.1492013395549563
 20
12.4071980997652496
 30
0.0
 40
0.0542118678941835
 50
211.0885727840025936
 51
237.9763002762416022
  0
ARC
  5
1EDD8
  8
0
 10
6.1294117326997544
 20
12.3766770723571895
 30
0.0
 40
0.0178513052483979
 50
239.8825646152172055
 51
291.636275466775885
  0
ARC
  5
1EDD9
  8
0
 10
6.1093204837146011
 20
12.4035147219010096
 30
0.0
 40
0.0509679580751473
 50
301.5561492773010173
 51
341.7578159384942751
  0
ARC
  5
1EDDA
  8
0
 10
5.8217205392181093
 20
12.5104976454134196
 30
0.0
 40
0.3577903413166022
 50
339.9034921688755162
 51
354.6146403195347148
  0
ARC
  5
1EDDB
  8
0
 10
4.494339004003983
 20
12.6641567549704206
 30
0.0
 40
1.6939723957951669
 50
353.6539827235096141
 51
356.1916950896656999
  0
LINE
  5
1EDDC
  8
0
 10
4.6059111050757053
 20
0.0000000143794168
 30
0.0
 11
70.7849254185449297
 21
0.0000000143794168
 31
0.0
  0
ARC
  5
1EDDD
  8
0
 10
4.6059111050757009
 20
0.392500014379415
 30
0.0
 40
0.3925
 50
180.0
 51
270.0000000000003979
  0
LINE
  5
1EDDE
  8
0
 10
5.89937377115979
 20
0.6304064253871929
 30
0.0
 11
69.4914627524608335
 21
0.6304064253871929
 31
0.0
  0
ARC
  5
1EDDF
  8
0
 10
5.8993737711597944
 20
1.640406425387205
 30
0.0
 40
1.01
 50
179.9999999999967031
 51
269.9999999999997726
  0
LINE
  5
1EDE0
  8
0
 10
10.9121358131603206
 20
1.383121517096995
 30
0.0
 11
64.4787007104603163
 21
1.383121517096995
 31
0.0
  0
ARC
  5
1EDE1
  8
0
 10
10.9121358131603099
 20
3.3181215170969902
 30
0.0
 40
1.9350000000000001
 50
180.0
 51
270.0
  0
LINE
  5
1EDE2
  8
0
 10
5.1851959221613591
 20
0.9262285763888158
 30
0.0
 11
9.5438841915643415
 21
1.9498698955010241
 31
0.0
  0
ARC
  5
1EDE3
  8
0
 10
70.7849254185449297
 20
0.392500014379415
 30
0.0
 40
0.3925
 50
269.9999999999993747
 51
0.0
  0
ARC
  5
1EDE4
  8
0
 10
69.4914627524608477
 20
1.640406425387205
 30
0.0
 40
1.01
 50
270.0000000000002274
 51
0.0000000000032569
  0
ARC
  5
1EDE5
  8
0
 10
64.4787007104603163
 20
3.3181215170969902
 30
0.0
 40
1.9350000000000001
 50
269.9999999999997726
 51
0.0
  0
LINE
  5
1EDE6
  8
0
 10
70.2056406014592795
 20
0.9262285763888158
 30
0.0
 11
65.8469523320562757
 21
1.9498698955010241
 31
0.0
  0
LINE
  5
1EDE7
  8
0
 10
37.6954182618103175
 20
14.7603944762705801
 30
0.0
 11
52.5300195105287386
 21
42.8960013024525324
 31
0.0
  0
ENDBLK
  5
1EDEB
  8
0
  0
ENDSEC
  0
SECTION
  2
ENTITIES
  0
ATTDEF
  5
3930
  8
DEFPOINTS
 10
5600.8010102406324222
 20
21.3001036748865715
 30
0.0
 40
0.001
  1
P21520-00
  3

  2
MODELNUMBER
 70
     0
1001
ACDBATTR
1070
     0
1070
     1
  0
ATTDEF
  5
3931
  8
DEFPOINTS
 10
5600.8010102406324222
 20
21.2984370082199099
 30
0.0
 40
0.001
  1

  3

  2
TRADENAME
 70
     0
1001
ACDBATTR
1070
     0
1070
     1
  0
ATTDEF
  5
3932
  8
DEFPOINTS
 10
5600.8010102406324222
 20
21.2967703415532412
 30
0.0
 40
0.001
  1
SHOWER ARM
  3

  2
PRODUCT
 70
     0
1001
ACDBATTR
1070
     0
1070
     1
  0
LINE
  5
23193
  8
0
 10
5600.3916552240361852
 20
21.3018360833288511
 30
0.0
 11
5600.3916552240361852
 21
18.5830647087920404
 31
0.0
  0
LINE
  5
23194
  8
0
 10
5601.2316552240363308
 20
18.5830878937900188
 30
0.0
 11
5601.2316552240363308
 21
21.3018360833288511
 31
0.0
  0
LINE
  5
23195
  8
0
 10
5600.4602069765433043
 20
18.0674615668993113
 30
0.0
 11
5601.1632069762763422
 21
18.0674615668993113
 31
0.0
  0
LINE
  5
23196
  8
0
 10
5600.419080973157179
 20
18.1069315990761304
 30
0.0
 11
5600.4602069765433043
 21
18.0674615668993113
 31
0.0
  0
LINE
  5
23197
  8
0
 10
5600.441337016014586
 20
18.1198060474313216
 30
0.0
 11
5600.419080973157179
 21
18.1069315990761304
 31
0.0
  0
LINE
  5
23198
  8
0
 10
5600.419080973157179
 20
18.1069315990761304
 30
0.0
 11
5601.2068538228068064
 21
18.1088826042434512
 31
0.0
  0
LINE
  5
23199
  8
0
 10
5600.441337016014586
 20
18.1198060474313216
 30
0.0
 11
5600.4413368635250663
 21
18.1253308380721485
 31
0.0
  0
LINE
  5
2319A
  8
0
 10
5600.4413368635250663
 20
18.1253308380721485
 30
0.0
 11
5600.4148790262051989
 21
18.1408776270103296
 31
0.0
  0
LINE
  5
2319B
  8
0
 10
5600.4148790262051989
 20
18.1408776270103296
 30
0.0
 11
5600.4130001563971746
 21
18.1767096749649397
 31
0.0
  0
LINE
  5
2319C
  8
0
 10
5600.4130001563971746
 20
18.1767096749649397
 30
0.0
 11
5600.4376035125751514
 21
18.1912645401523392
 31
0.0
  0
LINE
  5
2319D
  8
0
 10
5600.4376035125751514
 20
18.1912645401523392
 30
0.0
 11
5600.4376032944755934
 21
18.1970396006485302
 31
0.0
  0
LINE
  5
2319E
  8
0
 10
5600.4376032944755934
 20
18.1970396006485302
 30
0.0
 11
5600.4111331508347575
 21
18.2123154591469287
 31
0.0
  0
LINE
  5
2319F
  8
0
 10
5600.4111331508347575
 20
18.2123154591469287
 30
0.0
 11
5600.4092489006943651
 21
18.2482501169530806
 31
0.0
  0
LINE
  5
231A0
  8
0
 10
5600.4092489006943651
 20
18.2482501169530806
 30
0.0
 11
5600.434355463533393
 21
18.2630708956296814
 31
0.0
  0
LINE
  5
231A1
  8
0
 10
5600.434355463533393
 20
18.2630708956296814
 30
0.0
 11
5600.433892791839753
 21
18.2684725744614482
 31
0.0
  0
LINE
  5
231A2
  8
0
 10
5600.433892791839753
 20
18.2684725744614482
 30
0.0
 11
5600.4073864916517778
 21
18.2837682394619101
 31
0.0
  0
LINE
  5
231A3
  8
0
 10
5600.4073864916517778
 20
18.2837682394619101
 30
0.0
 11
5600.4055035070778104
 21
18.3196787623029707
 31
0.0
  0
LINE
  5
231A4
  8
0
 10
5600.4055035070778104
 20
18.3196787623029707
 30
0.0
 11
5600.4301191467193348
 21
18.3339124985292905
 31
0.0
  0
LINE
  5
231A5
  8
0
 10
5600.4301191467193348
 20
18.3339124985292905
 30
0.0
 11
5600.4301189892448747
 21
18.3396178176271185
 31
0.0
  0
LINE
  5
231A6
  8
0
 10
5600.4301189892448747
 20
18.3396178176271185
 30
0.0
 11
5600.4036420286238354
 21
18.3551791388374816
 31
0.0
  0
LINE
  5
231A7
  8
0
 10
5600.4036420286238354
 20
18.3551791388374816
 30
0.0
 11
5600.4017574647195943
 21
18.3911197786349589
 31
0.0
  0
LINE
  5
231A8
  8
0
 10
5600.4017574647195943
 20
18.3911197786349589
 30
0.0
 11
5600.4263746696688031
 21
18.4053387071044803
 31
0.0
  0
LINE
  5
231A9
  8
0
 10
5600.4263746696688031
 20
18.4053387071044803
 30
0.0
 11
5600.4263739385532972
 21
18.4113390325865893
 31
0.0
  0
LINE
  5
231AA
  8
0
 10
5600.4263739385532972
 20
18.4113390325865893
 30
0.0
 11
5600.3998965405580748
 21
18.4266095857847709
 31
0.0
  0
LINE
  5
231AB
  8
0
 10
5600.3998965405580748
 20
18.4266095857847709
 30
0.0
 11
5600.3980124421977962
 21
18.462541347695101
 31
0.0
  0
LINE
  5
231AC
  8
0
 10
5600.3980124421977962
 20
18.462541347695101
 30
0.0
 11
5600.4226240484003938
 21
18.4767655994100899
 31
0.0
  0
LINE
  5
231AD
  8
0
 10
5600.4226240484003938
 20
18.4767655994100899
 30
0.0
 11
5600.4226238907385778
 21
18.4824777324079115
 31
0.0
  0
LINE
  5
231AE
  8
0
 10
5600.4226238907385778
 20
18.4824777324079115
 30
0.0
 11
5600.3961513774202103
 21
18.4980376796510697
 31
0.0
  0
LINE
  5
231AF
  8
0
 10
5600.3961517352499868
 20
18.4980270100508903
 30
0.0
 11
5600.3942667161054487
 21
18.5339763333358185
 31
0.0
  0
LINE
  5
231B0
  8
0
 10
5600.3942667161054487
 20
18.5339763333358185
 30
0.0
 11
5600.4188700556105687
 21
18.5484794496955203
 31
0.0
  0
LINE
  5
231B1
  8
0
 10
5600.4188700556105687
 20
18.5484794496955203
 30
0.0
 11
5600.4188699056776386
 21
18.5539115890206716
 31
0.0
  0
LINE
  5
231B2
  8
0
 10
5600.4188699056776386
 20
18.5539115890206716
 30
0.0
 11
5600.3924062864043663
 21
18.56945670949926
 31
0.0
  0
LINE
  5
231B3
  8
0
 10
5600.3924062864043663
 20
18.56945670949926
 30
0.0
 11
5600.391692744707143
 21
18.5830647093098484
 31
0.0
  0
LINE
  5
231B4
  8
0
 10
5601.1632069762763422
 20
18.0674615668993113
 30
0.0
 11
5601.1799608783539952
 21
18.0835120159565612
 31
0.0
  0
LINE
  5
231B5
  8
0
 10
5601.1799608783539952
 20
18.0835120159565612
 30
0.0
 11
5601.1799440996210251
 21
18.0896108223957803
 31
0.0
  0
LINE
  5
231B6
  8
0
 10
5601.1185017837551641
 20
18.0833445210124708
 30
0.0
 11
5601.1951880549158886
 21
18.0982919917503615
 31
0.0
  0
LINE
  5
231B7
  8
0
 10
5601.1951880549158886
 20
18.0982919917503615
 30
0.0
 11
5601.2068538228068064
 21
18.1088826042434512
 31
0.0
  0
LINE
  5
231B8
  8
0
 10
5601.2068538228068064
 20
18.1088826042434512
 30
0.0
 11
5601.2085431913119464
 21
18.1411347076843086
 31
0.0
  0
LINE
  5
231B9
  8
0
 10
5601.2085431913119464
 20
18.1411347076843086
 30
0.0
 11
5601.1838861081369032
 21
18.1551547560712301
 31
0.0
  0
LINE
  5
231BA
  8
0
 10
5601.1838861081369032
 20
18.1551547560712301
 30
0.0
 11
5601.1836946672883641
 21
18.1610546286705983
 31
0.0
  0
LINE
  5
231BB
  8
0
 10
5601.1836946672883641
 20
18.1610546286705983
 30
0.0
 11
5601.2104074715480238
 21
18.1767260899542116
 31
0.0
  0
LINE
  5
231BC
  8
0
 10
5601.2104074715480238
 20
18.1767260899542116
 30
0.0
 11
5601.2122804075233944
 21
18.2124827209630915
 31
0.0
  0
LINE
  5
231BD
  8
0
 10
5601.2122804075233944
 20
18.2124827209630915
 30
0.0
 11
5601.1874500560270462
 21
18.2271120200214582
 31
0.0
  0
LINE
  5
231BE
  8
0
 10
5601.1874500560270462
 20
18.2271120200214582
 30
0.0
 11
5601.1874499073446714
 21
18.2324988426194103
 31
0.0
  0
LINE
  5
231BF
  8
0
 10
5601.1874499073446714
 20
18.2324988426194103
 30
0.0
 11
5601.2136772221765568
 21
18.2476205617302192
 31
0.0
  0
LINE
  5
231C0
  8
0
 10
5601.2136772221765568
 20
18.2476205617302192
 30
0.0
 11
5601.2160195053429561
 21
18.2838666557938296
 31
0.0
  0
LINE
  5
231C1
  8
0
 10
5601.2160195053429561
 20
18.2838666557938296
 30
0.0
 11
5601.191220740091012
 21
18.2985233941240288
 31
0.0
  0
LINE
  5
231C2
  8
0
 10
5601.191220740091012
 20
18.2985233941240288
 30
0.0
 11
5601.1912205905364317
 21
18.3039418182748008
 31
0.0
  0
LINE
  5
231C3
  8
0
 10
5601.1912205905364317
 20
18.3039418182748008
 30
0.0
 11
5601.2176658433199918
 21
18.3193134333982108
 31
0.0
  0
LINE
  5
231C4
  8
0
 10
5601.2176658433199918
 20
18.3193134333982108
 30
0.0
 11
5601.2197677567519349
 21
18.3554254964137407
 31
0.0
  0
LINE
  5
231C5
  8
0
 10
5601.2197677567519349
 20
18.3554254964137407
 30
0.0
 11
5601.1951693549499396
 21
18.3699348715376907
 31
0.0
  0
LINE
  5
231C6
  8
0
 10
5601.1951693549499396
 20
18.3699348715376907
 30
0.0
 11
5601.1951692053007719
 21
18.3753566843144185
 31
0.0
  0
LINE
  5
231C7
  8
0
 10
5601.1951692053007719
 20
18.3753566843144185
 30
0.0
 11
5601.2216261674675479
 21
18.3909046711851403
 31
0.0
  0
LINE
  5
231C8
  8
0
 10
5601.2216261674675479
 20
18.3909046711851403
 30
0.0
 11
5601.2235092527971574
 21
18.4268550640742212
 31
0.0
  0
LINE
  5
231C9
  8
0
 10
5601.2235092527971574
 20
18.4268550640742212
 30
0.0
 11
5601.1989071288353443
 21
18.4413672027319002
 31
0.0
  0
LINE
  5
231CA
  8
0
 10
5601.1989071288353443
 20
18.4413672027319002
 30
0.0
 11
5601.1989069711426055
 21
18.4470803846297216
 31
0.0
  0
LINE
  5
231CB
  8
0
 10
5601.1989069711426055
 20
18.4470803846297216
 30
0.0
 11
5601.225367691809879
 21
18.4623349312828609
 31
0.0
  0
LINE
  5
231CC
  8
0
 10
5601.225367691809879
 20
18.4623349312828609
 30
0.0
 11
5601.2272504977836434
 21
18.4982799910642299
 31
0.0
  0
LINE
  5
231CD
  8
0
 10
5601.2272504977836434
 20
18.4982799910642299
 30
0.0
 11
5601.2026400039922009
 21
18.5127968572909012
 31
0.0
  0
LINE
  5
231CE
  8
0
 10
5601.2026400039922009
 20
18.5127968572909012
 30
0.0
 11
5601.2026398542020615
 21
18.5182238231606817
 31
0.0
  0
LINE
  5
231CF
  8
0
 10
5601.2026398542020615
 20
18.5182238231606817
 30
0.0
 11
5601.2291092032583038
 21
18.5337649445802306
 31
0.0
  0
LINE
  5
231D0
  8
0
 10
5601.2291092032583038
 20
18.5337649445802306
 30
0.0
 11
5601.2316552240363308
 21
18.5830878943078197
 31
0.0
  0
LINE
  5
231D1
  8
0
 10
5601.1185017837551641
 20
18.0833445210124708
 30
0.0
 11
5601.1799608783539952
 21
18.0835120159565612
 31
0.0
  0
LINE
  5
231D2
  8
0
 10
5601.1799440996210251
 20
18.0896108223957803
 30
0.0
 11
5601.1951880549158886
 21
18.0982919917503615
 31
0.0
  0
LINE
  5
231D3
  8
0
 10
5600.3924062864043663
 20
18.56945670949926
 30
0.0
 11
5601.2124249143516863
 21
18.601175051699709
 31
0.0
  0
LINE
  5
231D4
  8
0
 10
5601.2115843996853073
 20
18.5662587091872098
 30
0.0
 11
5601.2124238915930619
 21
18.6011749628600001
 31
0.0
  0
LINE
  5
231D5
  8
0
 10
5601.2115843996853073
 20
18.5662587091872098
 30
0.0
 11
5601.1881098288004068
 21
18.5804601159665701
 31
0.0
  0
LINE
  5
231D6
  8
0
 10
5601.1881098288004068
 20
18.5804601159665701
 30
0.0
 11
5601.1881096867091401
 21
18.5864631960649405
 31
0.0
  0
LINE
  5
231D7
  8
0
 10
5601.1881096867091401
 20
18.5864631960649405
 30
0.0
 11
5601.2124238915930619
 21
18.6011749628600001
 31
0.0
  0
LINE
  5
231D8
  8
0
 10
5601.2115843996853073
 20
18.5662587091872098
 30
0.0
 11
5600.3942667161054487
 21
18.5339763333358185
 31
0.0
  0
LINE
  5
231D9
  8
0
 10
5600.4188700556105687
 20
18.5484794496955203
 30
0.0
 11
5601.1881098288004068
 21
18.5804601159665701
 31
0.0
  0
LINE
  5
231DA
  8
0
 10
5601.1881096867091401
 20
18.5864631960649405
 30
0.0
 11
5600.4188699056776386
 21
18.5539115890206716
 31
0.0
  0
LINE
  5
231DB
  8
0
 10
5600.3961517352499868
 20
18.4980270100508903
 30
0.0
 11
5601.2291092032583038
 21
18.5337649445802306
 31
0.0
  0
LINE
  5
231DC
  8
0
 10
5601.2026398542020615
 20
18.5182238231606817
 30
0.0
 11
5600.4226238907385778
 21
18.4824777324079115
 31
0.0
  0
LINE
  5
231DD
  8
0
 10
5600.4226240484003938
 20
18.4767655994100899
 30
0.0
 11
5601.2026400039922009
 21
18.5127968572909012
 31
0.0
  0
LINE
  5
231DE
  8
0
 10
5601.2272504977836434
 20
18.4982799910642299
 30
0.0
 11
5600.3980124421977962
 21
18.462541347695101
 31
0.0
  0
LINE
  5
231DF
  8
0
 10
5600.3998965405580748
 20
18.4266095857847709
 30
0.0
 11
5601.225367691809879
 21
18.4623349312828609
 31
0.0
  0
LINE
  5
231E0
  8
0
 10
5601.1989069711426055
 20
18.4470803846297216
 30
0.0
 11
5600.4263739385532972
 21
18.4113390325865893
 31
0.0
  0
LINE
  5
231E1
  8
0
 10
5601.1989071288353443
 20
18.4413672027319002
 30
0.0
 11
5600.4263746696688031
 21
18.4053387071044803
 31
0.0
  0
LINE
  5
231E2
  8
0
 10
5600.4017574647195943
 20
18.3911197786349589
 30
0.0
 11
5601.2235092527971574
 21
18.4268550640742212
 31
0.0
  0
LINE
  5
231E3
  8
0
 10
5601.2216261674675479
 20
18.3909046711851403
 30
0.0
 11
5600.4036420286238354
 21
18.3551791388374816
 31
0.0
  0
LINE
  5
231E4
  8
0
 10
5600.4301189892448747
 20
18.3396178176271185
 30
0.0
 11
5601.1951692053007719
 21
18.3753566843144185
 31
0.0
  0
LINE
  5
231E5
  8
0
 10
5601.1951693549499396
 20
18.3699348715376907
 30
0.0
 11
5600.4301191467193348
 21
18.3339124985292905
 31
0.0
  0
LINE
  5
231E6
  8
0
 10
5600.4055035070778104
 20
18.3196787623029707
 30
0.0
 11
5601.2197677567519349
 21
18.3554254964137407
 31
0.0
  0
LINE
  5
231E7
  8
0
 10
5601.2176658433199918
 20
18.3193134333982108
 30
0.0
 11
5600.4073864916517778
 21
18.2837682394619101
 31
0.0
  0
LINE
  5
231E8
  8
0
 10
5600.433892791839753
 20
18.2684725744614482
 30
0.0
 11
5601.1912205905364317
 21
18.3039418182748008
 31
0.0
  0
LINE
  5
231E9
  8
0
 10
5601.191220740091012
 20
18.2985233941240288
 30
0.0
 11
5600.434355463533393
 21
18.2630708956296814
 31
0.0
  0
LINE
  5
231EA
  8
0
 10
5600.4092489006943651
 20
18.2482501169530806
 30
0.0
 11
5601.2160195053429561
 21
18.2838666557938296
 31
0.0
  0
LINE
  5
231EB
  8
0
 10
5601.2136772221765568
 20
18.2476205617302192
 30
0.0
 11
5600.4111331508347575
 21
18.2123154591469287
 31
0.0
  0
LINE
  5
231EC
  8
0
 10
5600.4376032944755934
 20
18.1970396006485302
 30
0.0
 11
5601.1874499073446714
 21
18.2324988426194103
 31
0.0
  0
LINE
  5
231ED
  8
0
 10
5600.4376035125751514
 20
18.1912645401523392
 30
0.0
 11
5601.1874500560270462
 21
18.2271120200214582
 31
0.0
  0
LINE
  5
231EE
  8
0
 10
5601.2122804075233944
 20
18.2124827209630915
 30
0.0
 11
5600.4130001563971746
 21
18.1767096749649397
 31
0.0
  0
LINE
  5
231EF
  8
0
 10
5600.4148790262051989
 20
18.1408776270103296
 30
0.0
 11
5601.2104074715480238
 21
18.1767260899542116
 31
0.0
  0
LINE
  5
231F0
  8
0
 10
5601.1836946672883641
 20
18.1610546286705983
 30
0.0
 11
5600.4413368635250663
 21
18.1253308380721485
 31
0.0
  0
LINE
  5
231F1
  8
0
 10
5600.441337016014586
 20
18.1198060474313216
 30
0.0
 11
5601.1838861081369032
 21
18.1551547560712301
 31
0.0
  0
LINE
  5
231F2
  8
0
 10
5601.2085431913119464
 20
18.1411347076843086
 30
0.0
 11
5600.4347478527888597
 21
18.1088543969546016
 31
0.0
  0
LINE
  5
231F3
  8
0
 10
5600.4347478527888597
 20
18.1088543969546016
 30
0.0
 11
5600.419080973157179
 21
18.1069315990761304
 31
0.0
  0
LINE
  5
231F4
  8
0
 10
5601.2316552240363308
 20
18.5830878943078197
 30
0.0
 11
5601.2119890099929762
 21
18.583087312258499
 31
0.0
  0
LINE
  5
231F5
  8
0
 10
5600.3916552240361852
 20
21.3018360833288511
 30
0.0
 11
5601.2316552240363308
 21
21.3018360833288511
 31
0.0
  0
ENDSEC
  0
EOF
