  0
SECTION
  2
HEADER
  9
$ACADVER
  1
AC1009
  9
$INSBASE
 10
4350.440417347024777
 20
205.2040573485307107
 30
0.0
  9
$EXTMIN
 10
4345.9949173470240567
 20
197.013925816895096
 30
0.0
  9
$EXTMAX
 10
4354.8859173470245878
 20
205.2084244272226954
 30
0.0
  9
$LIMMIN
 10
0.0
 20
0.0
  9
$LIMMAX
 10
11.6929133858000007
 20
8.2677165353999982
  9
$ORTHOMODE
 70
     0
  9
$REGENMODE
 70
     1
  9
$FILLMODE
 70
     1
  9
$QTEXTMODE
 70
     0
  9
$MIRRTEXT
 70
     0
  9
$DRAGMODE
 70
     2
  9
$LTSCALE
 40
0.6431102362
  9
$OSMODE
 70
     7
  9
$ATTMODE
 70
     1
  9
$TEXTSIZE
 40
0.2
  9
$TRACEWID
 40
0.05
  9
$TEXTSTYLE
  7
STANDARD
  9
$CLAYER
  8
0
  9
$CELTYPE
  6
BYLAYER
  9
$CECOLOR
 62
   256
  9
$DIMSCALE
 40
1.0
  9
$DIMASZ
 40
0.1875
  9
$DIMEXO
 40
0.0625
  9
$DIMDLI
 40
0.4443307087
  9
$DIMRND
 40
0.0
  9
$DIMDLE
 40
0.0
  9
$DIMEXE
 40
0.125
  9
$DIMTP
 40
0.01
  9
$DIMTM
 40
0.01
  9
$DIMTXT
 40
2.0
  9
$DIMCEN
 40
0.1052362205
  9
$DIMTSZ
 40
0.0
  9
$DIMTOL
 70
     1
  9
$DIMLIM
 70
     0
  9
$DIMTIH
 70
     1
  9
$DIMTOH
 70
     1
  9
$DIMSE1
 70
     0
  9
$DIMSE2
 70
     0
  9
$DIMTAD
 70
     0
  9
$DIMZIN
 70
     0
  9
$DIMBLK
  1

  9
$DIMASO
 70
     1
  9
$DIMSHO
 70
     1
  9
$DIMPOST
  1
\X
  9
$DIMAPOST
  1

  9
$DIMALT
 70
     1
  9
$DIMALTD
 70
     2
  9
$DIMALTF
 40
25.3999999999999986
  9
$DIMLFAC
 40
1.0
  9
$DIMTOFL
 70
     0
  9
$DIMTVP
 40
0.0
  9
$DIMTIX
 70
     0
  9
$DIMSOXD
 70
     0
  9
$DIMSAH
 70
     0
  9
$DIMBLK1
  1

  9
$DIMBLK2
  1

  9
$DIMSTYLE
  2
STANDARD
  9
$DIMCLRD
 70
     0
  9
$DIMCLRE
 70
     0
  9
$DIMCLRT
 70
     0
  9
$DIMTFAC
 40
1.0
  9
$DIMGAP
 40
0.09
  9
$LUNITS
 70
     2
  9
$LUPREC
 70
     4
  9
$SKETCHINC
 40
0.1
  9
$FILLETRAD
 40
0.0
  9
$AUNITS
 70
     0
  9
$AUPREC
 70
     0
  9
$MENU
  1
.
  9
$ELEVATION
 40
0.0
  9
$PELEVATION
 40
0.0
  9
$THICKNESS
 40
0.0
  9
$LIMCHECK
 70
     0
  9
$BLIPMODE
 70
     0
  9
$CHAMFERA
 40
0.0
  9
$CHAMFERB
 40
0.0
  9
$SKPOLY
 70
     0
  9
$TDCREATE
 40
2458060.468368056230247
  9
$TDUPDATE
 40
2459578.9560416671447456
  9
$TDINDWG
 40
0.4618126157
  9
$TDUSRTIMER
 40
0.4618126157
  9
$USRTIMER
 70
     1
  9
$ANGBASE
 50
0.0
  9
$ANGDIR
 70
     0
  9
$PDMODE
 70
     0
  9
$PDSIZE
 40
0.3125
  9
$PLINEWID
 40
0.0
  9
$COORDS
 70
     1
  9
$SPLFRAME
 70
     0
  9
$SPLINETYPE
 70
     6
  9
$SPLINESEGS
 70
     8
  9
$ATTDIA
 70
     1
  9
$ATTREQ
 70
     1
  9
$HANDLING
 70
     1
  9
$HANDSEED
  5
F7BE
  9
$SURFTAB1
 70
     6
  9
$SURFTAB2
 70
     6
  9
$SURFTYPE
 70
     6
  9
$SURFU
 70
     6
  9
$SURFV
 70
     6
  9
$UCSNAME
  2

  9
$UCSORG
 10
0.0
 20
0.0
 30
0.0
  9
$UCSXDIR
 10
1.0
 20
0.0
 30
0.0
  9
$UCSYDIR
 10
0.0
 20
1.0
 30
0.0
  9
$PUCSNAME
  2

  9
$PUCSORG
 10
0.0
 20
0.0
 30
0.0
  9
$PUCSXDIR
 10
1.0
 20
0.0
 30
0.0
  9
$PUCSYDIR
 10
0.0
 20
1.0
 30
0.0
  9
$USERI1
 70
     0
  9
$USERI2
 70
     0
  9
$USERI3
 70
     0
  9
$USERI4
 70
     0
  9
$USERI5
 70
     0
  9
$USERR1
 40
0.0
  9
$USERR2
 40
0.0
  9
$USERR3
 40
0.0
  9
$USERR4
 40
0.0
  9
$USERR5
 40
0.0
  9
$WORLDVIEW
 70
     1
  9
$SHADEDGE
 70
     3
  9
$SHADEDIF
 70
    70
  9
$TILEMODE
 70
     1
  9
$MAXACTVP
 70
    64
  9
$PLIMCHECK
 70
     0
  9
$PEXTMIN
 10
1.0000000000000000E+20
 20
1.0000000000000000E+20
 30
1.0000000000000000E+20
  9
$PEXTMAX
 10
-1.0000000000000000E+20
 20
-1.0000000000000000E+20
 30
-1.0000000000000000E+20
  9
$PLIMMIN
 10
0.0
 20
0.0
  9
$PLIMMAX
 10
12.0
 20
9.0
  9
$UNITMODE
 70
     0
  9
$VISRETAIN
 70
     1
  9
$PLINEGEN
 70
     0
  9
$PSLTSCALE
 70
     1
  0
ENDSEC
  0
SECTION
  2
TABLES
  0
TABLE
  2
VPORT
 70
     1
  0
VPORT
  2
*ACTIVE
 70
     0
 10
0.0
 20
0.0
 11
1.0
 21
1.0
 12
546.870401033816961
 22
75.1157352374721228
 13
0.0
 23
0.0
 14
1.0
 24
1.0
 15
0.0
 25
0.0
 16
0.0
 26
0.0
 36
17.1152628219792007
 17
3803.5440673828129547
 27
125.9952621967499056
 37
0.0
 40
8.2740241592436234
 41
2.2831541218637992
 42
50.0
 43
0.0
 44
0.0
 50
0.0
 51
0.0
 71
     0
 72
   100
 73
     1
 74
     1
 75
     0
 76
     0
 77
     0
 78
     0
  0
ENDTAB
  0
TABLE
  2
LTYPE
 70
     2
  0
LTYPE
  2
CONTINUOUS
 70
     0
  3
Solid line
 72
    65
 73
     0
 40
0.0
  0
LTYPE
  2
PHANTOM2
 70
     0
  3
___ _ _ ___ _ _ ___ _ _ ___ _ _
 72
    65
 73
     6
 40
1.25
 49
0.625
 49
-0.125
 49
0.125
 49
-0.125
 49
0.125
 49
-0.125
  0
ENDTAB
  0
TABLE
  2
LAYER
 70
     2
  0
LAYER
  2
0
 70
     0
 62
   255
  6
CONTINUOUS
  0
LAYER
  2
DEFPOINTS
 70
     0
 62
     7
  6
CONTINUOUS
  0
ENDTAB
  0
TABLE
  2
STYLE
 70
     1
  0
STYLE
  2
STANDARD
 70
     0
 40
0.0
 41
0.8
 50
0.0
 71
     0
 42
0.2
  3
txt
  4

  0
ENDTAB
  0
TABLE
  2
VIEW
 70
     0
  0
ENDTAB
  0
TABLE
  2
UCS
 70
     0
  0
ENDTAB
  0
TABLE
  2
APPID
 70
     9
  0
APPID
  2
ACAD
 70
     0
  0
APPID
  2
ACAD_MLEADERVER
 70
     0
  0
APPID
  2
ACAD_EXEMPT_FROM_CAD_STANDARDS
 70
     0
  0
APPID
  2
ACAD_NAV_VCDISPLAY
 70
     0
  0
APPID
  2
ACAECLAYERSTANDARD
 70
     0
  0
APPID
  2
ACCMTRANSPARENCY
 70
     0
  0
APPID
  2
ACAD_DSTYLE_DIMJAG
 70
     0
  0
APPID
  2
ACAD_DSTYLE_DIMTALN
 70
     0
  0
APPID
  2
ACDBATTR
 70
     0
  0
ENDTAB
  0
TABLE
  2
DIMSTYLE
 70
     1
  0
DIMSTYLE
  2
STANDARD
 70
     0
  3

  4

  5

  6

  7

 40
1.0
 41
0.1875
 42
0.0625
 43
0.38
 44
0.125
 45
0.0
 46
0.0
 47
0.01
 48
0.01
140
0.15625
141
0.09
142
0.0
143
25.3999999999999986
144
1.0
145
0.0
146
1.0
147
0.09
 71
     1
 72
     0
 73
     1
 74
     1
 75
     0
 76
     0
 77
     0
 78
     4
170
     0
171
     2
172
     0
173
     0
174
     0
175
     0
176
     0
177
     0
178
     0
  0
ENDTAB
  0
ENDSEC
  0
SECTION
  2
BLOCKS
  0
BLOCK
  8
0
  2
$MODEL_SPACE
 70
     0
 10
0.0
 20
0.0
 30
0.0
  3
$MODEL_SPACE
  1

  0
ENDBLK
  5
21
  8
0
  0
BLOCK
 67
     1
  8
0
  2
$PAPER_SPACE
 70
     0
 10
0.0
 20
0.0
 30
0.0
  3
$PAPER_SPACE
  1

  0
ENDBLK
  5
1D
 67
     1
  8
0
  0
ENDSEC
  0
SECTION
  2
ENTITIES
  0
ATTDEF
  5
3930
  8
DEFPOINTS
 10
4350.4404422919387798
 20
205.2074244272226053
 30
0.0
 40
0.001
  1
P21515-00
  3

  2
MODELNUMBER
 70
     0
1001
ACDBATTR
1070
     0
1070
     1
  0
ATTDEF
  5
3931
  8
DEFPOINTS
 10
4350.4404422919387798
 20
205.205757760555997
 30
0.0
 40
0.001
  1

  3

  2
TRADENAME
 70
     0
1001
ACDBATTR
1070
     0
1070
     1
  0
ATTDEF
  5
3932
  8
DEFPOINTS
 10
4350.4404422919387798
 20
205.2040910938893035
 30
0.0
 40
0.001
  1
SHOWERHEAD
  3

  2
PRODUCT
 70
     0
1001
ACDBATTR
1070
     0
1070
     1
  0
LINE
  5
F6B3
  8
0
 10
4354.8859173470245878
 20
197.5685740746951069
 30
0.0
 11
4345.9949173470249661
 21
197.5685740746951069
 31
0.0
  0
LINE
  5
F6B4
  8
0
 10
4346.0981498952723996
 20
197.013925816895096
 30
0.0
 11
4354.7826847987762449
 21
197.013925816895096
 31
0.0
  0
ARC
  5
F6B5
  8
0
 10
4349.7007512716008932
 20
197.5801010016627117
 30
0.0
 40
3.705851851679185
 50
180.1782168735828122
 51
184.4009355588119945
  0
ARC
  5
F6B6
  8
0
 10
4347.9367875238849592
 20
197.4540918829547138
 30
0.0
 40
1.937444189556689
 50
184.6884063772729121
 51
191.6893050761173072
  0
ARC
  5
F6B7
  8
0
 10
4346.0983201429662586
 20
197.0740293922121111
 30
0.0
 40
0.0601038164358867
 50
191.9767582320828865
 51
269.8377060236172156
  0
ARC
  5
F6B8
  8
0
 10
4351.1800834224468417
 20
197.5801010016627117
 30
0.0
 40
3.705851851679185
 50
355.5990644411862718
 51
359.8217831264170741
  0
ARC
  5
F6B9
  8
0
 10
4352.9440471701636852
 20
197.4540918829547138
 30
0.0
 40
1.937444189556689
 50
348.3106949238825791
 51
355.3115936227271163
  0
ARC
  5
F6BA
  8
0
 10
4354.7825145510832954
 20
197.0740293922121111
 30
0.0
 40
0.0601038164358867
 50
270.1622939763827844
 51
348.0232417679171135
  0
LINE
  5
F6BB
  8
0
 10
4349.193548922624359
 20
205.2040573485307107
 30
0.0
 11
4351.687285771425195
 21
205.2040573485307107
 31
0.0
  0
LINE
  5
F6BC
  8
0
 10
4349.2749912029239567
 20
204.8389523164807997
 30
0.0
 11
4351.6058434911246877
 21
204.8389523164807997
 31
0.0
  0
ARC
  5
F6BD
  8
0
 10
4349.1935541371703948
 20
205.1890457267033128
 30
0.0
 40
0.0150116227331644
 50
90.0199026764904744
 51
184.5530850797725009
  0
LINE
  5
F6BE
  8
0
 10
4349.1785898879243177
 20
205.1878540633308035
 30
0.0
 11
4349.1820846423252078
 21
205.1440639903308067
 31
0.0
  0
ARC
  5
F6BF
  8
0
 10
4351.4187367542754146
 20
205.3216466222312988
 30
0.0
 40
2.2436907676956439
 50
184.5395686959058139
 51
191.1855032001442112
  0
ARC
  5
F6C0
  8
0
 10
4349.2754002487308753
 20
204.8977987986546054
 30
0.0
 40
0.0588479038089408
 50
191.167068432034398
 51
269.6017396447912802
  0
LINE
  5
F6C1
  8
0
 10
4349.7514409690247703
 20
198.6108397082307135
 30
0.0
 11
4351.1293937250247836
 21
198.6108397082307135
 31
0.0
  0
LINE
  5
F6C2
  8
0
 10
4349.7219134100241718
 20
198.1383987634307005
 30
0.0
 11
4349.7219134100241718
 21
197.5685740746951069
 31
0.0
  0
ARC
  5
F6C3
  8
0
 10
4350.0455382622039906
 20
197.5801010016627117
 30
0.0
 40
3.705851851679185
 50
180.1782168735828122
 51
184.4009355588119945
  0
ARC
  5
F6C4
  8
0
 10
4348.2815745144862376
 20
197.4540918829547138
 30
0.0
 40
1.937444189556689
 50
184.6884063772729121
 51
191.6893050761173072
  0
ARC
  5
F6C5
  8
0
 10
4346.4431071335666275
 20
197.0740293922121111
 30
0.0
 40
0.0601038164358867
 50
191.9767582320828865
 51
269.8377060236172156
  0
ARC
  5
F6C6
  8
0
 10
4349.2794166369312734
 20
205.1890457267033128
 30
0.0
 40
0.0150116227331644
 50
90.0199026764904744
 51
184.5530850797725009
  0
LINE
  5
F6C7
  8
0
 10
4349.2644523876851963
 20
205.1878540633308035
 30
0.0
 11
4349.2679471420842674
 21
205.1440639903308067
 31
0.0
  0
ARC
  5
F6C8
  8
0
 10
4351.5045992540353836
 20
205.3216466222312988
 30
0.0
 40
2.2436907676956439
 50
184.5395686959058139
 51
191.1855032001442112
  0
ARC
  5
F6C9
  8
0
 10
4349.3612627484917539
 20
204.8977987986546054
 30
0.0
 40
0.0588479038089408
 50
191.167068432034398
 51
269.6017396447912802
  0
ARC
  5
F6CB
  8
0
 10
4351.6872805568800686
 20
205.1890457267033128
 30
0.0
 40
0.0150116227331644
 50
355.4469149202274139
 51
89.9800973235095256
  0
LINE
  5
F6CC
  8
0
 10
4351.7022448061252362
 20
205.1878540633308035
 30
0.0
 11
4351.6987500517243461
 21
205.1440639903308067
 31
0.0
  0
ARC
  5
F6CD
  8
0
 10
4349.4620979397750489
 20
205.3216466222312988
 30
0.0
 40
2.2436907676956439
 50
348.8144967998558172
 51
355.4604313040941861
  0
ARC
  5
F6CE
  8
0
 10
4351.6054344453177691
 20
204.8977987986546054
 30
0.0
 40
0.0588479038089408
 50
270.3982603552087198
 51
348.8329315679638967
  0
ARC
  5
F6CF
  8
0
 10
4351.6014180571182806
 20
205.1890457267033128
 30
0.0
 40
0.0150116227331644
 50
355.4469149202274139
 51
89.9800973235095256
  0
LINE
  5
F6D0
  8
0
 10
4351.6163823063643576
 20
205.1878540633308035
 30
0.0
 11
4351.6128875519643771
 21
205.1440639903308067
 31
0.0
  0
ARC
  5
F6D1
  8
0
 10
4349.3762354400141703
 20
205.3216466222312988
 30
0.0
 40
2.2436907676956439
 50
348.8144967998558172
 51
355.4604313040941861
  0
ARC
  5
F6D2
  8
0
 10
4351.5195719455568906
 20
204.8977987986546054
 30
0.0
 40
0.0588479038089408
 50
270.3982603552087198
 51
348.8329315679638967
  0
ARC
  5
F6D3
  8
0
 10
4350.2907224675645921
 20
199.3082666490358861
 30
0.0
 40
0.0810272674326077
 50
111.0146904958374989
 51
122.1999176959305942
  0
LINE
  5
F6D4
  8
0
 10
4350.2475450575266223
 20
199.3768314310306948
 30
0.0
 11
4350.2475450575266223
 21
199.0009171923223903
 31
0.0
  0
ARC
  5
F6D5
  8
0
 10
4350.3950847947216971
 20
199.0492070801954867
 30
0.0
 40
0.1661679115435598
 50
226.1344568578988117
 51
244.718243562440307
  0
ARC
  5
F6D6
  8
0
 10
4350.3590818141719865
 20
199.0111407233470118
 30
0.0
 40
0.1137751419515915
 50
204.3409223965406909
 51
225.9220505056460979
  0
ARC
  5
F6D7
  8
0
 10
4350.3393690921639063
 20
199.0014559007393871
 30
0.0
 40
0.0918256148568333
 50
180.3361360093824999
 51
203.9047480293658055
  0
ARC
  5
F6D8
  8
0
 10
4350.5901136994889384
 20
199.3082666490358861
 30
0.0
 40
0.0810272674326077
 50
57.8000823040693419
 51
68.9853095041624869
  0
LINE
  5
F6D9
  8
0
 10
4350.6332911095269083
 20
199.3768314310306948
 30
0.0
 11
4350.6332911095269083
 21
199.0009171923223903
 31
0.0
  0
ARC
  5
F6DA
  8
0
 10
4350.4857513723327429
 20
199.0492070801954867
 30
0.0
 40
0.1661679115435598
 50
295.281756437559693
 51
313.8655431421012167
  0
ARC
  5
F6DB
  8
0
 10
4350.521754352883363
 20
199.0111407233470118
 30
0.0
 40
0.1137751419515915
 50
314.0779494943527084
 51
335.6590776034593091
  0
ARC
  5
F6DC
  8
0
 10
4350.5414670748887147
 20
199.0014559007393871
 30
0.0
 40
0.0918256148568333
 50
336.0952519706341945
 51
359.6638639906174717
  0
ARC
  5
F6DD
  8
0
 10
4350.44041808352722
 20
198.9329379530377935
 30
0.0
 40
0.4851015036700712
 50
68.3777916684075535
 51
111.6222083315924039
  0
LINE
  5
F6DE
  8
0
 10
4350.2475450575266223
 20
199.3768314310306948
 30
0.0
 11
4350.6332911095269083
 21
199.3768314310306948
 31
0.0
  0
ARC
  5
F6DF
  8
0
 10
4350.44041808352722
 20
199.1623925003432873
 30
0.0
 40
0.2879664936423433
 50
246.1801900404784078
 51
293.8198099595215922
  0
LINE
  5
F6E0
  8
0
 10
4349.7514409690247703
 20
198.6108397082307135
 30
0.0
 11
4349.7514409690247703
 21
198.1383987634307005
 31
0.0
  0
LINE
  5
F6E1
  8
0
 10
4349.7514409690247703
 20
198.1383987634307005
 30
0.0
 11
4349.7219134100241718
 21
198.1383987634307005
 31
0.0
  0
LINE
  5
F6E2
  8
0
 10
4351.1589212840235632
 20
198.1383987634307005
 30
0.0
 11
4351.1589212840235632
 21
197.5685740746951069
 31
0.0
  0
LINE
  5
F6E3
  8
0
 10
4351.1293937250247836
 20
198.6108397082307135
 30
0.0
 11
4351.1293937250247836
 21
198.1383987634307005
 31
0.0
  0
LINE
  5
F6E4
  8
0
 10
4351.1293937250247836
 20
198.1383987634307005
 30
0.0
 11
4351.1589212840235632
 21
198.1383987634307005
 31
0.0
  0
LINE
  5
F6E5
  8
0
 10
4349.9654173362741858
 20
199.5509735665307005
 30
0.0
 11
4350.9154173577735492
 21
199.5509735665307005
 31
0.0
  0
LINE
  5
F6E6
  8
0
 10
4350.0344177045262768
 20
199.5509735665307005
 30
0.0
 11
4350.0344169680238338
 21
204.8389523164807997
 31
0.0
  0
ARC
  5
F6E7
  8
0
 10
4350.4404173362736401
 20
198.3109735665308051
 30
0.0
 40
0.5279999999999577
 50
133.9459866993859123
 51
145.378119465987794
  0
ARC
  5
F6E8
  8
0
 10
4350.0254173362518486
 20
198.7415301830270948
 30
0.0
 40
0.070000000023497
 50
313.9459867071004737
 51
59.999999926222138
  0
ARC
  5
F6E9
  8
0
 10
4350.1754173495537543
 20
199.0013378118426033
 30
0.0
 40
0.2300000132786422
 50
180.0000019211192921
 51
239.9999981093486099
  0
LINE
  5
F6EA
  8
0
 10
4349.9454173362737492
 20
199.0013378041307988
 30
0.0
 11
4349.9454173362737492
 21
199.530973566530804
 31
0.0
  0
ARC
  5
F6EB
  8
0
 10
4349.9654173362741858
 20
199.530973566530804
 30
0.0
 40
0.0199999999999998
 50
89.9999999999478888
 51
180.0
  0
LINE
  5
F6EC
  8
0
 10
4350.0604173363417431
 20
198.8021519612672989
 30
0.0
 11
4350.8204173577078109
 21
198.8021519612672989
 31
0.0
  0
LINE
  5
F6ED
  8
0
 10
4350.8464169895232772
 20
199.5509735665307005
 30
0.0
 11
4350.8464177260248107
 21
204.8389523164807997
 31
0.0
  0
ARC
  5
F6EE
  8
0
 10
4350.4404173577750043
 20
198.3109735665308051
 30
0.0
 40
0.5279999999999577
 50
34.6218805340121918
 51
46.0540133006140309
  0
ARC
  5
F6EF
  8
0
 10
4350.8554173577977053
 20
198.7415301830270948
 30
0.0
 40
0.070000000023497
 50
120.0000000737777981
 51
226.0540132928994979
  0
ARC
  5
F6F0
  8
0
 10
4350.7054173444948901
 20
199.0013378118426033
 30
0.0
 40
0.2300000132786422
 50
300.0000018906513901
 51
359.9999980788807079
  0
LINE
  5
F6F1
  8
0
 10
4350.9354173577739857
 20
199.0013378041307988
 30
0.0
 11
4350.9354173577739857
 21
199.530973566530804
 31
0.0
  0
ARC
  5
F6F2
  8
0
 10
4350.9154173577735492
 20
199.530973566530804
 30
0.0
 40
0.0199999999999998
 50
0.0
 51
90.0000000000521254
  0
ARC
  5
F6F3
  8
0
 10
4350.8352964318446539
 20
197.5801010016627117
 30
0.0
 40
3.705851851679185
 50
355.5990644411879771
 51
359.8217831264170741
  0
ARC
  5
F6F4
  8
0
 10
4352.5992601795624068
 20
197.4540918829547138
 30
0.0
 40
1.937444189556689
 50
348.3106949238825791
 51
355.3115936227271163
  0
ARC
  5
F6F5
  8
0
 10
4354.4377275604811075
 20
197.0740293922121111
 30
0.0
 40
0.0601038164358867
 50
270.1622939763827844
 51
348.0232417679171135
  0
ENDSEC
  0
EOF
