  0
SECTION
  2
HEADER
  9
$ACADVER
  1
AC1009
  9
$INSBASE
 10
4229.3955777154142197
 20
101.0498004357359036
 30
0.0
  9
$EXTMIN
 10
4225.131577715414096
 20
96.7858004357358936
 30
0.0
  9
$EXTMAX
 10
4233.6595777154143434
 20
105.3138004357358994
 30
0.0
  9
$LIMMIN
 10
0.0
 20
0.0
  9
$LIMMAX
 10
11.6929133858000007
 20
8.2677165353999982
  9
$ORTHOMODE
 70
     0
  9
$REGENMODE
 70
     1
  9
$FILLMODE
 70
     1
  9
$QTEXTMODE
 70
     0
  9
$MIRRTEXT
 70
     0
  9
$DRAGMODE
 70
     2
  9
$LTSCALE
 40
0.6431102362
  9
$OSMODE
 70
  4095
  9
$ATTMODE
 70
     1
  9
$TEXTSIZE
 40
0.2
  9
$TRACEWID
 40
0.05
  9
$TEXTSTYLE
  7
STANDARD
  9
$CLAYER
  8
0
  9
$CELTYPE
  6
BYLAYER
  9
$CECOLOR
 62
   256
  9
$DIMSCALE
 40
1.0
  9
$DIMASZ
 40
0.1875
  9
$DIMEXO
 40
0.0625
  9
$DIMDLI
 40
0.4443307087
  9
$DIMRND
 40
0.0
  9
$DIMDLE
 40
0.0
  9
$DIMEXE
 40
0.125
  9
$DIMTP
 40
0.01
  9
$DIMTM
 40
0.01
  9
$DIMTXT
 40
2.0
  9
$DIMCEN
 40
0.1052362205
  9
$DIMTSZ
 40
0.0
  9
$DIMTOL
 70
     1
  9
$DIMLIM
 70
     0
  9
$DIMTIH
 70
     1
  9
$DIMTOH
 70
     1
  9
$DIMSE1
 70
     0
  9
$DIMSE2
 70
     0
  9
$DIMTAD
 70
     0
  9
$DIMZIN
 70
     0
  9
$DIMBLK
  1

  9
$DIMASO
 70
     1
  9
$DIMSHO
 70
     1
  9
$DIMPOST
  1
\X
  9
$DIMAPOST
  1

  9
$DIMALT
 70
     1
  9
$DIMALTD
 70
     2
  9
$DIMALTF
 40
25.3999999999999986
  9
$DIMLFAC
 40
1.0
  9
$DIMTOFL
 70
     0
  9
$DIMTVP
 40
0.0
  9
$DIMTIX
 70
     0
  9
$DIMSOXD
 70
     0
  9
$DIMSAH
 70
     0
  9
$DIMBLK1
  1

  9
$DIMBLK2
  1

  9
$DIMSTYLE
  2
STANDARD
  9
$DIMCLRD
 70
     0
  9
$DIMCLRE
 70
     0
  9
$DIMCLRT
 70
     0
  9
$DIMTFAC
 40
1.0
  9
$DIMGAP
 40
0.09
  9
$LUNITS
 70
     2
  9
$LUPREC
 70
     4
  9
$SKETCHINC
 40
0.1
  9
$FILLETRAD
 40
0.0
  9
$AUNITS
 70
     0
  9
$AUPREC
 70
     0
  9
$MENU
  1
.
  9
$ELEVATION
 40
0.0
  9
$PELEVATION
 40
0.0
  9
$THICKNESS
 40
0.0
  9
$LIMCHECK
 70
     0
  9
$BLIPMODE
 70
     0
  9
$CHAMFERA
 40
0.0
  9
$CHAMFERB
 40
0.0
  9
$SKPOLY
 70
     0
  9
$TDCREATE
 40
2458060.468368056230247
  9
$TDUPDATE
 40
2459424.6919560180976987
  9
$TDINDWG
 40
0.3269862269
  9
$TDUSRTIMER
 40
0.3269862269
  9
$USRTIMER
 70
     1
  9
$ANGBASE
 50
0.0
  9
$ANGDIR
 70
     0
  9
$PDMODE
 70
     0
  9
$PDSIZE
 40
0.3125
  9
$PLINEWID
 40
0.0
  9
$COORDS
 70
     1
  9
$SPLFRAME
 70
     0
  9
$SPLINETYPE
 70
     6
  9
$SPLINESEGS
 70
     8
  9
$ATTDIA
 70
     1
  9
$ATTREQ
 70
     1
  9
$HANDLING
 70
     1
  9
$HANDSEED
  5
A4D0
  9
$SURFTAB1
 70
     6
  9
$SURFTAB2
 70
     6
  9
$SURFTYPE
 70
     6
  9
$SURFU
 70
     6
  9
$SURFV
 70
     6
  9
$UCSNAME
  2

  9
$UCSORG
 10
0.0
 20
0.0
 30
0.0
  9
$UCSXDIR
 10
1.0
 20
0.0
 30
0.0
  9
$UCSYDIR
 10
0.0
 20
1.0
 30
0.0
  9
$PUCSNAME
  2

  9
$PUCSORG
 10
0.0
 20
0.0
 30
0.0
  9
$PUCSXDIR
 10
1.0
 20
0.0
 30
0.0
  9
$PUCSYDIR
 10
0.0
 20
1.0
 30
0.0
  9
$USERI1
 70
     0
  9
$USERI2
 70
     0
  9
$USERI3
 70
     0
  9
$USERI4
 70
     0
  9
$USERI5
 70
     0
  9
$USERR1
 40
0.0
  9
$USERR2
 40
0.0
  9
$USERR3
 40
0.0
  9
$USERR4
 40
0.0
  9
$USERR5
 40
0.0
  9
$WORLDVIEW
 70
     1
  9
$SHADEDGE
 70
     3
  9
$SHADEDIF
 70
    70
  9
$TILEMODE
 70
     1
  9
$MAXACTVP
 70
    64
  9
$PLIMCHECK
 70
     0
  9
$PEXTMIN
 10
1.0000000000000000E+20
 20
1.0000000000000000E+20
 30
1.0000000000000000E+20
  9
$PEXTMAX
 10
-1.0000000000000000E+20
 20
-1.0000000000000000E+20
 30
-1.0000000000000000E+20
  9
$PLIMMIN
 10
0.0
 20
0.0
  9
$PLIMMAX
 10
12.0
 20
9.0
  9
$UNITMODE
 70
     0
  9
$VISRETAIN
 70
     1
  9
$PLINEGEN
 70
     0
  9
$PSLTSCALE
 70
     1
  0
ENDSEC
  0
SECTION
  2
TABLES
  0
TABLE
  2
VPORT
 70
     1
  0
VPORT
  2
*ACTIVE
 70
     0
 10
0.0
 20
0.0
 11
1.0
 21
1.0
 12
-35.5689519260322413
 22
-3.2571131318595401
 13
0.0
 23
0.0
 14
1.0
 24
1.0
 15
0.0
 25
0.0
 16
0.0
 26
0.0
 36
122.0237731519760018
 17
4265.00634765625
 27
104.3040122985839986
 37
0.0
 40
8.6116312629012182
 41
2.8440779610194902
 42
50.0
 43
0.0
 44
0.0
 50
0.0
 51
0.0
 71
     0
 72
   100
 73
     1
 74
     1
 75
     0
 76
     0
 77
     0
 78
     0
  0
ENDTAB
  0
TABLE
  2
LTYPE
 70
     3
  0
LTYPE
  2
CONTINUOUS
 70
     0
  3
Solid line
 72
    65
 73
     0
 40
0.0
  0
LTYPE
  2
PHANTOM2
 70
     0
  3
___ _ _ ___ _ _ ___ _ _ ___ _ _
 72
    65
 73
     6
 40
1.25
 49
0.625
 49
-0.125
 49
0.125
 49
-0.125
 49
0.125
 49
-0.125
  0
ENDTAB
  0
TABLE
  2
LAYER
 70
     2
  0
LAYER
  2
0
 70
     0
 62
   255
  6
CONTINUOUS
  0
LAYER
  2
DEFPOINTS
 70
     0
 62
     7
  6
CONTINUOUS
  0
ENDTAB
  0
TABLE
  2
STYLE
 70
     1
  0
STYLE
  2
STANDARD
 70
     0
 40
0.0
 41
0.8
 50
0.0
 71
     0
 42
0.2
  3
txt
  4

  0
ENDTAB
  0
TABLE
  2
VIEW
 70
     0
  0
ENDTAB
  0
TABLE
  2
UCS
 70
     0
  0
ENDTAB
  0
TABLE
  2
APPID
 70
    10
  0
APPID
  2
ACAD
 70
     0
  0
APPID
  2
ACAD_MLEADERVER
 70
     0
  0
APPID
  2
ACAD_EXEMPT_FROM_CAD_STANDARDS
 70
     0
  0
APPID
  2
ACAD_NAV_VCDISPLAY
 70
     0
  0
APPID
  2
ACAECLAYERSTANDARD
 70
     0
  0
APPID
  2
ACCMTRANSPARENCY
 70
     0
  0
APPID
  2
ACAD_DSTYLE_DIMJAG
 70
     0
  0
APPID
  2
ACAD_DSTYLE_DIMTALN
 70
     0
  0
APPID
  2
ACDBATTR
 70
     0
  0
APPID
  2
DCO15
 70
     0
  0
ENDTAB
  0
TABLE
  2
DIMSTYLE
 70
     2
  0
DIMSTYLE
  2
STANDARD
 70
     0
  3

  4

  5

  6

  7

 40
1.0
 41
0.1875
 42
0.0625
 43
0.38
 44
0.125
 45
0.0
 46
0.0
 47
0.01
 48
0.01
140
0.15625
141
0.09
142
0.0
143
25.3999999999999986
144
1.0
145
0.0
146
1.0
147
0.09
 71
     1
 72
     0
 73
     1
 74
     1
 75
     0
 76
     0
 77
     0
 78
     4
170
     0
171
     2
172
     0
173
     0
174
     0
175
     0
176
     0
177
     0
178
     0
  0
ENDTAB
  0
ENDSEC
  0
SECTION
  2
BLOCKS
  0
BLOCK
  8
0
  2
$MODEL_SPACE
 70
     0
 10
0.0
 20
0.0
 30
0.0
  3
$MODEL_SPACE
  1

  0
ENDBLK
  5
21
  8
0
  0
BLOCK
 67
     1
  8
0
  2
$PAPER_SPACE
 70
     0
 10
0.0
 20
0.0
 30
0.0
  3
$PAPER_SPACE
  1

  0
ENDBLK
  5
1D
 67
     1
  8
0
  0
BLOCK
  8
0
  2
*U0
 70
     1
 10
0.0
 20
0.0
 30
0.0
  3
*U0
  1

  0
CIRCLE
  5
A183
  8
0
 10
0.0
 20
0.0
 30
0.0
 40
0.1534054405560772
  0
CIRCLE
  5
A184
  8
0
 10
0.0
 20
0.0
 30
0.0
 40
0.056177308622948
  0
ENDBLK
  5
A185
  8
0
  0
BLOCK
  8
0
  2
_FILLED
 70
     0
 10
0.0
 20
0.0
 30
0.0
  3
_FILLED
  1

  0
SOLID
  5
A2B4
  8
0
  6
BYBLOCK
 62
     0
 10
0.0
 20
0.0
 30
0.0
 11
-1.0
 21
0.1666666667
 31
0.0
 12
-1.0
 22
-0.1666666667
 32
0.0
 13
-1.0
 23
-0.1666666667
 33
0.0
  0
ENDBLK
  5
A2B5
  8
0
  6
BYBLOCK
 62
     0
  0
BLOCK
  8
0
  2
*U3
 70
     1
 10
0.0
 20
0.0
 30
0.0
  3
*U3
  1

  0
CIRCLE
  5
A2B8
  8
0
 10
0.0
 20
0.0
 30
0.0
 40
0.1534054405560772
  0
CIRCLE
  5
A2B9
  8
0
 10
0.0
 20
0.0
 30
0.0
 40
0.056177308622948
  0
ENDBLK
  5
A2BA
  8
0
  0
BLOCK
  8
0
  2
*U5
 70
     1
 10
0.0
 20
0.0
 30
0.0
  3
*U5
  1

  0
CIRCLE
  5
A2F5
  8
0
 10
0.0
 20
0.0
 30
0.0
 40
0.1534054405560772
  0
CIRCLE
  5
A2F6
  8
0
 10
0.0
 20
0.0
 30
0.0
 40
0.056177308622948
  0
ENDBLK
  5
A2F7
  8
0
  0
BLOCK
  8
0
  2
*U6
 70
     1
 10
0.0
 20
0.0
 30
0.0
  3
*U6
  1

  0
INSERT
  5
A2FD
  8
0
  6
BYBLOCK
 62
     0
  2
*U5
 10
12.8463139668000004
 20
16.9490994663000016
 30
0.0
  0
INSERT
  5
A2FE
  8
0
  6
BYBLOCK
 62
     0
  2
*U5
 10
13.9400509148349503
 20
19.5896143016854616
 30
0.0
 50
44.9999999999999218
  0
INSERT
  5
A2FF
  8
0
  6
BYBLOCK
 62
     0
  2
*U5
 10
12.8463137816999993
 20
22.2301290603999995
 30
0.0
 41
1.0
 42
1.0
 43
1.0
 50
89.9999999999999147
  0
INSERT
  5
A300
  8
0
  6
BYBLOCK
 62
     0
  2
*U5
 10
10.2057989463145393
 20
23.3238660084349512
 30
0.0
 50
134.9999999999998863
  0
INSERT
  5
A301
  8
0
  6
BYBLOCK
 62
     0
  2
*U5
 10
7.5652841876000076
 20
22.2301288753000001
 30
0.0
 50
180.0
  0
INSERT
  5
A302
  8
0
  6
BYBLOCK
 62
     0
  2
*U5
 10
6.4715472395650533
 20
19.5896140399145402
 30
0.0
 50
224.9999999999998863
  0
INSERT
  5
A303
  8
0
  6
BYBLOCK
 62
     0
  2
*U5
 10
7.5652843727000016
 20
16.9490992811999988
 30
0.0
 50
269.9999999999998863
  0
INSERT
  5
A304
  8
0
  6
BYBLOCK
 62
     0
  2
*U5
 10
10.2057992080854607
 20
15.8553623331650506
 30
0.0
 41
0.9999999999999998
 42
0.9999999999999998
 43
0.9999999999999998
 50
314.9999999999998863
  0
ENDBLK
  5
A305
  8
0
  0
ENDSEC
  0
SECTION
  2
ENTITIES
  0
ATTDEF
  5
9852
  8
DEFPOINTS
 10
4229.3895604735298548
 20
101.0474917018660932
 30
0.0
 40
0.001
  1
P21512-G
  3

  2
MODELNUMBER
 70
     0
1001
ACDBATTR
1070
     0
1070
     1
  0
ATTDEF
  5
9853
  8
DEFPOINTS
 10
4229.3895604735298548
 20
101.0458250351994991
 30
0.0
 40
0.001
  1

  3

  2
TRADENAME
 70
     0
1001
ACDBATTR
1070
     0
1070
     1
  0
ATTDEF
  5
9854
  8
DEFPOINTS
 10
4229.3895604735298548
 20
101.0441583685328055
 30
0.0
 40
0.001
  1
SHOWERHEAD
  3

  2
PRODUCT
 70
     0
1001
ACDBATTR
1070
     0
1070
     1
  0
CIRCLE
  5
A2E7
  8
0
 10
4229.3955777154142197
 20
101.0498004357359036
 30
0.0
 40
4.264000000000002
  0
CIRCLE
  5
A2E8
  8
0
 10
4229.3955777154142197
 20
101.0498004357359036
 30
0.0
 40
1.200809424477691
  0
CIRCLE
  5
A2E9
  8
0
 10
4229.3955777154142197
 20
101.0498004357359036
 30
0.0
 40
0.418041152487919
  0
CIRCLE
  5
A2EA
  8
0
 10
4229.3955777154142197
 20
101.0498004357359036
 30
0.0
 40
0.4040411524879176
  0
CIRCLE
  5
A2EB
  8
0
 10
4229.3955777154142197
 20
101.0498004357359036
 30
0.0
 40
0.3778372628877977
  0
CIRCLE
  5
A2EC
  8
0
 10
4229.3955777154142197
 20
101.0498004357359036
 30
0.0
 40
0.3210501359000066
  0
CIRCLE
  5
A2ED
  8
0
 10
4229.3955777154142197
 20
101.0498004357359036
 30
0.0
 40
0.2870496680490515
  0
CIRCLE
  5
A2EE
  8
0
 10
4229.3955777154142197
 20
101.0498004357359036
 30
0.0
 40
0.2780539130902369
  0
CIRCLE
  5
A2EF
  8
0
 10
4229.3955777154142197
 20
101.0498004357359036
 30
0.0
 40
0.0810322806230367
  0
CIRCLE
  5
A2F2
  8
0
 10
4229.3955777154142197
 20
101.0498004357359036
 30
0.0
 40
4.1950000000000056
  0
CIRCLE
  5
A42F
  8
0
 10
4232.0360926050143462
 20
98.4092857312358831
 30
0.0
 40
0.1534054405560772
  0
CIRCLE
  5
A430
  8
0
 10
4232.0360926050143462
 20
98.4092857312358831
 30
0.0
 40
0.056177308622948
  0
CIRCLE
  5
A431
  8
0
 10
4233.1298295530486939
 20
101.0498005666213004
 30
0.0
 40
0.1534054405560772
  0
CIRCLE
  5
A432
  8
0
 10
4233.1298295530486939
 20
101.0498005666213004
 30
0.0
 40
0.056177308622948
  0
CIRCLE
  5
A433
  8
0
 10
4232.0360924199139845
 20
103.6903153253359022
 30
0.0
 40
0.1534054405560772
  0
CIRCLE
  5
A434
  8
0
 10
4232.0360924199139845
 20
103.6903153253359022
 30
0.0
 40
0.0561773086229481
  0
CIRCLE
  5
A435
  8
0
 10
4229.3955775845279277
 20
104.7840522733708042
 30
0.0
 40
0.1534054405560772
  0
CIRCLE
  5
A436
  8
0
 10
4229.3955775845279277
 20
104.7840522733708042
 30
0.0
 40
0.056177308622948
  0
CIRCLE
  5
A437
  8
0
 10
4226.7550628258140932
 20
103.6903151402358958
 30
0.0
 40
0.1534054405560772
  0
CIRCLE
  5
A438
  8
0
 10
4226.7550628258140932
 20
103.6903151402358958
 30
0.0
 40
0.056177308622948
  0
CIRCLE
  5
A439
  8
0
 10
4225.661325877778836
 20
101.0498003048503932
 30
0.0
 40
0.1534054405560772
  0
CIRCLE
  5
A43A
  8
0
 10
4225.661325877778836
 20
101.0498003048503932
 30
0.0
 40
0.056177308622948
  0
CIRCLE
  5
A43B
  8
0
 10
4226.7550630109153644
 20
98.4092855461359051
 30
0.0
 40
0.1534054405560772
  0
CIRCLE
  5
A43C
  8
0
 10
4226.7550630109153644
 20
98.4092855461359051
 30
0.0
 40
0.056177308622948
  0
CIRCLE
  5
A43D
  8
0
 10
4229.3955778462986927
 20
97.3155485981009463
 30
0.0
 40
0.1534054405560772
  0
CIRCLE
  5
A43E
  8
0
 10
4229.3955778462986927
 20
97.3155485981009463
 30
0.0
 40
0.056177308622948
  0
ENDSEC
  0
EOF
