  0
SECTION
  2
HEADER
  9
$ACADVER
  1
AC1009
  9
$INSBASE
 10
4224.7485544977453173
 20
99.5414781146701273
 30
0.0
  9
$EXTMIN
 10
4220.2216462387459615
 20
92.3158156610393092
 30
-0.0015258207003583
  9
$EXTMAX
 10
4229.2560311911529425
 20
99.5539782246326581
 30
0.0000000349246037
  9
$LIMMIN
 10
0.0
 20
0.0
  9
$LIMMAX
 10
11.6929133858000007
 20
8.2677165353999982
  9
$ORTHOMODE
 70
     0
  9
$REGENMODE
 70
     1
  9
$FILLMODE
 70
     1
  9
$QTEXTMODE
 70
     0
  9
$MIRRTEXT
 70
     0
  9
$DRAGMODE
 70
     2
  9
$LTSCALE
 40
0.6431102362
  9
$OSMODE
 70
  4095
  9
$ATTMODE
 70
     1
  9
$TEXTSIZE
 40
0.2
  9
$TRACEWID
 40
0.05
  9
$TEXTSTYLE
  7
STANDARD
  9
$CLAYER
  8
0
  9
$CELTYPE
  6
BYLAYER
  9
$CECOLOR
 62
   256
  9
$DIMSCALE
 40
1.0
  9
$DIMASZ
 40
0.1875
  9
$DIMEXO
 40
0.0625
  9
$DIMDLI
 40
0.4443307087
  9
$DIMRND
 40
0.0
  9
$DIMDLE
 40
0.0
  9
$DIMEXE
 40
0.125
  9
$DIMTP
 40
0.01
  9
$DIMTM
 40
0.01
  9
$DIMTXT
 40
2.0
  9
$DIMCEN
 40
0.1052362205
  9
$DIMTSZ
 40
0.0
  9
$DIMTOL
 70
     1
  9
$DIMLIM
 70
     0
  9
$DIMTIH
 70
     1
  9
$DIMTOH
 70
     1
  9
$DIMSE1
 70
     0
  9
$DIMSE2
 70
     0
  9
$DIMTAD
 70
     0
  9
$DIMZIN
 70
     0
  9
$DIMBLK
  1

  9
$DIMASO
 70
     1
  9
$DIMSHO
 70
     1
  9
$DIMPOST
  1
\X
  9
$DIMAPOST
  1

  9
$DIMALT
 70
     1
  9
$DIMALTD
 70
     2
  9
$DIMALTF
 40
25.3999999999999986
  9
$DIMLFAC
 40
1.0
  9
$DIMTOFL
 70
     0
  9
$DIMTVP
 40
0.0
  9
$DIMTIX
 70
     0
  9
$DIMSOXD
 70
     0
  9
$DIMSAH
 70
     0
  9
$DIMBLK1
  1

  9
$DIMBLK2
  1

  9
$DIMSTYLE
  2
STANDARD
  9
$DIMCLRD
 70
     0
  9
$DIMCLRE
 70
     0
  9
$DIMCLRT
 70
     0
  9
$DIMTFAC
 40
1.0
  9
$DIMGAP
 40
0.09
  9
$LUNITS
 70
     2
  9
$LUPREC
 70
     4
  9
$SKETCHINC
 40
0.1
  9
$FILLETRAD
 40
0.0
  9
$AUNITS
 70
     0
  9
$AUPREC
 70
     0
  9
$MENU
  1
.
  9
$ELEVATION
 40
0.0
  9
$PELEVATION
 40
0.0
  9
$THICKNESS
 40
0.0
  9
$LIMCHECK
 70
     0
  9
$BLIPMODE
 70
     0
  9
$CHAMFERA
 40
0.0
  9
$CHAMFERB
 40
0.0
  9
$SKPOLY
 70
     0
  9
$TDCREATE
 40
2458060.468368056230247
  9
$TDUPDATE
 40
2459424.685694444924593
  9
$TDINDWG
 40
0.3271482639
  9
$TDUSRTIMER
 40
0.3271482639
  9
$USRTIMER
 70
     1
  9
$ANGBASE
 50
0.0
  9
$ANGDIR
 70
     0
  9
$PDMODE
 70
     0
  9
$PDSIZE
 40
0.3125
  9
$PLINEWID
 40
0.0
  9
$COORDS
 70
     1
  9
$SPLFRAME
 70
     0
  9
$SPLINETYPE
 70
     6
  9
$SPLINESEGS
 70
     8
  9
$ATTDIA
 70
     1
  9
$ATTREQ
 70
     1
  9
$HANDLING
 70
     1
  9
$HANDSEED
  5
A2FD
  9
$SURFTAB1
 70
     6
  9
$SURFTAB2
 70
     6
  9
$SURFTYPE
 70
     6
  9
$SURFU
 70
     6
  9
$SURFV
 70
     6
  9
$UCSNAME
  2

  9
$UCSORG
 10
0.0
 20
0.0
 30
0.0
  9
$UCSXDIR
 10
1.0
 20
0.0
 30
0.0
  9
$UCSYDIR
 10
0.0
 20
1.0
 30
0.0
  9
$PUCSNAME
  2

  9
$PUCSORG
 10
0.0
 20
0.0
 30
0.0
  9
$PUCSXDIR
 10
1.0
 20
0.0
 30
0.0
  9
$PUCSYDIR
 10
0.0
 20
1.0
 30
0.0
  9
$USERI1
 70
     0
  9
$USERI2
 70
     0
  9
$USERI3
 70
     0
  9
$USERI4
 70
     0
  9
$USERI5
 70
     0
  9
$USERR1
 40
0.0
  9
$USERR2
 40
0.0
  9
$USERR3
 40
0.0
  9
$USERR4
 40
0.0
  9
$USERR5
 40
0.0
  9
$WORLDVIEW
 70
     1
  9
$SHADEDGE
 70
     3
  9
$SHADEDIF
 70
    70
  9
$TILEMODE
 70
     1
  9
$MAXACTVP
 70
    64
  9
$PLIMCHECK
 70
     0
  9
$PEXTMIN
 10
1.0000000000000000E+20
 20
1.0000000000000000E+20
 30
1.0000000000000000E+20
  9
$PEXTMAX
 10
-1.0000000000000000E+20
 20
-1.0000000000000000E+20
 30
-1.0000000000000000E+20
  9
$PLIMMIN
 10
0.0
 20
0.0
  9
$PLIMMAX
 10
12.0
 20
9.0
  9
$UNITMODE
 70
     0
  9
$VISRETAIN
 70
     1
  9
$PLINEGEN
 70
     0
  9
$PSLTSCALE
 70
     1
  0
ENDSEC
  0
SECTION
  2
TABLES
  0
TABLE
  2
VPORT
 70
     1
  0
VPORT
  2
*ACTIVE
 70
     0
 10
0.0
 20
0.0
 11
1.0
 21
1.0
 12
-40.267508941300548
 22
-8.3691153557479936
 13
0.0
 23
0.0
 14
1.0
 24
1.0
 15
0.0
 25
0.0
 16
0.0
 26
0.0
 36
122.0237731519760018
 17
4265.00634765625
 27
104.3040122985839986
 37
0.0
 40
7.3031759997932753
 41
2.8440779610194902
 42
50.0
 43
0.0
 44
0.0
 50
0.0
 51
0.0
 71
     0
 72
   100
 73
     1
 74
     1
 75
     0
 76
     0
 77
     0
 78
     0
  0
ENDTAB
  0
TABLE
  2
LTYPE
 70
     2
  0
LTYPE
  2
CONTINUOUS
 70
     0
  3
Solid line
 72
    65
 73
     0
 40
0.0
  0
LTYPE
  2
PHANTOM2
 70
     0
  3
___ _ _ ___ _ _ ___ _ _ ___ _ _
 72
    65
 73
     6
 40
1.25
 49
0.625
 49
-0.125
 49
0.125
 49
-0.125
 49
0.125
 49
-0.125
  0
ENDTAB
  0
TABLE
  2
LAYER
 70
     2
  0
LAYER
  2
0
 70
     0
 62
   255
  6
CONTINUOUS
  0
LAYER
  2
DEFPOINTS
 70
     0
 62
     7
  6
CONTINUOUS
  0
ENDTAB
  0
TABLE
  2
STYLE
 70
     1
  0
STYLE
  2
STANDARD
 70
     0
 40
0.0
 41
0.8
 50
0.0
 71
     0
 42
0.2
  3
txt
  4

  0
ENDTAB
  0
TABLE
  2
VIEW
 70
     0
  0
ENDTAB
  0
TABLE
  2
UCS
 70
     0
  0
ENDTAB
  0
TABLE
  2
APPID
 70
    10
  0
APPID
  2
ACAD
 70
     0
  0
APPID
  2
ACAD_MLEADERVER
 70
     0
  0
APPID
  2
ACAD_EXEMPT_FROM_CAD_STANDARDS
 70
     0
  0
APPID
  2
ACAD_NAV_VCDISPLAY
 70
     0
  0
APPID
  2
ACAECLAYERSTANDARD
 70
     0
  0
APPID
  2
ACCMTRANSPARENCY
 70
     0
  0
APPID
  2
ACAD_DSTYLE_DIMJAG
 70
     0
  0
APPID
  2
ACAD_DSTYLE_DIMTALN
 70
     0
  0
APPID
  2
ACDBATTR
 70
     0
  0
APPID
  2
DCO15
 70
     0
  0
ENDTAB
  0
TABLE
  2
DIMSTYLE
 70
     1
  0
DIMSTYLE
  2
STANDARD
 70
     0
  3

  4

  5

  6

  7

 40
1.0
 41
0.1875
 42
0.0625
 43
0.38
 44
0.125
 45
0.0
 46
0.0
 47
0.01
 48
0.01
140
0.15625
141
0.09
142
0.0
143
25.3999999999999986
144
1.0
145
0.0
146
1.0
147
0.09
 71
     1
 72
     0
 73
     1
 74
     1
 75
     0
 76
     0
 77
     0
 78
     4
170
     0
171
     2
172
     0
173
     0
174
     0
175
     0
176
     0
177
     0
178
     0
  0
ENDTAB
  0
ENDSEC
  0
SECTION
  2
BLOCKS
  0
BLOCK
  8
0
  2
$MODEL_SPACE
 70
     0
 10
0.0
 20
0.0
 30
0.0
  3
$MODEL_SPACE
  1

  0
ENDBLK
  5
21
  8
0
  0
BLOCK
 67
     1
  8
0
  2
$PAPER_SPACE
 70
     0
 10
0.0
 20
0.0
 30
0.0
  3
$PAPER_SPACE
  1

  0
ENDBLK
  5
1D
 67
     1
  8
0
  0
ENDSEC
  0
SECTION
  2
ENTITIES
  0
ATTDEF
  5
9852
  8
DEFPOINTS
 10
4224.745833561370091
 20
99.5473301759950573
 30
0.0
 40
0.001
  1
P21510-G
  3

  2
MODELNUMBER
 70
     0
1001
ACDBATTR
1070
     0
1070
     1
  0
ATTDEF
  5
9853
  8
DEFPOINTS
 10
4224.745833561370091
 20
99.5456635093283921
 30
0.0
 40
0.001
  1

  3

  2
TRADENAME
 70
     0
1001
ACDBATTR
1070
     0
1070
     1
  0
ATTDEF
  5
9854
  8
DEFPOINTS
 10
4224.745833561370091
 20
99.543996842661727
 30
0.0
 40
0.001
  1
SHOWERHEAD
  3

  2
PRODUCT
 70
     0
1001
ACDBATTR
1070
     0
1070
     1
  0
LINE
  5
A0F5
  8
0
 10
4224.2735544977449536
 20
96.0220265749701269
 30
0.0
 11
4225.2274915057460021
 21
96.0220265749701269
 31
0.0
  0
LINE
  5
A0F6
  8
0
 10
4224.2535544977454265
 20
95.2714063127526742
 30
0.0
 11
4224.2535544977454265
 21
96.0020265749701451
 31
0.0
  0
ARC
  5
A0F7
  8
0
 10
4224.7553568824769172
 20
94.5266954680084837
 30
0.0
 40
0.5366201861549768
 50
129.1280755832333966
 51
148.4621543814691051
  0
ARC
  5
A0F8
  8
0
 10
4224.3685544977461177
 20
94.9937667615715071
 30
0.0
 40
0.0699999999999993
 50
313.4776330711789001
 51
67.4596895364923341
  0
ARC
  5
A0F9
  8
0
 10
4224.4835551747810314
 20
95.270850959580045
 30
0.0
 40
0.2300013475047984
 50
179.8616554894394142
 51
247.4596462494891114
  0
ARC
  5
A0FA
  8
0
 10
4224.2735544977449536
 20
96.0020265749701451
 30
0.0
 40
0.02
 50
90.0
 51
179.9999999999974989
  0
LINE
  5
A0FB
  8
0
 10
4225.2474915057446196
 20
95.2714063127509263
 30
0.0
 11
4225.2474915057446196
 21
96.0020265749701451
 31
0.0
  0
ARC
  5
A0FC
  8
0
 10
4224.7456891210140384
 20
94.5266954680084837
 30
0.0
 40
0.5366201861549768
 50
31.5378456185308593
 51
50.8719244167666389
  0
ARC
  5
A0FD
  8
0
 10
4225.1324915057448379
 20
94.9937667615715071
 30
0.0
 40
0.0699999999999993
 50
112.5403104635075948
 51
226.5223669288210999
  0
ARC
  5
A0FE
  8
0
 10
4225.0174908287099242
 20
95.270850959580045
 30
0.0
 40
0.2300013475047984
 50
292.5403537505109171
 51
0.1383445101274206
  0
ARC
  5
A0FF
  8
0
 10
4225.2274915057460021
 20
96.0020265749701451
 30
0.0
 40
0.02
 50
0.0000000000024427
 51
90.0
  0
ARC
  5
A100
  8
0
 10
4224.7841449922652828
 20
95.7337695141001745
 30
0.0
 40
0.5915345507436613
 50
261.5615957930218087
 51
266.5506541619042764
  0
ARC
  5
A101
  8
0
 10
4224.7383765479653448
 20
95.3910547359023155
 30
0.0
 40
0.2458648313532
 50
239.6356057117581884
 51
260.3918777288358228
  0
ARC
  5
A102
  8
0
 10
4224.6788905672037799
 20
95.2895188213950064
 30
0.0
 40
0.1281867796956522
 50
213.986988804962408
 51
239.6356057117581884
  0
ARC
  5
A103
  8
0
 10
4224.6548777351390527
 20
95.2733298943892351
 30
0.0
 40
0.0992265058466471
 50
178.5799123493717957
 51
213.986988804962408
  0
ARC
  5
A104
  8
0
 10
4224.7485710616629149
 20
95.4039383655495783
 30
0.0
 40
0.4851540995525751
 50
90.0006440265159853
 51
113.4272098023395046
  0
LINE
  5
A105
  8
0
 10
4224.555681705470306
 20
95.8490992315070685
 30
0.0
 11
4224.555681705470306
 21
95.275788991903724
 31
0.0
  0
ARC
  5
A106
  8
0
 10
4224.7129643520393074
 20
95.7337695559937032
 30
0.0
 40
0.5915345929595198
 50
273.4493462338081144
 51
278.4384041180535974
  0
ARC
  5
A107
  8
0
 10
4224.7587328016261381
 20
95.3910547359023155
 30
0.0
 40
0.2458648313532
 50
279.6081222711641772
 51
300.364394288241499
  0
ARC
  5
A108
  8
0
 10
4224.8182187823867935
 20
95.2895188213950064
 30
0.0
 40
0.1281867796956522
 50
300.364394288241499
 51
326.0130111950376204
  0
ARC
  5
A109
  8
0
 10
4224.8422316144524302
 20
95.2733298943892351
 30
0.0
 40
0.0992265058466471
 50
326.0130111950369951
 51
1.4200876506282061
  0
ARC
  5
A10A
  8
0
 10
4224.748538287926749
 20
95.4039383655495783
 30
0.0
 40
0.4851540995525751
 50
66.5727901976605381
 51
89.9993559734840147
  0
LINE
  5
A10B
  8
0
 10
4224.9414276441211769
 20
95.8490992315070685
 30
0.0
 11
4224.9414276441211769
 21
95.275788991903724
 31
0.0
  0
LINE
  5
A10C
  8
0
 10
4224.9414276441211769
 20
95.8490992315070685
 30
0.0
 11
4224.555681705470306
 21
95.8490992315070685
 31
0.0
  0
LINE
  5
A10D
  8
0
 10
4220.7375544977230675
 20
92.3182942911701332
 30
0.0
 11
4228.7595544977666577
 21
92.3182942911701332
 31
0.0
  0
LINE
  5
A10E
  8
0
 10
4220.6785544977446989
 20
92.8852942911473747
 30
0.0
 11
4220.6785544977446989
 21
93.084294291173066
 31
0.0
  0
LINE
  5
A10F
  8
0
 10
4220.6285544977454265
 20
93.1965440127701044
 30
0.0
 11
4220.6285544977454265
 21
93.3312738808701141
 31
0.0
  0
LINE
  5
A110
  8
0
 10
4220.6785544977446989
 20
93.3812738808701255
 30
0.0
 11
4228.8185544977450263
 21
93.3812738808701255
 31
0.0
  0
LINE
  5
A111
  8
0
 10
4220.6985544977460449
 20
93.3812738808701255
 30
0.0
 11
4220.6985544977460449
 21
93.3902271412270863
 31
0.0
  0
ARC
  5
A112
  8
0
 10
4220.5575544977591562
 20
93.084294291173066
 30
0.0
 40
0.1209999999861777
 50
0.0
 51
48.0197674570804196
  0
ARC
  5
A113
  8
0
 10
4220.8366552337201938
 20
92.5982729405493217
 30
0.0
 40
0.2969999999721107
 50
128.3522043699231858
 51
250.5081657198458061
  0
ARC
  5
A114
  8
0
 10
4220.6095544977461032
 20
92.8852942911473747
 30
0.0
 40
0.069
 50
308.3522043751154911
 51
359.9999999999943157
  0
ARC
  5
A115
  8
0
 10
4220.6585544977460813
 20
93.1965440127701044
 30
0.0
 40
0.03
 50
179.9999999999828901
 51
228.0197677702080057
  0
ARC
  5
A116
  8
0
 10
4220.6785544977446989
 20
93.3312738808701141
 30
0.0
 40
0.05
 50
90.0
 51
180.0000000000015916
  0
ARC
  5
A117
  8
0
 10
4223.3114043854611737
 20
94.6987981090542235
 30
0.0
 40
0.4915866715334554
 50
319.3534990593965972
 51
331.6288380254684967
  0
ARC
  5
A118
  8
0
 10
4223.1322000683612714
 20
94.8526472472525626
 30
0.0
 40
0.7277724979318843
 50
302.9999740157056181
 51
319.3534990593965972
  0
ARC
  5
A119
  8
0
 10
4221.7883657230031531
 20
96.9219727273917755
 30
0.0
 40
3.1951595147007179
 50
299.1332948689665727
 51
302.9999740157056181
  0
ARC
  5
A11A
  8
0
 10
4222.2098530655703144
 20
96.1657438946679832
 30
0.0
 40
2.3294034131411072
 50
290.4792451024399043
 51
299.1332948689665727
  0
ARC
  5
A11B
  8
0
 10
4221.9095292069241623
 20
96.9698844301670704
 30
0.0
 40
3.1877951773750128
 50
282.9228533718275003
 51
290.4792451024399043
  0
ARC
  5
A11C
  8
0
 10
4265.2025847924041955
 20
-91.7116574806399854
 30
0.0
 40
190.3968450185016934
 50
102.9228533718275003
 51
103.0661511802019987
  0
ARC
  5
A11D
  8
0
 10
4218.4043636738360874
 20
112.9630494300210017
 30
0.0
 40
19.5707261960581889
 50
277.1316110139966895
 51
281.0591126138617142
  0
ARC
  5
A11E
  8
0
 10
4220.853254497746093
 20
93.3902271412270863
 30
0.0
 40
0.1547
 50
97.1316110139967321
 51
180.0
  0
LINE
  5
A11F
  8
0
 10
4223.7535544977454265
 20
94.5032197760109369
 30
0.0
 11
4223.7535544977454265
 21
94.5873809056701305
 31
0.0
  0
LINE
  5
A120
  8
0
 10
4223.8435544977446625
 20
94.6773809056701339
 30
0.0
 11
4225.6535544977450627
 21
94.6773809056701339
 31
0.0
  0
LINE
  5
A121
  8
0
 10
4223.8485544977447717
 20
94.8073809056701293
 30
0.0
 11
4225.648554497745863
 21
94.8073809056701293
 31
0.0
  0
LINE
  5
A122
  8
0
 10
4223.8485544977447717
 20
94.6773809056701339
 30
0.0
 11
4223.8485544977447717
 21
94.8073809056701293
 31
0.0
  0
ARC
  5
A123
  8
0
 10
4223.6735544977464087
 20
94.5032197760108943
 30
0.0
 40
0.08
 50
331.6288380254334243
 51
0.0000000000154702
  0
ARC
  5
A124
  8
0
 10
4223.8435544977446625
 20
94.5873809056701305
 30
0.0
 40
0.09
 50
90.0
 51
179.9999999999974989
  0
LINE
  5
A125
  8
0
 10
4224.4735544977456811
 20
94.6773809056701339
 30
0.0
 11
4224.4735544977456811
 21
94.8073809056701293
 31
0.0
  0
LINE
  5
A126
  8
0
 10
4224.1439081173457453
 20
94.6773809056701339
 30
0.0
 11
4224.1439081173457453
 21
94.8073809056701293
 31
0.0
  0
LINE
  5
A127
  8
0
 10
4224.2963223388333063
 20
98.6889947343701266
 30
0.0
 11
4225.2007866566582379
 21
98.6889947343701266
 31
0.0
  0
LINE
  5
A128
  8
0
 10
4223.8394326069446834
 20
99.2107454784538447
 30
0.0
 11
4223.8394326069446834
 21
99.2722261008411522
 31
0.0
  0
LINE
  5
A129
  8
0
 10
4223.7505544977457248
 20
99.4255098884701169
 30
0.0
 11
4223.7505544977457248
 21
99.5264781146701267
 31
0.0
  0
LINE
  5
A12A
  8
0
 10
4223.7655544977460522
 20
99.5414781146701273
 30
0.0
 11
4225.7315544977464015
 21
99.5414781146701273
 31
0.0
  0
ARC
  5
A12B
  8
0
 10
4223.8494554490453083
 20
99.4255098884701169
 30
0.0
 40
0.0989009512999886
 50
179.9999999999959073
 51
219.0600951883969003
  0
ARC
  5
A12C
  8
0
 10
4223.8163456505089925
 20
99.398640553296616
 30
0.0
 40
0.056260361109321
 50
219.0600951883969003
 51
248.4039090455985956
  0
ARC
  5
A12D
  8
0
 10
4223.7692704526989473
 20
99.2797184716913961
 30
0.0
 40
0.0716401304542427
 50
46.2682824209386823
 51
68.4039090455986809
  0
ARC
  5
A12E
  8
0
 10
4223.7835809617308769
 20
99.2946769767998205
 30
0.0
 40
0.050938740553312
 50
11.2066827210741202
 51
46.2682824209386823
  0
ARC
  5
A12F
  8
0
 10
4223.7304836629318743
 20
99.2691202198550116
 30
0.0
 40
0.1089932057444859
 50
1.63292715057531
 51
18.9843897934109798
  0
ARC
  5
A130
  8
0
 10
4224.3998774826814042
 20
99.5483639362467585
 30
0.0
 40
0.8655859824139266
 50
257.1970574380212042
 51
263.1289111383701993
  0
ARC
  5
A131
  8
0
 10
4224.2394401638803174
 20
98.8423642712758266
 30
0.0
 40
0.1415862170801519
 50
235.8521306522324039
 51
257.1970574380212042
  0
ARC
  5
A132
  8
0
 10
4224.2346304225147833
 20
98.8352730818957639
 30
0.0
 40
0.1330177528755378
 50
216.431551595677206
 51
235.8521306522324039
  0
ARC
  5
A133
  8
0
 10
4224.1951158745850989
 20
98.8061068434156766
 30
0.0
 40
0.0839049341296818
 50
193.2461801243539981
 51
216.4315515956778881
  0
ARC
  5
A134
  8
0
 10
4224.1849530715899164
 20
98.8037145360681137
 30
0.0
 40
0.0734643546844763
 50
163.9923609353222957
 51
193.2461801243532022
  0
ARC
  5
A135
  8
0
 10
4224.1548446968299686
 20
98.812352318087278
 30
0.0
 40
0.0421414316261912
 50
130.3388584980802136
 51
163.9923609353230916
  0
ARC
  5
A136
  8
0
 10
4224.1075923019543552
 20
98.8732146904798839
 30
0.0
 40
0.0349999999893595
 50
304.797969426843224
 51
83.4998627259435011
  0
ARC
  5
A137
  8
0
 10
4224.1693070084120336
 20
99.5161992179089339
 30
0.0
 40
0.6109453127075067
 50
251.2022192750841896
 51
264.5757450485684217
  0
ARC
  5
A138
  8
0
 10
4224.0701050910302001
 20
99.2202288998185082
 30
0.0
 40
0.298799363281745
 50
224.5235252531350056
 51
250.922341116138
  0
ARC
  5
A139
  8
0
 10
4223.9966245091382007
 20
99.1461296712859195
 30
0.0
 40
0.1944563053893627
 50
196.0507968102442078
 51
224.1389376279400949
  0
ARC
  5
A13A
  8
0
 10
4223.8992914262717022
 20
99.1204752305336285
 30
0.0
 40
0.0938515286118926
 50
152.3943076684267908
 51
197.4289489853294981
  0
ARC
  5
A13B
  8
0
 10
4223.2094328532475629
 20
99.5540458772958914
 30
0.0
 40
0.7212751397137827
 50
327.2603979158694187
 51
330.231262578606902
  0
ARC
  5
A13C
  8
0
 10
4223.8098274309022599
 20
99.210631569748287
 30
0.0
 40
0.0296053951795635
 50
330.2312625786075273
 51
0.2204498248358464
  0
ARC
  5
A13D
  8
0
 10
4223.7655544977460522
 20
99.5264781146701267
 30
0.0
 40
0.015
 50
90.0
 51
180.0
  0
LINE
  5
A13E
  8
0
 10
4224.3285544977461541
 20
96.0220265749701269
 30
0.0
 11
4224.3285544977461541
 21
98.6889947343701266
 31
0.0
  0
LINE
  5
A13F
  8
0
 10
4228.8185544977450263
 20
92.8852942911473747
 30
0.0
 11
4228.8185544977450263
 21
93.084294291173066
 31
0.0
  0
LINE
  5
A140
  8
0
 10
4228.8685544977461177
 20
93.1965440127701044
 30
0.0
 11
4228.8685544977461177
 21
93.3312738808701141
 31
0.0
  0
LINE
  5
A141
  8
0
 10
4228.7985544977445898
 20
93.3812738808701255
 30
0.0
 11
4228.7985544977445898
 21
93.3902271412270863
 31
0.0
  0
ARC
  5
A142
  8
0
 10
4228.939554497730569
 20
93.084294291173066
 30
0.0
 40
0.1209999999861777
 50
131.9802325429195093
 51
180.0
  0
ARC
  5
A143
  8
0
 10
4228.6604537617704409
 20
92.5982729405493217
 30
0.0
 40
0.2969999999721107
 50
289.4918342801541939
 51
51.6477956300767502
  0
ARC
  5
A144
  8
0
 10
4228.887554497745441
 20
92.8852942911473747
 30
0.0
 40
0.069
 50
180.0000000000057128
 51
231.6477956248839973
  0
ARC
  5
A145
  8
0
 10
4228.8385544977463724
 20
93.1965440127701044
 30
0.0
 40
0.03
 50
311.9802322297915111
 51
0.0000000000170987
  0
ARC
  5
A146
  8
0
 10
4228.8185544977450263
 20
93.3312738808701141
 30
0.0
 40
0.05
 50
359.9999999999976126
 51
90.0
  0
ARC
  5
A147
  8
0
 10
4226.1857046100303705
 20
94.6987981090542235
 30
0.0
 40
0.4915866715334554
 50
208.3711619745315033
 51
220.6465009406034028
  0
ARC
  5
A148
  8
0
 10
4226.3649089271302728
 20
94.8526472472525626
 30
0.0
 40
0.7277724979318843
 50
220.6465009406034028
 51
237.0000259842944956
  0
ARC
  5
A149
  8
0
 10
4227.7087432724893006
 20
96.9219727273917755
 30
0.0
 40
3.1951595147007179
 50
237.0000259842944956
 51
240.8667051310333989
  0
ARC
  5
A14A
  8
0
 10
4227.2872559299221393
 20
96.1657438946679832
 30
0.0
 40
2.3294034131411072
 50
240.8667051310333989
 51
249.5207548975600957
  0
ARC
  5
A14B
  8
0
 10
4227.5875797885682914
 20
96.9698844301670704
 30
0.0
 40
3.1877951773750128
 50
249.5207548975600957
 51
257.0771466281724997
  0
ARC
  5
A14C
  8
0
 10
4184.2945242030873487
 20
-91.7116574806399854
 30
0.0
 40
190.3968450185016934
 50
76.9338488197979444
 51
77.0771466281724855
  0
ARC
  5
A14D
  8
0
 10
4231.0927453216563663
 20
112.9630494300210017
 30
0.0
 40
19.5707261960581889
 50
258.9408873861382858
 51
262.8683889860034242
  0
ARC
  5
A14E
  8
0
 10
4228.6438544977463607
 20
93.3902271412270863
 30
0.0
 40
0.1547
 50
0.0
 51
82.8683889860032536
  0
LINE
  5
A14F
  8
0
 10
4225.7435544977452082
 20
94.5032197760109369
 30
0.0
 11
4225.7435544977452082
 21
94.5873809056701305
 31
0.0
  0
LINE
  5
A150
  8
0
 10
4225.648554497745863
 20
94.6773809056701339
 30
0.0
 11
4225.648554497745863
 21
94.8073809056701293
 31
0.0
  0
ARC
  5
A151
  8
0
 10
4225.8235544977451354
 20
94.5032197760108943
 30
0.0
 40
0.08
 50
179.9999999999845102
 51
208.3711619745666042
  0
ARC
  5
A152
  8
0
 10
4225.6535544977450627
 20
94.5873809056701305
 30
0.0
 40
0.09
 50
0.0000000000024427
 51
90.0
  0
LINE
  5
A153
  8
0
 10
4225.0235544977449536
 20
94.6773809056701339
 30
0.0
 11
4225.0235544977449536
 21
94.8073809056701293
 31
0.0
  0
LINE
  5
A154
  8
0
 10
4225.3532008782449338
 20
94.6773809056701339
 30
0.0
 11
4225.3532008782449338
 21
94.8073809056701293
 31
0.0
  0
LINE
  5
A155
  8
0
 10
4225.6576763885459513
 20
99.2107454784538447
 30
0.0
 11
4225.6576763885459513
 21
99.2722261008411522
 31
0.0
  0
LINE
  5
A156
  8
0
 10
4225.7465544977449099
 20
99.4255098884701169
 30
0.0
 11
4225.7465544977449099
 21
99.5264781146701267
 31
0.0
  0
ARC
  5
A157
  8
0
 10
4225.6476535464444169
 20
99.4255098884701169
 30
0.0
 40
0.0989009512999886
 50
320.9399048116031281
 51
0.0000000000040711
  0
ARC
  5
A158
  8
0
 10
4225.6807633449816421
 20
99.398640553296616
 30
0.0
 40
0.056260361109321
 50
291.5960909544012907
 51
320.9399048116031281
  0
ARC
  5
A159
  8
0
 10
4225.7278385427916874
 20
99.2797184716913961
 30
0.0
 40
0.0716401304542427
 50
111.5960909544013049
 51
133.7317175790612964
  0
ARC
  5
A15A
  8
0
 10
4225.7135280337597578
 20
99.2946769767998205
 30
0.0
 40
0.050938740553312
 50
133.7317175790612964
 51
168.7933172789250875
  0
ARC
  5
A15B
  8
0
 10
4225.7666253325596699
 20
99.2691202198550116
 30
0.0
 40
0.1089932057444859
 50
161.0156102065890025
 51
178.3670728494246873
  0
ARC
  5
A15C
  8
0
 10
4225.09723151281014
 20
99.5483639362467585
 30
0.0
 40
0.8655859824139266
 50
276.8710888616298007
 51
282.8029425619786821
  0
ARC
  5
A15D
  8
0
 10
4225.2576688316112268
 20
98.8423642712758266
 30
0.0
 40
0.1415862170801519
 50
282.8029425619786821
 51
304.1478693477675961
  0
ARC
  5
A15E
  8
0
 10
4225.2624785729767609
 20
98.8352730818957639
 30
0.0
 40
0.1330177528755378
 50
304.1478693477675961
 51
323.5684484043226803
  0
ARC
  5
A15F
  8
0
 10
4225.3019931209073548
 20
98.8061068434156766
 30
0.0
 40
0.0839049341296818
 50
323.5684484043221119
 51
346.7538198756458883
  0
ARC
  5
A160
  8
0
 10
4225.3121559239007183
 20
98.8037145360681137
 30
0.0
 40
0.0734643546844763
 50
346.7538198756467978
 51
16.007639064677651
  0
ARC
  5
A161
  8
0
 10
4225.3422642986606661
 20
98.812352318087278
 30
0.0
 40
0.0421414316261912
 50
16.0076390646768694
 51
49.6611415019197722
  0
ARC
  5
A162
  8
0
 10
4225.389516693537189
 20
98.8732146904798839
 30
0.0
 40
0.0349999999893595
 50
96.5001372740565273
 51
235.2020305731562928
  0
ARC
  5
A163
  8
0
 10
4225.3278019870804201
 20
99.5161992179089339
 30
0.0
 40
0.6109453127075067
 50
275.4242549514315783
 51
288.7977807249156967
  0
ARC
  5
A164
  8
0
 10
4225.4270039044613441
 20
99.2202288998185082
 30
0.0
 40
0.298799363281745
 50
289.077658883862
 51
315.4764747468649944
  0
ARC
  5
A165
  8
0
 10
4225.5004844863533435
 20
99.1461296712859195
 30
0.0
 40
0.1944563053893627
 50
315.8610623720599051
 51
343.9492031897557922
  0
ARC
  5
A166
  8
0
 10
4225.5978175692189325
 20
99.1204752305336285
 30
0.0
 40
0.0938515286118926
 50
342.5710510146703882
 51
27.6056923315738594
  0
ARC
  5
A167
  8
0
 10
4226.2876761422430718
 20
99.5540458772958914
 30
0.0
 40
0.7212751397137827
 50
209.768737421393098
 51
212.7396020841306097
  0
ARC
  5
A168
  8
0
 10
4225.6872815645892842
 20
99.210631569748287
 30
0.0
 40
0.0296053951795635
 50
179.7795501751641041
 51
209.7687374213923874
  0
ARC
  5
A169
  8
0
 10
4225.7315544977464015
 20
99.5264781146701267
 30
0.0
 40
0.015
 50
0.0
 51
90.0
  0
LINE
  5
A16A
  8
0
 10
4225.1685544977453901
 20
96.0220265749701269
 30
0.0
 11
4225.1685544977453901
 21
98.6889947343701266
 31
0.0
  0
LINE
  5
A16B
  8
0
 10
4220.6523685709453275
 20
92.8311837086701246
 30
0.0
 11
4228.8447404245453072
 21
92.8311837086701246
 31
0.0
  0
LINE
  5
A16C
  8
0
 10
4220.6384882730717436
 20
93.1742427431343856
 30
0.0
 11
4228.8586207224188911
 21
93.1742427431343856
 31
0.0
  0
LINE
  5
A16D
  8
0
 10
4224.1275662582438599
 20
98.8444737602693664
 30
0.0
 11
4225.3695427372458653
 21
98.8444737602693664
 31
0.0
  0
LINE
  5
A16E
  8
0
 10
4224.1115544977519676
 20
98.9079896959251101
 30
0.0
 11
4225.3855544977395766
 21
98.9079896959251101
 31
0.0
  0
LINE
  5
A16F
  8
0
 10
4223.8355259942345583
 20
99.1959324790831118
 30
0.0
 11
4225.6615830012569859
 21
99.1959324790831118
 31
0.0
  0
LINE
  5
A170
  8
0
 10
4223.7956383991459006
 20
99.3463295795607735
 30
0.0
 11
4225.7014705963438246
 21
99.3463295795607735
 31
0.0
  0
ENDSEC
  0
EOF
