  0
SECTION
  2
HEADER
  9
$ACADVER
  1
AC1009
  9
$INSBASE
 10
4350.9664674601990555
 20
594.5414806481951473
 30
0.0
  9
$EXTMIN
 10
4349.0217230134530837
 20
588.9375075238450563
 30
0.0
  9
$EXTMAX
 10
4352.9112119069450273
 20
595.5524895949807842
 30
0.0
  9
$LIMMIN
 10
0.0
 20
0.0
  9
$LIMMAX
 10
11.6929133858000007
 20
8.2677165353999982
  9
$ORTHOMODE
 70
     0
  9
$REGENMODE
 70
     1
  9
$FILLMODE
 70
     1
  9
$QTEXTMODE
 70
     0
  9
$MIRRTEXT
 70
     0
  9
$DRAGMODE
 70
     2
  9
$LTSCALE
 40
0.6431102362
  9
$OSMODE
 70
    19
  9
$ATTMODE
 70
     1
  9
$TEXTSIZE
 40
0.2
  9
$TRACEWID
 40
0.05
  9
$TEXTSTYLE
  7
STANDARD
  9
$CLAYER
  8
0
  9
$CELTYPE
  6
BYLAYER
  9
$CECOLOR
 62
   256
  9
$DIMSCALE
 40
1.0
  9
$DIMASZ
 40
0.1875
  9
$DIMEXO
 40
0.0625
  9
$DIMDLI
 40
0.4443307087
  9
$DIMRND
 40
0.0
  9
$DIMDLE
 40
0.0
  9
$DIMEXE
 40
0.125
  9
$DIMTP
 40
0.01
  9
$DIMTM
 40
0.01
  9
$DIMTXT
 40
2.0
  9
$DIMCEN
 40
0.1052362205
  9
$DIMTSZ
 40
0.0
  9
$DIMTOL
 70
     1
  9
$DIMLIM
 70
     0
  9
$DIMTIH
 70
     1
  9
$DIMTOH
 70
     1
  9
$DIMSE1
 70
     0
  9
$DIMSE2
 70
     0
  9
$DIMTAD
 70
     0
  9
$DIMZIN
 70
     0
  9
$DIMBLK
  1

  9
$DIMASO
 70
     1
  9
$DIMSHO
 70
     1
  9
$DIMPOST
  1
\X
  9
$DIMAPOST
  1

  9
$DIMALT
 70
     1
  9
$DIMALTD
 70
     2
  9
$DIMALTF
 40
25.3999999999999986
  9
$DIMLFAC
 40
1.0
  9
$DIMTOFL
 70
     0
  9
$DIMTVP
 40
0.0
  9
$DIMTIX
 70
     0
  9
$DIMSOXD
 70
     0
  9
$DIMSAH
 70
     0
  9
$DIMBLK1
  1

  9
$DIMBLK2
  1

  9
$DIMSTYLE
  2
STANDARD
  9
$DIMCLRD
 70
     0
  9
$DIMCLRE
 70
     0
  9
$DIMCLRT
 70
     0
  9
$DIMTFAC
 40
1.0
  9
$DIMGAP
 40
0.09
  9
$LUNITS
 70
     2
  9
$LUPREC
 70
     4
  9
$SKETCHINC
 40
0.1
  9
$FILLETRAD
 40
0.0
  9
$AUNITS
 70
     0
  9
$AUPREC
 70
     0
  9
$MENU
  1
.
  9
$ELEVATION
 40
0.0
  9
$PELEVATION
 40
0.0
  9
$THICKNESS
 40
0.0
  9
$LIMCHECK
 70
     0
  9
$BLIPMODE
 70
     0
  9
$CHAMFERA
 40
0.0
  9
$CHAMFERB
 40
0.0
  9
$SKPOLY
 70
     0
  9
$TDCREATE
 40
2458060.468368056230247
  9
$TDUPDATE
 40
2459695.4811111111193895
  9
$TDINDWG
 40
4.6529931713000003
  9
$TDUSRTIMER
 40
4.6529931713000003
  9
$USRTIMER
 70
     1
  9
$ANGBASE
 50
0.0
  9
$ANGDIR
 70
     0
  9
$PDMODE
 70
     0
  9
$PDSIZE
 40
0.3125
  9
$PLINEWID
 40
0.0
  9
$COORDS
 70
     1
  9
$SPLFRAME
 70
     0
  9
$SPLINETYPE
 70
     6
  9
$SPLINESEGS
 70
     8
  9
$ATTDIA
 70
     1
  9
$ATTREQ
 70
     1
  9
$HANDLING
 70
     1
  9
$HANDSEED
  5
24FFF
  9
$SURFTAB1
 70
     6
  9
$SURFTAB2
 70
     6
  9
$SURFTYPE
 70
     6
  9
$SURFU
 70
     6
  9
$SURFV
 70
     6
  9
$UCSNAME
  2

  9
$UCSORG
 10
0.0
 20
0.0
 30
0.0
  9
$UCSXDIR
 10
1.0
 20
0.0
 30
0.0
  9
$UCSYDIR
 10
0.0
 20
1.0
 30
0.0
  9
$PUCSNAME
  2

  9
$PUCSORG
 10
0.0
 20
0.0
 30
0.0
  9
$PUCSXDIR
 10
1.0
 20
0.0
 30
0.0
  9
$PUCSYDIR
 10
0.0
 20
1.0
 30
0.0
  9
$USERI1
 70
     0
  9
$USERI2
 70
     0
  9
$USERI3
 70
     0
  9
$USERI4
 70
     0
  9
$USERI5
 70
     0
  9
$USERR1
 40
0.0
  9
$USERR2
 40
0.0
  9
$USERR3
 40
0.0
  9
$USERR4
 40
0.0
  9
$USERR5
 40
0.0
  9
$WORLDVIEW
 70
     1
  9
$SHADEDGE
 70
     3
  9
$SHADEDIF
 70
    70
  9
$TILEMODE
 70
     1
  9
$MAXACTVP
 70
    64
  9
$PLIMCHECK
 70
     0
  9
$PEXTMIN
 10
1.0000000000000000E+20
 20
1.0000000000000000E+20
 30
1.0000000000000000E+20
  9
$PEXTMAX
 10
-1.0000000000000000E+20
 20
-1.0000000000000000E+20
 30
-1.0000000000000000E+20
  9
$PLIMMIN
 10
0.0
 20
0.0
  9
$PLIMMAX
 10
12.0
 20
9.0
  9
$UNITMODE
 70
     0
  9
$VISRETAIN
 70
     1
  9
$PLINEGEN
 70
     0
  9
$PSLTSCALE
 70
     1
  0
ENDSEC
  0
SECTION
  2
TABLES
  0
TABLE
  2
VPORT
 70
     1
  0
VPORT
  2
*ACTIVE
 70
     0
 10
0.0
 20
0.0
 11
1.0
 21
1.0
 12
114.5350709758239987
 22
-6.4836123538703978
 13
0.0
 23
0.0
 14
1.0
 24
1.0
 15
0.0
 25
0.0
 16
0.0
 26
0.0
 36
98.7941898181710343
 17
4236.431396484375
 27
598.728610913283319
 37
0.0
 40
6.6564120214768714
 41
1.6896551724137929
 42
50.0
 43
0.0
 44
0.0
 50
0.0
 51
0.0
 71
     0
 72
   100
 73
     1
 74
     1
 75
     0
 76
     0
 77
     0
 78
     0
  0
ENDTAB
  0
TABLE
  2
LTYPE
 70
     2
  0
LTYPE
  2
CONTINUOUS
 70
     0
  3
Solid line
 72
    65
 73
     0
 40
0.0
  0
LTYPE
  2
PHANTOM2
 70
     0
  3
___ _ _ ___ _ _ ___ _ _ ___ _ _
 72
    65
 73
     6
 40
1.25
 49
0.625
 49
-0.125
 49
0.125
 49
-0.125
 49
0.125
 49
-0.125
  0
ENDTAB
  0
TABLE
  2
LAYER
 70
     2
  0
LAYER
  2
0
 70
     0
 62
   255
  6
CONTINUOUS
  0
LAYER
  2
DEFPOINTS
 70
     0
 62
     7
  6
CONTINUOUS
  0
ENDTAB
  0
TABLE
  2
STYLE
 70
     1
  0
STYLE
  2
STANDARD
 70
     0
 40
0.0
 41
0.8
 50
0.0
 71
     0
 42
0.2
  3
txt
  4

  0
ENDTAB
  0
TABLE
  2
VIEW
 70
     0
  0
ENDTAB
  0
TABLE
  2
UCS
 70
     0
  0
ENDTAB
  0
TABLE
  2
APPID
 70
    10
  0
APPID
  2
ACAD
 70
     0
  0
APPID
  2
ACAD_MLEADERVER
 70
     0
  0
APPID
  2
ACAD_EXEMPT_FROM_CAD_STANDARDS
 70
     0
  0
APPID
  2
ACAD_NAV_VCDISPLAY
 70
     0
  0
APPID
  2
ACAECLAYERSTANDARD
 70
     0
  0
APPID
  2
ACCMTRANSPARENCY
 70
     0
  0
APPID
  2
ACAD_DSTYLE_DIMJAG
 70
     0
  0
APPID
  2
ACAD_DSTYLE_DIMTALN
 70
     0
  0
APPID
  2
ACDBATTR
 70
     0
  0
APPID
  2
DCO15
 70
     0
  0
ENDTAB
  0
TABLE
  2
DIMSTYLE
 70
     1
  0
DIMSTYLE
  2
STANDARD
 70
     0
  3

  4

  5

  6

  7

 40
1.0
 41
0.1875
 42
0.0625
 43
0.38
 44
0.125
 45
0.0
 46
0.0
 47
0.01
 48
0.01
140
0.15625
141
0.09
142
0.0
143
25.3999999999999986
144
1.0
145
0.0
146
1.0
147
0.09
 71
     1
 72
     0
 73
     1
 74
     1
 75
     0
 76
     0
 77
     0
 78
     4
170
     0
171
     2
172
     0
173
     0
174
     0
175
     0
176
     0
177
     0
178
     0
  0
ENDTAB
  0
ENDSEC
  0
SECTION
  2
BLOCKS
  0
BLOCK
  8
0
  2
$MODEL_SPACE
 70
     0
 10
0.0
 20
0.0
 30
0.0
  3
$MODEL_SPACE
  1

  0
ENDBLK
  5
21
  8
0
  0
BLOCK
 67
     1
  8
0
  2
$PAPER_SPACE
 70
     0
 10
0.0
 20
0.0
 30
0.0
  3
$PAPER_SPACE
  1

  0
ENDBLK
  5
1D
 67
     1
  8
0
  0
ENDSEC
  0
SECTION
  2
ENTITIES
  0
ATTDEF
  5
3930
  8
DEFPOINTS
 10
4350.9666867857868056
 20
594.5450032040587303
 30
0.0
 40
0.001
  1
P21500-00
  3

  2
MODELNUMBER
 70
     0
1001
ACDBATTR
1070
     0
1070
     1
  0
ATTDEF
  5
3931
  8
DEFPOINTS
 10
4350.9666867857868056
 20
594.5433365373919514
 30
0.0
 40
0.001
  1

  3

  2
TRADENAME
 70
     0
1001
ACDBATTR
1070
     0
1070
     1
  0
ATTDEF
  5
3932
  8
DEFPOINTS
 10
4350.9666867857868056
 20
594.5416698707254
 30
0.0
 40
0.001
  1
SHOWERHEAD
  3

  2
PRODUCT
 70
     0
1001
ACDBATTR
1070
     0
1070
     1
  0
ARC
  5
248C8
  8
0
 10
4350.9686605909173522
 20
590.9156602717355327
 30
0.0
 40
0.0622425549991333
 50
107.4364841691906065
 51
142.0147300366820957
  0
ARC
  5
248C9
  8
0
 10
4350.9806660076847038
 20
590.9062855816085857
 30
0.0
 40
0.0774745885715125
 50
142.0147300366820957
 51
169.8842245961899096
  0
ARC
  5
248CA
  8
0
 10
4350.9840555296314051
 20
590.9056808528870306
 30
0.0
 40
0.0809176331314133
 50
169.8842245961899096
 51
195.2638107303378092
  0
LINE
  5
248CB
  8
0
 10
4350.9059923554987108
 20
590.8843781723951452
 30
0.0
 11
4350.9202627476979615
 21
590.8323861581950496
 31
0.0
  0
ARC
  5
248CC
  8
0
 10
4350.9564231662898237
 20
590.8423112084814193
 30
0.0
 40
0.0374977665453987
 50
195.3481633235442985
 51
240.8557809071972997
  0
ARC
  5
248CD
  8
0
 10
4350.9646624481329127
 20
590.8279898834381356
 30
0.0
 40
0.0150977586944653
 50
102.5863413914844955
 51
145.5750649172134104
  0
ARC
  5
248CE
  8
0
 10
4350.9595525961121893
 20
590.8314919395105562
 30
0.0
 40
0.0089030041057534
 50
145.5750649172134104
 51
212.1866832503833962
  0
ARC
  5
248CF
  8
0
 10
4350.9641537006791623
 20
590.8343879164342525
 30
0.0
 40
0.0143396248928685
 50
212.1866832503833962
 51
249.9046723136605976
  0
ARC
  5
248D0
  8
0
 10
4350.9664674601990555
 20
590.9214593799015347
 30
0.0
 40
0.0560538714936876
 50
72.9260384885925959
 51
107.0739615114074041
  0
ARC
  5
248D1
  8
0
 10
4350.9664674601990555
 20
590.8227463885199313
 30
0.0
 40
0.0206178717753126
 50
75.693175758511714
 51
104.3068242414883002
  0
ARC
  5
248D2
  8
0
 10
4350.9664674601990555
 20
590.8399601443203437
 30
0.0
 40
0.0203692357251736
 50
249.1778672719657948
 51
290.8221327280342052
  0
ARC
  5
248D3
  8
0
 10
4350.9664674601990555
 20
590.8577019449611498
 30
0.0
 40
0.0558462582659479
 50
239.5452995815608972
 51
300.4547004184391881
  0
ARC
  5
248D4
  8
0
 10
4350.7906115886980842
 20
590.8204645572993741
 30
0.0
 40
0.0665642073060924
 50
134.908132124370411
 51
167.3110475176416116
  0
ARC
  5
248D5
  8
0
 10
4350.8029893506673034
 20
590.8174362866368483
 30
0.0
 40
0.0793051998076188
 50
167.1409519113443878
 51
194.3630480804330034
  0
LINE
  5
248D6
  8
0
 10
4350.7261629658987658
 20
590.7977634291952427
 30
0.0
 11
4350.7394270543982202
 21
590.7454051827952526
 31
0.0
  0
ARC
  5
248D7
  8
0
 10
4350.7753081289720285
 20
590.7554477859652025
 30
0.0
 40
0.0372599703558884
 50
195.6361786546328858
 51
241.679748761947593
  0
ARC
  5
248D8
  8
0
 10
4350.7837236762497923
 20
590.7381807213063212
 30
0.0
 40
0.0151301186209191
 50
100.9753093518232987
 51
142.7540489933383014
  0
ARC
  5
248D9
  8
0
 10
4350.7776723677870905
 20
590.7427424815858785
 30
0.0
 40
0.0075521207732963
 50
142.5179893428515925
 51
215.0320921663324896
  0
ARC
  5
248DA
  8
0
 10
4350.7836243280917188
 20
590.7460457241800214
 30
0.0
 40
0.0143396248928685
 50
212.1866832503833962
 51
249.9046723136605976
  0
ARC
  5
248DB
  8
0
 10
4350.7767953323518668
 20
590.8181959242741641
 30
0.0
 40
0.065150204697675
 50
44.1562255200940825
 51
71.6039295724226434
  0
ARC
  5
248DC
  8
0
 10
4350.7672148923757049
 20
590.8091060972902824
 30
0.0
 40
0.0783559025812516
 50
17.6942772870151614
 51
44.044738584045561
  0
ARC
  5
248DD
  8
0
 10
4350.7663444560703283
 20
590.8083530253768458
 30
0.0
 40
0.0794153386151839
 50
346.1921205305109197
 51
18.0210233278754401
  0
LINE
  5
248DE
  8
0
 10
4350.8434648078991813
 20
590.7893992040951616
 30
0.0
 11
4350.8323196562987505
 21
590.7454051827952526
 31
0.0
  0
ARC
  5
248DF
  8
0
 10
4350.7965521724736391
 20
590.7552566411187627
 30
0.0
 40
0.0370993818044895
 50
298.4818758691234279
 51
344.6008161185552012
  0
ARC
  5
248E0
  8
0
 10
4350.787134642016099
 20
590.7365432164757522
 30
0.0
 40
0.0169454094888524
 50
39.5711007836991868
 51
76.6995408711507025
  0
ARC
  5
248E1
  8
0
 10
4350.7942038074361335
 20
590.7427424815858785
 30
0.0
 40
0.0075521207732963
 50
324.967907833667482
 51
37.4820106571483933
  0
ARC
  5
248E2
  8
0
 10
4350.7882518471305957
 20
590.7460457241800214
 30
0.0
 40
0.0143396248928685
 50
290.0953276863393739
 51
327.8133167496166038
  0
ARC
  5
248E3
  8
0
 10
4350.785938087611612
 20
590.7330556643412365
 30
0.0
 40
0.0206178717753126
 50
75.693175758511714
 51
104.3068242414883002
  0
ARC
  5
248E4
  8
0
 10
4350.785938087611612
 20
590.7516179520661126
 30
0.0
 40
0.0203692357251736
 50
249.1778672719657948
 51
290.8221327280342052
  0
ARC
  5
248E5
  8
0
 10
4350.785938087611612
 20
590.7707886306623095
 30
0.0
 40
0.0558462582659479
 50
239.5452995815608972
 51
300.4547004184391881
  0
ARC
  5
248E6
  8
0
 10
4350.5758449406239379
 20
590.8768362145402762
 30
0.0
 40
0.0519972740962584
 50
104.4197351828289015
 51
132.0262089073005995
  0
ARC
  5
248E7
  8
0
 10
4350.5796536254256353
 20
590.8725421499694903
 30
0.0
 40
0.05773689125233
 50
131.9810455014394108
 51
156.0359726233945139
  0
ARC
  5
248E8
  8
0
 10
4350.5948940886473792
 20
590.8660403855939194
 30
0.0
 40
0.0743048290111813
 50
156.2278171838790968
 51
194.2541026715805117
  0
LINE
  5
248E9
  8
0
 10
4350.5228768614988439
 20
590.8477448503950882
 30
0.0
 11
4350.537250309398587
 21
590.7864327796952466
 31
0.0
  0
ARC
  5
248EA
  8
0
 10
4350.5750147976841617
 20
590.7958284863429981
 30
0.0
 40
0.0389157536075107
 50
193.9713746208938971
 51
241.8221804145532019
  0
ARC
  5
248EB
  8
0
 10
4350.5813390324146894
 20
590.780303379835118
 30
0.0
 40
0.0150977586944653
 50
102.5863413914844955
 51
145.5750649172134104
  0
ARC
  5
248EC
  8
0
 10
4350.5762291803939661
 20
590.7838054359076523
 30
0.0
 40
0.0089030041057534
 50
145.5750649172134104
 51
212.1866832503833962
  0
ARC
  5
248ED
  8
0
 10
4350.5808302849618485
 20
590.7867014128313485
 30
0.0
 40
0.0143396248928685
 50
212.1866832503833962
 51
249.9046723136605976
  0
ARC
  5
248EE
  8
0
 10
4350.5687313482458194
 20
590.8543638469778898
 30
0.0
 40
0.0761540788014745
 50
36.8739361765897726
 51
65.4293100533356409
  0
ARC
  5
248EF
  8
0
 10
4350.5616131143387975
 20
590.8486428101012962
 30
0.0
 40
0.0852818558701981
 50
13.4050599032131394
 51
37.0790130277423202
  0
ARC
  5
248F0
  8
0
 10
4350.5702518170173789
 20
590.8498810451590089
 30
0.0
 40
0.0765956059412178
 50
343.2462801111844897
 51
14.0021804750169707
  0
LINE
  5
248F1
  8
0
 10
4350.6435961422994296
 20
590.827801715495184
 30
0.0
 11
4350.6296350761986105
 21
590.7830882969950608
 31
0.0
  0
ARC
  5
248F2
  8
0
 10
4350.5916903811894372
 20
590.7961699573617125
 30
0.0
 40
0.0401363889431343
 50
300.2212504894304175
 51
340.9780609789510777
  0
ARC
  5
248F3
  8
0
 10
4350.584949056546975
 20
590.780303379835118
 30
0.0
 40
0.0150977586944653
 50
34.4249350827865968
 51
77.4136586085154761
  0
ARC
  5
248F4
  8
0
 10
4350.5900589085676984
 20
590.7838054359076523
 30
0.0
 40
0.0089030041057534
 50
327.8133167496166038
 51
34.4249350827865968
  0
ARC
  5
248F5
  8
0
 10
4350.5854578040007254
 20
590.7867014128313485
 30
0.0
 40
0.0143396248928685
 50
290.0953276863393739
 51
327.8133167496166038
  0
ARC
  5
248F6
  8
0
 10
4350.5764413123470149
 20
590.8707779922600594
 30
0.0
 40
0.058020628248044
 50
65.6135405029995695
 51
103.5002721476506053
  0
ARC
  5
248F7
  8
0
 10
4350.5831440444808322
 20
590.7750598849169137
 30
0.0
 40
0.0206178717753126
 50
75.693175758511714
 51
104.3068242414883002
  0
ARC
  5
248F8
  8
0
 10
4350.5831440444808322
 20
590.7922736407174398
 30
0.0
 40
0.0203692357251736
 50
249.1778672719657948
 51
290.8221327280342052
  0
ARC
  5
248F9
  8
0
 10
4350.5842974649485768
 20
590.8102485011994531
 30
0.0
 40
0.0560269963282235
 50
240.4176652960053957
 51
299.507252051868079
  0
ARC
  5
248FA
  8
0
 10
4350.2321710995629473
 20
590.7426497754028105
 30
0.0
 40
0.0464444456130346
 50
121.3580801277899042
 51
163.3683079461634975
  0
ARC
  5
248FB
  8
0
 10
4350.2531546121736028
 20
590.7364274138434439
 30
0.0
 40
0.06833106891639
 50
163.4050528712309074
 51
191.9521031220648979
  0
LINE
  5
248FC
  8
0
 10
4350.1863048880995848
 20
590.722276464395236
 30
0.0
 11
4350.2004730527978609
 21
590.6507178629951795
 31
0.0
  0
ARC
  5
248FD
  8
0
 10
4350.238996598635822
 20
590.6593437151185526
 30
0.0
 40
0.0394774481035437
 50
192.6209902381120003
 51
238.9233308179505002
  0
ARC
  5
248FE
  8
0
 10
4350.2446108877757069
 20
590.6429856455238223
 30
0.0
 40
0.0150977586944653
 50
102.5863413914844955
 51
145.5750649172134104
  0
ARC
  5
248FF
  8
0
 10
4350.2395010357549836
 20
590.6464877015963566
 30
0.0
 40
0.0089030041057534
 50
145.5750649172134104
 51
212.1866832503833962
  0
ARC
  5
24900
  8
0
 10
4350.244102140321047
 20
590.6493836785200529
 30
0.0
 40
0.0143396248928685
 50
212.1866832503833962
 51
249.9046723136605976
  0
ARC
  5
24901
  8
0
 10
4350.2224332065961789
 20
590.7053975054620878
 30
0.0
 40
0.0851678831036262
 50
42.6910074757314035
 51
67.1677051663806708
  0
ARC
  5
24902
  8
0
 10
4350.2180348712290652
 20
590.7000770893537265
 30
0.0
 40
0.0920129133258258
 50
12.4207254059293994
 51
43.2690950177819218
  0
ARC
  5
24903
  8
0
 10
4350.2453317057706954
 20
590.7046519107572067
 30
0.0
 40
0.0643862803271216
 50
341.5119163715472723
 51
13.6697579366325801
  0
LINE
  5
24904
  8
0
 10
4350.3063949861989386
 20
590.6842345436951973
 30
0.0
 11
4350.2928087449990926
 21
590.6445162311952117
 31
0.0
  0
ARC
  5
24905
  8
0
 10
4350.2567099620137014
 20
590.6575855142384626
 30
0.0
 40
0.0383917737573155
 50
299.5708266823007762
 51
340.097605957946314
  0
ARC
  5
24906
  8
0
 10
4350.2482209119070831
 20
590.6429856455238223
 30
0.0
 40
0.0150977586944653
 50
34.4249350827865968
 51
77.4136586085154761
  0
ARC
  5
24907
  8
0
 10
4350.2533307639287159
 20
590.6464877015963566
 30
0.0
 40
0.0089030041057534
 50
327.8133167496166038
 51
34.4249350827865968
  0
ARC
  5
24908
  8
0
 10
4350.2487296593608335
 20
590.6493836785200529
 30
0.0
 40
0.0143396248928685
 50
290.0953276863393739
 51
327.8133167496166038
  0
ARC
  5
24909
  8
0
 10
4350.2333422177816828
 20
590.7350625420970118
 30
0.0
 40
0.0536139801958274
 50
65.6106230565103203
 51
118.2058009336484048
  0
ARC
  5
2490A
  8
0
 10
4350.2464158998409403
 20
590.637742150605618
 30
0.0
 40
0.0206178717753126
 50
75.693175758511714
 51
104.3068242414883002
  0
ARC
  5
2490B
  8
0
 10
4350.2464158998409403
 20
590.6549559064061441
 30
0.0
 40
0.0203692357251736
 50
249.1778672719657948
 51
290.8221327280342052
  0
ARC
  5
2490C
  8
0
 10
4350.2482736536139782
 20
590.6733000917173513
 30
0.0
 40
0.0562243315600639
 50
238.1676574552915895
 51
299.1451817671385811
  0
ARC
  5
2490D
  8
0
 10
4350.9575243024319207
 20
589.1720630299721506
 30
0.0
 40
0.165291635050433
 50
94.4738685064016437
 51
103.7109412564690984
  0
ARC
  5
2490E
  8
0
 10
4350.9274164890475731
 20
589.2954502247769142
 30
0.0
 40
0.0382842329297386
 50
103.7046979658912988
 51
127.1077026223670998
  0
ARC
  5
2490F
  8
0
 10
4350.9075548462169536
 20
589.3230459760354734
 30
0.0
 40
0.0043693020760693
 50
137.7808330396937038
 51
188.349160169243703
  0
LINE
  5
24910
  8
0
 10
4350.9032318519002729
 20
589.3224115307950797
 30
0.0
 11
4350.919839430898719
 21
589.2521682486950567
 31
0.0
  0
ARC
  5
24911
  8
0
 10
4350.9557187684313249
 20
589.2625384804078976
 30
0.0
 40
0.0373479392663997
 50
196.1209197215083009
 51
242.319823798615289
  0
ARC
  5
24912
  8
0
 10
4350.9641219462673689
 20
589.242114246998085
 30
0.0
 40
0.0154549357078926
 50
101.4553684951904984
 51
140.0017114348493976
  0
ARC
  5
24913
  8
0
 10
4350.9579408805420826
 20
589.2475596026658877
 30
0.0
 40
0.0072224921846456
 50
141.5767459812396112
 51
218.1104325217422968
  0
ARC
  5
24914
  8
0
 10
4350.9645150388259935
 20
589.2536584099465244
 30
0.0
 40
0.0161762376302703
 50
220.7368258671660897
 51
257.349303587758925
  0
ARC
  5
24915
  8
0
 10
4350.7651585383073325
 20
590.9731832588670386
 30
0.0
 40
0.0667421827855881
 50
131.1735642464508089
 51
163.9116004802594944
  0
ARC
  5
24916
  8
0
 10
4350.7762848544189183
 20
590.9695665337460468
 30
0.0
 40
0.078435985477618
 50
163.6254336994421124
 51
194.6601732976016024
  0
LINE
  5
24917
  8
0
 10
4350.7004024380994451
 20
590.9497155208952108
 30
0.0
 11
4350.7138936774990725
 21
590.897171381695216
 31
0.0
  0
ARC
  5
24918
  8
0
 10
4350.7546696119661647
 20
590.9089082225394804
 30
0.0
 40
0.0424314772868311
 50
196.0577998610309862
 51
241.9406418987807115
  0
ARC
  5
24919
  8
0
 10
4350.7581667127296896
 20
590.8936720135072846
 30
0.0
 40
0.0148702315291542
 50
106.8933466400502965
 51
144.7952129737246878
  0
ARC
  5
2491A
  8
0
 10
4350.7540643312540851
 20
590.896697283901517
 30
0.0
 40
0.0097747035764486
 50
145.4219122172304992
 51
209.3300252799126042
  0
ARC
  5
2491B
  8
0
 10
4350.7581983972841044
 20
590.8992000234452462
 30
0.0
 40
0.0146056179065534
 50
209.9455013460892872
 51
244.4827206480011057
  0
ARC
  5
2491C
  8
0
 10
4350.7558605933281797
 20
590.97308356378187
 30
0.0
 40
0.0643679481791857
 50
50.5428647550966303
 51
76.2376186431448133
  0
ARC
  5
2491D
  8
0
 10
4350.747918879664212
 20
590.9640821428849904
 30
0.0
 40
0.0763660206063269
 50
17.0546883180211388
 51
50.2342068631161709
  0
ARC
  5
2491E
  8
0
 10
4350.7461376576547991
 20
590.9626051127671644
 30
0.0
 40
0.0785071448807361
 50
341.6524480472320988
 51
17.7040003068395784
  0
LINE
  5
2491F
  8
0
 10
4350.8206538569993427
 20
590.9378926091950461
 30
0.0
 11
4350.8056804469979397
 21
590.8937088420951795
 31
0.0
  0
ARC
  5
24920
  8
0
 10
4350.7660401923249083
 20
590.9084333555414332
 30
0.0
 40
0.0422866537672741
 50
298.679355766053277
 51
339.6223069772037206
  0
ARC
  5
24921
  8
0
 10
4350.7610287000416065
 20
590.8932672519182461
 30
0.0
 40
0.015241844117483
 50
32.7438512539187414
 51
73.1589374773071057
  0
ARC
  5
24922
  8
0
 10
4350.7653101418163715
 20
590.8962823809285965
 30
0.0
 40
0.0100123231904925
 50
330.2200246052792068
 51
31.4833523693676298
  0
ARC
  5
24923
  8
0
 10
4350.7621449994849172
 20
590.8984065844706492
 30
0.0
 40
0.0138171740433013
 50
289.3575073316831094
 51
329.093515562257096
  0
ARC
  5
24924
  8
0
 10
4350.7595739689550101
 20
590.8896184268788829
 30
0.0
 40
0.0191585730169519
 50
72.1564012502930439
 51
107.3975494124754988
  0
ARC
  5
24925
  8
0
 10
4350.7600823132916048
 20
590.9032095273353207
 30
0.0
 40
0.0190355951552511
 50
244.564220649968604
 51
290.42335209693249
  0
ARC
  5
24926
  8
0
 10
4350.7606420833262746
 20
590.9191541383610229
 30
0.0
 40
0.0542843359640059
 50
241.4646848082500981
 51
298.2475367349974249
  0
ARC
  5
24927
  8
0
 10
4350.7580326699317084
 20
590.980976851262426
 30
0.0
 40
0.0561850224376361
 50
76.4741425554351935
 51
130.9360350884304012
  0
ARC
  5
24928
  8
0
 10
4350.3648639975681363
 20
590.8868061382737551
 30
0.0
 40
0.0493918893376274
 50
107.5645852523925043
 51
143.5259200254342886
  0
ARC
  5
24929
  8
0
 10
4350.3724921250632178
 20
590.8811505567050517
 30
0.0
 40
0.058887877229733
 50
143.5130867491544109
 51
164.5826942550642968
  0
ARC
  5
2492A
  8
0
 10
4350.3875224325338422
 20
590.8776071795167582
 30
0.0
 40
0.0743215809971542
 50
165.0297516328448069
 51
190.4323347704182936
  0
LINE
  5
2492B
  8
0
 10
4350.3144294289986647
 20
590.8641494591952323
 30
0.0
 11
4350.3256639745995926
 21
590.8009776611952475
 31
0.0
  0
ARC
  5
2492C
  8
0
 10
4350.3656663730462242
 20
590.8088105245897168
 30
0.0
 40
0.0407620611659759
 50
191.0789030795195913
 51
238.4822967682943045
  0
ARC
  5
2492D
  8
0
 10
4350.3695709907224227
 20
590.7928969069308778
 30
0.0
 40
0.0150977586944653
 50
102.5863413914844955
 51
145.5750649172134104
  0
ARC
  5
2492E
  8
0
 10
4350.3644611387007899
 20
590.7963989630034121
 30
0.0
 40
0.0089030041057534
 50
145.5750649172134104
 51
212.1866832503833962
  0
ARC
  5
2492F
  8
0
 10
4350.3690622432677628
 20
590.799294939927222
 30
0.0
 40
0.0143396248928685
 50
212.1866832503833962
 51
249.9046723136605976
  0
ARC
  5
24930
  8
0
 10
4350.3577959387193914
 20
590.8597470205926356
 30
0.0
 40
0.0780580901166541
 50
38.0535900771382529
 51
67.2819213371954987
  0
ARC
  5
24931
  8
0
 10
4350.3509959622733732
 20
590.8536655049680348
 30
0.0
 40
0.0871633087971638
 50
16.1889158949019709
 51
38.446222641594467
  0
ARC
  5
24932
  8
0
 10
4350.3660518015176422
 20
590.8563103077020742
 30
0.0
 40
0.0719861737546502
 50
338.629948764285416
 51
17.5084560870906891
  0
LINE
  5
24933
  8
0
 10
4350.4330886674988506
 20
590.8300792609951486
 30
0.0
 11
4350.4171794208978099
 21
590.7912152771951924
 31
0.0
  0
ARC
  5
24934
  8
0
 10
4350.3795243873701111
 20
590.8075768025702246
 30
0.0
 40
0.0410560721775025
 50
290.9337450694749805
 51
336.5145247148645922
  0
ARC
  5
24935
  8
0
 10
4350.3731810148537988
 20
590.7928969069308778
 30
0.0
 40
0.0150977586944653
 50
34.4249350827865968
 51
77.4136586085154761
  0
ARC
  5
24936
  8
0
 10
4350.3782908668754317
 20
590.7963989630034121
 30
0.0
 40
0.0089030041057534
 50
327.8133167496166038
 51
34.4249350827865968
  0
ARC
  5
24937
  8
0
 10
4350.3736897623066398
 20
590.799294939927222
 30
0.0
 40
0.0143396248928685
 50
290.0953276863393739
 51
327.8133167496166038
  0
ARC
  5
24938
  8
0
 10
4350.3659219646706333
 20
590.8792295985258534
 30
0.0
 40
0.0569488024806168
 50
67.2532107166455404
 51
106.2788806444774963
  0
ARC
  5
24939
  8
0
 10
4350.371376002787656
 20
590.7876534120125598
 30
0.0
 40
0.0206178717753126
 50
75.693175758511714
 51
104.3068242414883002
  0
ARC
  5
2493A
  8
0
 10
4350.371376002787656
 20
590.8048671678130859
 30
0.0
 40
0.0203692357251736
 50
249.1778672719657948
 51
290.8221327280342052
  0
ARC
  5
2493B
  8
0
 10
4350.3739603825797531
 20
590.8199752036823611
 30
0.0
 40
0.0546294438358185
 50
237.1879617166287062
 51
291.7381508210449965
  0
ARC
  5
2493C
  8
0
 10
4350.4524169294318199
 20
590.7379875579890722
 30
0.0
 40
0.0704329835047607
 50
155.4257553141223127
 51
195.2691665458565922
  0
LINE
  5
2493D
  8
0
 10
4350.3844702808992224
 20
590.7194387542951972
 30
0.0
 11
4350.4000211591992411
 21
590.6580537059951439
 31
0.0
  0
ARC
  5
2493E
  8
0
 10
4350.4368356669438072
 20
590.668552128902661
 30
0.0
 40
0.0382821742339173
 50
195.9166028844607865
 51
244.5292788425242918
  0
ARC
  5
2493F
  8
0
 10
4350.4447077192889992
 20
590.651791116867571
 30
0.0
 40
0.0150977586944653
 50
102.5863413914844955
 51
145.5750649172134104
  0
ARC
  5
24940
  8
0
 10
4350.4395978672673664
 20
590.6552931729402189
 30
0.0
 40
0.0089030041057534
 50
145.5750649172134104
 51
212.1866832503833962
  0
ARC
  5
24941
  8
0
 10
4350.4441989718343393
 20
590.6581891498640289
 30
0.0
 40
0.0143396248928685
 50
212.1866832503833962
 51
249.9046723136605976
  0
ARC
  5
24942
  8
0
 10
4350.4204977172039435
 20
590.7124745734121234
 30
0.0
 40
0.0825699369392191
 50
38.4911449237438816
 51
62.9596077566890884
  0
ARC
  5
24943
  8
0
 10
4350.4161116379327723
 20
590.7083975561865827
 30
0.0
 40
0.0885416513691595
 50
15.7751399443845095
 51
38.7896114299672234
  0
ARC
  5
24944
  8
0
 10
4350.4330014505248982
 20
590.7119776607538597
 30
0.0
 40
0.071323893456662
 50
346.3789453020481233
 51
16.696141160620261
  0
LINE
  5
24945
  8
0
 10
4350.5023193256993181
 20
590.6951809360950847
 30
0.0
 11
4350.4929137610979524
 21
590.6580537059951439
 31
0.0
  0
ARC
  5
24946
  8
0
 10
4350.4560901305621883
 20
590.668681230257107
 30
0.0
 40
0.038326544820925
 50
299.4231666357251243
 51
343.9015376397089199
  0
ARC
  5
24947
  8
0
 10
4350.4483177434203753
 20
590.651791116867571
 30
0.0
 40
0.0150977586944653
 50
34.4249350827865968
 51
77.4136586085154761
  0
ARC
  5
24948
  8
0
 10
4350.4534275954410987
 20
590.6552931729402189
 30
0.0
 40
0.0089030041057534
 50
327.8133167496166038
 51
34.4249350827865968
  0
ARC
  5
24949
  8
0
 10
4350.4488264908741257
 20
590.6581891498640289
 30
0.0
 40
0.0143396248928685
 50
290.0953276863393739
 51
327.8133167496166038
  0
ARC
  5
2494A
  8
0
 10
4350.430976650660341
 20
590.733933253868372
 30
0.0
 40
0.0586945856090149
 50
62.5475912445306008
 51
103.7101183547580945
  0
ARC
  5
2494B
  8
0
 10
4350.4465127313542325
 20
590.6465476219493667
 30
0.0
 40
0.0206178717753126
 50
75.693175758511714
 51
104.3068242414883002
  0
ARC
  5
2494C
  8
0
 10
4350.4465127313542325
 20
590.6637613777498927
 30
0.0
 40
0.0203692357251736
 50
249.1778672719657948
 51
290.8221327280342052
  0
ARC
  5
2494D
  8
0
 10
4350.4464304836419615
 20
590.6853281865827512
 30
0.0
 40
0.0575721397440455
 50
243.0883666610716034
 51
299.6578185016657017
  0
ARC
  5
2494E
  8
0
 10
4350.1432559590857636
 20
590.5844338464379462
 30
0.0
 40
0.0393288925180277
 50
130.5927800977231925
 51
169.3522759799000994
  0
ARC
  5
2494F
  8
0
 10
4350.1638225280830738
 20
590.5798966347654186
 30
0.0
 40
0.0603832788098672
 50
168.7269557902527879
 51
195.430281187577009
  0
LINE
  5
24950
  8
0
 10
4350.1056157692992201
 20
590.5638307207951812
 30
0.0
 11
4350.123334938399239
 21
590.4938866295950675
 31
0.0
  0
ARC
  5
24951
  8
0
 10
4350.1599494422462158
 20
590.5044213719319259
 30
0.0
 40
0.0380999040418612
 50
196.0516103407059063
 51
237.4056202603590009
  0
ARC
  5
24952
  8
0
 10
4350.1678722774613561
 20
590.4860372624469846
 30
0.0
 40
0.0157562680458973
 50
107.1660159378510997
 51
141.0960734867134931
  0
ARC
  5
24953
  8
0
 10
4350.1623661801677372
 20
590.4910879441434872
 30
0.0
 40
0.0083129519486294
 50
144.3546151692086994
 51
213.1810448588030056
  0
ARC
  5
24954
  8
0
 10
4350.1668610885417365
 20
590.4943364996013315
 30
0.0
 40
0.0138552534320734
 50
214.2515800359583125
 51
249.5794284193071917
  0
ARC
  5
24955
  8
0
 10
4350.1321169429284055
 20
590.531546431286074
 30
0.0
 40
0.0943789721407992
 50
43.9279165348169087
 51
68.0427990924298882
  0
ARC
  5
24956
  8
0
 10
4350.131057562701244
 20
590.529764882530344
 30
0.0
 40
0.0963794649924953
 50
17.7702801931343188
 51
44.2537812941931676
  0
ARC
  5
24957
  8
0
 10
4350.1601113047918261
 20
590.5396451659322565
 30
0.0
 40
0.0656986964397057
 50
348.3122849979220064
 51
17.2979186348576697
  0
LINE
  5
24958
  8
0
 10
4350.2244478220991368
 20
590.5263360992952357
 30
0.0
 11
4350.2162275402988598
 21
590.4938866295950675
 31
0.0
  0
ARC
  5
24959
  8
0
 10
4350.1774943242917288
 20
590.5058332180741445
 30
0.0
 40
0.0405337266797177
 50
289.63301254622138
 51
342.8585292045054871
  0
ARC
  5
2495A
  8
0
 10
4350.1713559345080284
 20
590.4859253588441561
 30
0.0
 40
0.0159953851214584
 50
38.0727241308815465
 51
80.8437721798633362
  0
ARC
  5
2495B
  8
0
 10
4350.1773050390829667
 20
590.4910225436318569
 30
0.0
 40
0.0081760862047441
 50
330.8222376073543955
 51
35.6608761390971267
  0
ARC
  5
2495C
  8
0
 10
4350.1731035438342587
 20
590.4937921164680574
 30
0.0
 40
0.0131998657512118
 50
290.2956797532997939
 51
329.2167350306867206
  0
ARC
  5
2495D
  8
0
 10
4350.1468397298267519
 20
590.5719145514296997
 30
0.0
 40
0.0514540985860835
 50
66.4398225345602214
 51
124.5409701144399008
  0
ARC
  5
2495E
  8
0
 10
4350.1697974862827323
 20
590.4802964443239262
 30
0.0
 40
0.02181004476773
 50
79.1546626578913788
 51
107.5471876232436017
  0
ARC
  5
2495F
  8
0
 10
4350.1697788051797033
 20
590.5011937740953272
 30
0.0
 40
0.0213023532093268
 50
248.6600782581477063
 51
291.7776974096357208
  0
ARC
  5
24960
  8
0
 10
4350.1699044834913366
 20
590.521333410531156
 30
0.0
 40
0.0577155783400671
 50
238.1235194848080141
 51
291.5598820017127082
  0
ARC
  5
24961
  8
0
 10
4350.0420666831014387
 20
590.7057866104033792
 30
0.0
 40
0.0403518738606261
 50
118.4310663534155026
 51
154.3205980433793911
  0
ARC
  5
24962
  8
0
 10
4350.0517341691893307
 20
590.7008278796228069
 30
0.0
 40
0.0512140860606512
 50
154.0076708762987039
 51
171.5118914403516044
  0
ARC
  5
24963
  8
0
 10
4350.0662739163599326
 20
590.6987470005317391
 30
0.0
 40
0.0659017775717166
 50
171.5884350789667963
 51
186.772491444915488
  0
LINE
  5
24964
  8
0
 10
4350.0008319854987349
 20
590.6909753872952251
 30
0.0
 11
4350.0093716818992107
 21
590.6164965089950556
 31
0.0
  0
ARC
  5
24965
  8
0
 10
4350.0492346160717716
 20
590.6219613039706928
 30
0.0
 40
0.0402357739463113
 50
187.8059991596680902
 51
235.998792473654305
  0
ARC
  5
24966
  8
0
 10
4350.0529943893134259
 20
590.6053321133897498
 30
0.0
 40
0.0150977586944653
 50
102.5863413914844955
 51
145.5750649172134104
  0
ARC
  5
24967
  8
0
 10
4350.0478845372917931
 20
590.6088341694622841
 30
0.0
 40
0.0089030041057534
 50
145.5750649172134104
 51
212.1866832503833962
  0
ARC
  5
24968
  8
0
 10
4350.052485641858766
 20
590.611730146386094
 30
0.0
 40
0.0143396248928685
 50
212.1866832503833962
 51
249.9046723136605976
  0
ARC
  5
24969
  8
0
 10
4350.0349145811596827
 20
590.6640814800981616
 30
0.0
 40
0.0838061793403826
 50
42.8344379711953565
 51
70.0122625214252849
  0
ARC
  5
2496A
  8
0
 10
4350.0275784950472371
 20
590.6551943726736909
 30
0.0
 40
0.0952403550966335
 50
15.9186196801545794
 51
43.7545702470134188
  0
ARC
  5
2496B
  8
0
 10
4350.0562100354336508
 20
590.6627747602198042
 30
0.0
 40
0.0656301002785126
 50
338.4484101889079852
 51
16.4102407233504906
  0
LINE
  5
2496C
  8
0
 10
4350.1172517509003228
 20
590.6386662754952113
 30
0.0
 11
4350.1005692302978787
 21
590.6020772345951855
 31
0.0
  0
ARC
  5
2496D
  8
0
 10
4350.064498110445129
 20
590.6195284596859665
 30
0.0
 40
0.040070824108355
 50
289.1100366226644951
 51
334.182280592122197
  0
ARC
  5
2496E
  8
0
 10
4350.0566044134438926
 20
590.6053321133897498
 30
0.0
 40
0.0150977586944653
 50
34.4249350827865968
 51
77.4136586085154761
  0
ARC
  5
2496F
  8
0
 10
4350.0617142654646159
 20
590.6088341694622841
 30
0.0
 40
0.0089030041057534
 50
327.8133167496166038
 51
34.4249350827865968
  0
ARC
  5
24970
  8
0
 10
4350.057113160897643
 20
590.611730146386094
 30
0.0
 40
0.0143396248928685
 50
290.0953276863393739
 51
327.8133167496166038
  0
ARC
  5
24971
  8
0
 10
4350.045038726664643
 20
590.6945320643485502
 30
0.0
 40
0.0517368653726621
 50
69.0218650697163838
 51
115.3900157483381008
  0
ARC
  5
24972
  8
0
 10
4350.0547994013777497
 20
590.6000886184715455
 30
0.0
 40
0.0206178717753126
 50
75.693175758511714
 51
104.3068242414883002
  0
ARC
  5
24973
  8
0
 10
4350.0547994013777497
 20
590.6173023742719579
 30
0.0
 40
0.0203692357251736
 50
249.1778672719657948
 51
290.8221327280342052
  0
ARC
  5
24974
  8
0
 10
4350.0588705977579593
 20
590.6342296463353705
 30
0.0
 40
0.055806486035997
 50
234.840720871273902
 51
289.6279707350385024
  0
ARC
  5
24975
  8
0
 10
4349.9780589587753639
 20
590.5347182536196442
 30
0.0
 40
0.0421464436078731
 50
142.5718026441155075
 51
174.163003196070008
  0
ARC
  5
24976
  8
0
 10
4349.9944044309504534
 20
590.533023322688905
 30
0.0
 40
0.0585795456559137
 50
174.1396953464141859
 51
190.1413367851241105
  0
LINE
  5
24977
  8
0
 10
4349.9367401084991798
 20
590.5227088141951981
 30
0.0
 11
4349.9505346735986677
 21
590.4415686792950737
 31
0.0
  0
ARC
  5
24978
  8
0
 10
4349.9886779544121964
 20
590.449176440397423
 30
0.0
 40
0.0388945741740275
 50
191.2797495997999135
 51
232.0275624378261057
  0
ARC
  5
24979
  8
0
 10
4349.9947541983301562
 20
590.4307658623821453
 30
0.0
 40
0.0157562680458973
 50
107.1660159378510997
 51
141.0960734867134931
  0
ARC
  5
2497A
  8
0
 10
4349.9892481010383563
 20
590.4358165440786479
 30
0.0
 40
0.0083129519486294
 50
144.3546151692086994
 51
213.1810448588030056
  0
ARC
  5
2497B
  8
0
 10
4349.9937430094096271
 20
590.4390650995366059
 30
0.0
 40
0.0138552534320734
 50
214.2515800359583125
 51
249.5794284193071917
  0
ARC
  5
2497C
  8
0
 10
4349.9637641196177356
 20
590.4813932517198509
 30
0.0
 40
0.0939566653084374
 50
42.1607701457567074
 51
70.3716328771364346
  0
ARC
  5
2497D
  8
0
 10
4349.9662364511123087
 20
590.4790842525352446
 30
0.0
 40
0.0937344820651052
 50
13.4309335709650597
 51
44.2217837517765489
  0
ARC
  5
2497E
  8
0
 10
4350.0024406911506958
 20
590.4877943226676962
 30
0.0
 40
0.0564973256209244
 50
342.5055750439058784
 51
13.3674637457831498
  0
LINE
  5
2497F
  8
0
 10
4350.0563248011003452
 20
590.4708104921952554
 30
0.0
 11
4350.0428537880989097
 21
590.4333757876952404
 31
0.0
  0
ARC
  5
24980
  8
0
 10
4350.0067116689369868
 20
590.4472352031200444
 30
0.0
 40
0.0387083475942264
 50
288.9765572448915236
 51
339.0196838476043126
  0
ARC
  5
24981
  8
0
 10
4349.998237855375919
 20
590.4306539587795442
 30
0.0
 40
0.0159953851214584
 50
38.0727241308815465
 51
80.8437721798633362
  0
ARC
  5
24982
  8
0
 10
4350.0041869599499478
 20
590.435751143567245
 30
0.0
 40
0.0081760862047441
 50
330.8222376073543955
 51
35.6608761390971267
  0
ARC
  5
24983
  8
0
 10
4349.9999854647021493
 20
590.4385207164034455
 30
0.0
 40
0.0131998657512118
 50
290.2956797532997939
 51
329.2167350306867206
  0
ARC
  5
24984
  8
0
 10
4349.9776508811000895
 20
590.52427004136905
 30
0.0
 40
0.0489244782317554
 50
68.8217610265928528
 51
132.5129831830271883
  0
ARC
  5
24985
  8
0
 10
4349.9966794071497134
 20
590.4250250442592005
 30
0.0
 40
0.02181004476773
 50
79.1546626578913788
 51
107.5471876232436017
  0
ARC
  5
24986
  8
0
 10
4349.9966607260475939
 20
590.4459223740306015
 30
0.0
 40
0.0213023532093268
 50
248.6600782581477063
 51
291.7776974096357208
  0
ARC
  5
24987
  8
0
 10
4349.9991429822675855
 20
590.4638334729073676
 30
0.0
 40
0.0568929511294593
 50
232.8015878863662067
 51
290.7491959654768152
  0
ARC
  5
24988
  8
0
 10
4349.8273407425413097
 20
590.459356032873643
 30
0.0
 40
0.0298627200675582
 50
112.3256446026210966
 51
153.1187489033839029
  0
ARC
  5
24989
  8
0
 10
4349.8389030290973096
 20
590.454510848805171
 30
0.0
 40
0.042376055071751
 50
154.3440491526862957
 51
185.6897076421867041
  0
LINE
  5
2498A
  8
0
 10
4349.7967357440984415
 20
590.4503096442952028
 30
0.0
 11
4349.8030267170988736
 21
590.3658934440952635
 31
0.0
  0
ARC
  5
2498B
  8
0
 10
4349.8425183916097012
 20
590.3701627247035049
 30
0.0
 40
0.0397217712676683
 50
186.1700465890448015
 51
231.0084057136218973
  0
ARC
  5
2498C
  8
0
 10
4349.8460385075950398
 20
590.3507629781493051
 30
0.0
 40
0.0157562680458973
 50
107.1660159378510997
 51
141.0960734867134931
  0
ARC
  5
2498D
  8
0
 10
4349.8405324103032399
 20
590.3558136598459214
 30
0.0
 40
0.0083129519486294
 50
144.3546151692086994
 51
213.1810448588030056
  0
ARC
  5
2498E
  8
0
 10
4349.8450273186781487
 20
590.359062215303652
 30
0.0
 40
0.0138552534320734
 50
214.2515800359583125
 51
249.5794284193071917
  0
ARC
  5
2498F
  8
0
 10
4349.8163486309540531
 20
590.3929518559796179
 30
0.0
 40
0.0993040242495808
 50
45.8360843120426367
 51
72.5611923636210747
  0
ARC
  5
24990
  8
0
 10
4349.8152748937645811
 20
590.3899952274026646
 30
0.0
 40
0.1021811866802952
 50
17.7546272708296513
 51
46.5592611920026087
  0
ARC
  5
24991
  8
0
 10
4349.8711706297735873
 20
590.4046873770289494
 30
0.0
 40
0.0445721066186946
 50
335.2634901450887241
 51
21.6816194102843802
  0
LINE
  5
24992
  8
0
 10
4349.9116528765980547
 20
590.3860363614951439
 30
0.0
 11
4349.8941210626990141
 21
590.3489685328952419
 31
0.0
  0
ARC
  5
24993
  8
0
 10
4349.8613426801312016
 20
590.3646700878964566
 30
0.0
 40
0.0363450298292587
 50
295.2658307756622094
 51
334.404570040351814
  0
ARC
  5
24994
  8
0
 10
4349.8495221646417122
 20
590.350651074546704
 30
0.0
 40
0.0159953851214584
 50
38.0727241308815465
 51
80.8437721798633362
  0
ARC
  5
24995
  8
0
 10
4349.8554712692175599
 20
590.3557482593344048
 30
0.0
 40
0.0081760862047441
 50
330.8222376073543955
 51
35.6608761390971267
  0
ARC
  5
24996
  8
0
 10
4349.851269773968852
 20
590.358517832170719
 30
0.0
 40
0.0131998657512118
 50
290.2956797532997939
 51
329.2167350306867206
  0
ARC
  5
24997
  8
0
 10
4349.8321316748606478
 20
590.4416676453838591
 30
0.0
 40
0.0480995391306869
 50
73.1069159821162344
 51
109.5997783904930003
  0
ARC
  5
24998
  8
0
 10
4349.8479637164173255
 20
590.3450221600262466
 30
0.0
 40
0.02181004476773
 50
79.1546626578913788
 51
107.5471876232436017
  0
ARC
  5
24999
  8
0
 10
4349.8479450353142965
 20
590.3659194897976477
 30
0.0
 40
0.0213023532093268
 50
248.6600782581477063
 51
291.7776974096357208
  0
ARC
  5
2499A
  8
0
 10
4349.8531495627303229
 20
590.3827661082439135
 30
0.0
 40
0.0562077893885531
 50
230.6691374785741004
 51
294.9453665995695815
  0
ARC
  5
2499B
  8
0
 10
4349.9511211355602427
 20
590.3651339437263914
 30
0.0
 40
0.0291807477615406
 50
112.3725211788423053
 51
152.4124979050185118
  0
ARC
  5
2499C
  8
0
 10
4349.9631340126516079
 20
590.3614593521507459
 30
0.0
 40
0.0415935241485242
 50
155.5912173314613085
 51
196.3810685635577897
  0
LINE
  5
2499D
  8
0
 10
4349.923228885599201
 20
590.3497289605951437
 30
0.0
 11
4349.9427408335986911
 21
590.2727049259951855
 31
0.0
  0
ARC
  5
2499E
  8
0
 10
4349.978457984945635
 20
590.2826692727154523
 30
0.0
 40
0.0370810343159769
 50
195.5880031892646969
 51
233.2346895478281112
  0
ARC
  5
2499F
  8
0
 10
4349.9867967267236963
 20
590.2650777086602147
 30
0.0
 40
0.0157562680458973
 50
107.1660159378510997
 51
141.0960734867134931
  0
ARC
  5
249A0
  8
0
 10
4349.9812906294309869
 20
590.2701283903566036
 30
0.0
 40
0.0083129519486294
 50
144.3546151692086994
 51
213.1810448588030056
  0
ARC
  5
249A1
  8
0
 10
4349.9857855378049862
 20
590.2733769458144479
 30
0.0
 40
0.0138552534320734
 50
214.2515800359583125
 51
249.5794284193071917
  0
ARC
  5
249A2
  8
0
 10
4349.9416128804123218
 20
590.2904140372609163
 30
0.0
 40
0.1072321931690646
 50
45.54197009319698
 51
69.1175315093884137
  0
ARC
  5
249A3
  8
0
 10
4349.9542745881935843
 20
590.2994422524797073
 30
0.0
 40
0.0919601546781569
 50
15.9832887186580805
 51
47.2333144878998183
  0
ARC
  5
249A4
  8
0
 10
4349.9970513367888998
 20
590.3125953458768436
 30
0.0
 40
0.0472232080450425
 50
347.6990134726086126
 51
14.9328232417359708
  0
LINE
  5
249A5
  8
0
 10
4350.0431903899989265
 20
590.3025345731950893
 30
0.0
 11
4350.0356334354983119
 21
590.2727049259951855
 31
0.0
  0
ARC
  5
249A6
  8
0
 10
4349.9973341397717377
 20
590.2843092937421261
 30
0.0
 40
0.0400187131722814
 50
291.0216714968710221
 51
343.1436283583918794
  0
ARC
  5
249A7
  8
0
 10
4349.9902803837703686
 20
590.2649658050574999
 30
0.0
 40
0.0159953851214584
 50
38.0727241308815465
 51
80.8437721798633362
  0
ARC
  5
249A8
  8
0
 10
4349.9962294883453069
 20
590.270062989845087
 30
0.0
 40
0.0081760862047441
 50
330.8222376073543955
 51
35.6608761390971267
  0
ARC
  5
249A9
  8
0
 10
4349.99202799309478
 20
590.2728325626814012
 30
0.0
 40
0.0131998657512118
 50
290.2956797532997939
 51
329.2167350306867206
  0
ARC
  5
249AA
  8
0
 10
4349.9579782732007516
 20
590.3402113192620391
 30
0.0
 40
0.0549275488902489
 50
66.5506728670477941
 51
109.0898873479572018
  0
ARC
  5
249AB
  8
0
 10
4349.988721935544163
 20
590.2593368905371563
 30
0.0
 40
0.02181004476773
 50
79.1546626578913788
 51
107.5471876232436017
  0
ARC
  5
249AC
  8
0
 10
4349.988703254441134
 20
590.2802342203084436
 30
0.0
 40
0.0213023532093268
 50
248.6600782581477063
 51
291.7776974096357208
  0
ARC
  5
249AD
  8
0
 10
4349.9894260837372713
 20
590.3002168960310883
 30
0.0
 40
0.0577286832200466
 50
234.9385234755609986
 51
292.6846839331100227
  0
ARC
  5
249AE
  8
0
 10
4349.8300352178794128
 20
590.2818139136913942
 30
0.0
 40
0.0263499644022377
 50
120.9555179321005056
 51
166.3356067151925117
  0
ARC
  5
249AF
  8
0
 10
4349.8421201617593397
 20
590.2791990091318439
 30
0.0
 40
0.0387118610243692
 50
166.8003291056108139
 51
189.8502070914975093
  0
LINE
  5
249B0
  8
0
 10
4349.8039789766989998
 20
590.2725764577952532
 30
0.0
 11
4349.817547260999163
 21
590.1842039875950832
 31
0.0
  0
ARC
  5
249B1
  8
0
 10
4349.8548584444370135
 20
590.1909859228837831
 30
0.0
 40
0.0379225402086813
 50
190.3019979825753865
 51
230.4795799976758985
  0
ARC
  5
249B2
  8
0
 10
4349.8612042856420885
 20
590.1719757551909424
 30
0.0
 40
0.0157562680458973
 50
107.1660159378510997
 51
141.0960734867134931
  0
ARC
  5
249B3
  8
0
 10
4349.8556981883493791
 20
590.177026436887445
 30
0.0
 40
0.0083129519486294
 50
144.3546151692086994
 51
213.1810448588030056
  0
ARC
  5
249B4
  8
0
 10
4349.8601930967233784
 20
590.1802749923452893
 30
0.0
 40
0.0138552534320734
 50
214.2515800359583125
 51
249.5794284193071917
  0
ARC
  5
249B5
  8
0
 10
4349.8247765234427789
 20
590.2117072194888578
 30
0.0
 40
0.098362949491717
 50
54.2201251080781219
 51
77.2561395009220604
  0
ARC
  5
249B6
  8
0
 10
4349.817442140233652
 20
590.197837461481754
 30
0.0
 40
0.1139237333095186
 50
25.0299749328262884
 51
55.3060735950337019
  0
ARC
  5
249B7
  8
0
 10
4349.8752273994241477
 20
590.2252074249994394
 30
0.0
 40
0.0499864968615477
 50
345.6435473402232219
 51
24.6275833364125916
  0
LINE
  5
249B8
  8
0
 10
4349.9236529127983886
 20
590.2128130906952492
 30
0.0
 11
4349.9099328506990787
 21
590.1750960469952361
 31
0.0
  0
ARC
  5
249B9
  8
0
 10
4349.8749811884235896
 20
590.1886092853911805
 30
0.0
 40
0.0374730077213489
 50
293.3621767666472238
 51
338.8621779234618998
  0
ARC
  5
249BA
  8
0
 10
4349.8646879426878513
 20
590.1718638515882276
 30
0.0
 40
0.0159953851214584
 50
38.0727241308815465
 51
80.8437721798633362
  0
ARC
  5
249BB
  8
0
 10
4349.8706370472627896
 20
590.1769610363759284
 30
0.0
 40
0.0081760862047441
 50
330.8222376073543955
 51
35.6608761390971267
  0
ARC
  5
249BC
  8
0
 10
4349.8664355520149911
 20
590.1797306092122426
 30
0.0
 40
0.0131998657512118
 50
290.2956797532997939
 51
329.2167350306867206
  0
ARC
  5
249BD
  8
0
 10
4349.8359309026691335
 20
590.2647618848143338
 30
0.0
 40
0.0441623433573231
 50
76.1871815693358343
 51
116.1298166735139006
  0
ARC
  5
249BE
  8
0
 10
4349.8631294944643741
 20
590.1662349370678839
 30
0.0
 40
0.02181004476773
 50
79.1546626578913788
 51
107.5471876232436017
  0
ARC
  5
249BF
  8
0
 10
4349.8631108133586167
 20
590.187132266839285
 30
0.0
 40
0.0213023532093268
 50
248.6600782581477063
 51
291.7776974096357208
  0
ARC
  5
249C0
  8
0
 10
4349.8664885682328531
 20
590.2067211914846894
 30
0.0
 40
0.0574710008806819
 50
231.518196684038287
 51
293.97455130889972
  0
ARC
  5
249C1
  8
0
 10
4349.7468678752293272
 20
590.1753448564041946
 30
0.0
 40
0.0206460890433594
 50
116.7124713671754961
 51
163.8719789943980913
  0
ARC
  5
249C2
  8
0
 10
4349.7571061139333324
 20
590.1726948459548794
 30
0.0
 40
0.0312189427270566
 50
164.4194703505108919
 51
183.6705357701617913
  0
LINE
  5
249C3
  8
0
 10
4349.7259512114987956
 20
590.1706962365951767
 30
0.0
 11
4349.7313782353003262
 21
590.0794760479951719
 31
0.0
  0
ARC
  5
249C4
  8
0
 10
4349.769827605789942
 20
590.083256751617796
 30
0.0
 40
0.0386348005177397
 50
185.6158070583057906
 51
231.3668251675223928
  0
ARC
  5
249C5
  8
0
 10
4349.7744325606381608
 20
590.0626771614214476
 30
0.0
 40
0.0157562680458973
 50
107.1660159378510997
 51
141.0960734867134931
  0
ARC
  5
249C6
  8
0
 10
4349.7689264633463608
 20
590.0677278431179502
 30
0.0
 40
0.0083129519486294
 50
144.3546151692086994
 51
213.1810448588030056
  0
ARC
  5
249C7
  8
0
 10
4349.7734213717176317
 20
590.0709763985757945
 30
0.0
 40
0.0138552534320734
 50
214.2515800359583125
 51
249.5794284193071917
  0
ARC
  5
249C8
  8
0
 10
4349.7345845281915899
 20
590.0869172983803992
 30
0.0
 40
0.1127093396236467
 50
52.9456353343405013
 51
72.8396254160536216
  0
ARC
  5
249C9
  8
0
 10
4349.7312986361275762
 20
590.0803116848502441
 30
0.0
 40
0.119968717456054
 50
27.7719727965523902
 51
53.5942196516529208
  0
ARC
  5
249CA
  8
0
 10
4349.7956388381271609
 20
590.1144404411445521
 30
0.0
 40
0.0471380041685853
 50
344.9905729518260955
 51
27.5071596673065599
  0
LINE
  5
249CB
  8
0
 10
4349.841168645799371
 20
590.1022327365950559
 30
0.0
 11
4349.8227102890987226
 21
590.0622420203950469
 31
0.0
  0
ARC
  5
249CC
  8
0
 10
4349.7902414107184086
 20
590.0777071437756831
 30
0.0
 40
0.0359638444063457
 50
290.0206486941040112
 51
334.5312570521415978
  0
ARC
  5
249CD
  8
0
 10
4349.7779162176839236
 20
590.0625652578185054
 30
0.0
 40
0.0159953851214584
 50
38.0727241308815465
 51
80.8437721798633362
  0
ARC
  5
249CE
  8
0
 10
4349.7838653222579524
 20
590.0676624426064336
 30
0.0
 40
0.0081760862047441
 50
330.8222376073543955
 51
35.6608761390971267
  0
ARC
  5
249CF
  8
0
 10
4349.7796638270101539
 20
590.0704320154426341
 30
0.0
 40
0.0131998657512118
 50
290.2956797532997939
 51
329.2167350306867206
  0
ARC
  5
249D0
  8
0
 10
4349.753868370426062
 20
590.1516649421364491
 30
0.0
 40
0.0451595374121859
 50
71.9790794603378146
 51
111.1325062857796979
  0
ARC
  5
249D1
  8
0
 10
4349.7763577694577179
 20
590.0569363432983891
 30
0.0
 40
0.02181004476773
 50
79.1546626578913788
 51
107.5471876232436017
  0
ARC
  5
249D2
  8
0
 10
4349.776339088354689
 20
590.0778336730695628
 30
0.0
 40
0.0213023532093268
 50
248.6600782581477063
 51
291.7776974096357208
  0
ARC
  5
249D3
  8
0
 10
4349.7822045852626616
 20
590.0986048614713582
 30
0.0
 40
0.0583515241702725
 50
231.2823083322236073
 51
290.4101128367964861
  0
ARC
  5
249D4
  8
0
 10
4349.882432612381308
 20
590.1092643896161007
 30
0.0
 40
0.0248974905661855
 50
99.6365032065190661
 51
148.7881805248964042
  0
ARC
  5
249D5
  8
0
 10
4349.8873096686938879
 20
590.1099400304603932
 30
0.0
 40
0.0288858922904115
 50
154.9592440032137119
 51
196.5922580355596097
  0
LINE
  5
249D6
  8
0
 10
4349.8596265511978345
 20
590.10169140759524
 30
0.0
 11
4349.8800211591988045
 21
590.0211863728951585
 31
0.0
  0
ARC
  5
249D7
  8
0
 10
4349.9175161384073363
 20
590.0323808614233485
 30
0.0
 40
0.0391304234471636
 50
196.623503272318203
 51
232.7376386043466994
  0
ARC
  5
249D8
  8
0
 10
4349.9243571842525853
 20
590.0133519031633114
 30
0.0
 40
0.0157562680458973
 50
107.1660159378510997
 51
141.0960734867134931
  0
ARC
  5
249D9
  8
0
 10
4349.9188510869598758
 20
590.0184025848598139
 30
0.0
 40
0.0083129519486294
 50
144.3546151692086994
 51
213.1810448588030056
  0
ARC
  5
249DA
  8
0
 10
4349.9233459953338752
 20
590.0216511403176582
 30
0.0
 40
0.0138552534320734
 50
214.2515800359583125
 51
249.5794284193071917
  0
ARC
  5
249DB
  8
0
 10
4349.8720590577377152
 20
590.015467054579176
 30
0.0
 40
0.1214652185868248
 50
49.4072347720801091
 51
73.2996787063613056
  0
ARC
  5
249DC
  8
0
 10
4349.8914217889087013
 20
590.0340077025033452
 30
0.0
 40
0.0948241372599732
 50
23.4841881545692388
 51
51.0021052115707576
  0
ARC
  5
249DD
  8
0
 10
4349.9477153793213802
 20
590.0582255028945156
 30
0.0
 40
0.0335433719449067
 50
347.8113793697033884
 51
23.861558853436371
  0
LINE
  5
249DE
  8
0
 10
4349.9805026113990607
 20
590.0511434682952085
 30
0.0
 11
4349.9729137610984253
 21
590.0211863728951585
 31
0.0
  0
ARC
  5
249DF
  8
0
 10
4349.9357811876770938
 20
590.0312716416752892
 30
0.0
 40
0.0384777943146417
 50
290.4900747548268214
 51
344.8049261148312894
  0
ARC
  5
249E0
  8
0
 10
4349.9278408413001671
 20
590.0132399995604828
 30
0.0
 40
0.0159953851214584
 50
38.0727241308815465
 51
80.8437721798633362
  0
ARC
  5
249E1
  8
0
 10
4349.9337899458741958
 20
590.0183371843482973
 30
0.0
 40
0.0081760862047441
 50
330.8222376073543955
 51
35.6608761390971267
  0
ARC
  5
249E2
  8
0
 10
4349.9295884506245784
 20
590.0211067571846115
 30
0.0
 40
0.0131998657512118
 50
290.2956797532997939
 51
329.2167350306867206
  0
ARC
  5
249E3
  8
0
 10
4349.888251619942821
 20
590.0702548946469506
 30
0.0
 40
0.0643355188196209
 50
73.0907645287535388
 51
98.9301064531610308
  0
ARC
  5
249E4
  8
0
 10
4349.9262823930739614
 20
590.0076110850402529
 30
0.0
 40
0.02181004476773
 50
79.1546626578913788
 51
107.5471876232436017
  0
ARC
  5
249E5
  8
0
 10
4349.9262637119709325
 20
590.0285084148116539
 30
0.0
 40
0.0213023532093268
 50
248.6600782581477063
 51
291.7776974096357208
  0
ARC
  5
249E6
  8
0
 10
4349.9269865412652507
 20
590.0484910905341849
 30
0.0
 40
0.0577286832200466
 50
234.9385234755609986
 51
292.6846839331100227
  0
ARC
  5
249E7
  8
0
 10
4349.8248607483583328
 20
590.0023488169164239
 30
0.0
 40
0.0233220275242062
 50
95.8180652967066351
 51
142.8891218264564884
  0
ARC
  5
249E8
  8
0
 10
4349.8258492078957715
 20
590.0054930562714617
 30
0.0
 40
0.022428987036176
 50
150.843514470924589
 51
189.9870272706023968
  0
LINE
  5
249E9
  8
0
 10
4349.8037600862990075
 20
590.0016033047952533
 30
0.0
 11
4349.8180208479716384
 21
589.9093803538695511
 31
0.0
  0
ARC
  5
249EA
  8
0
 10
4349.8553320314122175
 20
589.916162289158251
 30
0.0
 40
0.0379225402086813
 50
190.3019979825753865
 51
230.4795799976758985
  0
ARC
  5
249EB
  8
0
 10
4349.861677872616383
 20
589.8971521214654103
 30
0.0
 40
0.0157562680458973
 50
107.1660159378510997
 51
141.0960734867134931
  0
ARC
  5
249EC
  8
0
 10
4349.8561717753236735
 20
589.9022028031619129
 30
0.0
 40
0.0083129519486294
 50
144.3546151692086994
 51
213.1810448588030056
  0
ARC
  5
249ED
  8
0
 10
4349.8606666836967634
 20
589.9054513586197572
 30
0.0
 40
0.0138552534320734
 50
214.2515800359583125
 51
249.5794284193071917
  0
ARC
  5
249EE
  8
0
 10
4349.8078446083181916
 20
589.8952031243732108
 30
0.0
 40
0.1339518184916964
 50
52.0911417120125293
 51
69.9352046944849235
  0
ARC
  5
249EF
  8
0
 10
4349.8213772303497535
 20
589.9091760264332152
 30
0.0
 40
0.1146319022739825
 50
31.6080601368894492
 51
53.1368515450869623
  0
ARC
  5
249F0
  8
0
 10
4349.8890386721295727
 20
589.948955450406288
 30
0.0
 40
0.0361938493230892
 50
347.697248357497017
 51
34.1155403458048028
  0
LINE
  5
249F1
  8
0
 10
4349.9244013420993724
 20
589.9412433623950847
 30
0.0
 11
4349.9104064376742826
 21
589.900272413269704
 31
0.0
  0
ARC
  5
249F2
  8
0
 10
4349.8754547753987936
 20
589.9137856516657621
 30
0.0
 40
0.0374730077213489
 50
293.3621767666472238
 51
338.8621779234618998
  0
ARC
  5
249F3
  8
0
 10
4349.8651615296621458
 20
589.8970402178625818
 30
0.0
 40
0.0159953851214584
 50
38.0727241308815465
 51
80.8437721798633362
  0
ARC
  5
249F4
  8
0
 10
4349.8711106342379935
 20
589.9021374026503963
 30
0.0
 40
0.0081760862047441
 50
330.8222376073543955
 51
35.6608761390971267
  0
ARC
  5
249F5
  8
0
 10
4349.8669091389883761
 20
589.9049069754867105
 30
0.0
 40
0.0131998657512118
 50
290.2956797532997939
 51
329.2167350306867206
  0
ARC
  5
249F6
  8
0
 10
4349.8279386975518719
 20
589.9526670552388623
 30
0.0
 40
0.0730865467104539
 50
69.2763692928044748
 51
94.2702573951759888
  0
ARC
  5
249F7
  8
0
 10
4349.8636030814368496
 20
589.8914113033423519
 30
0.0
 40
0.02181004476773
 50
79.1546626578913788
 51
107.5471876232436017
  0
ARC
  5
249F8
  8
0
 10
4349.8635844003338207
 20
589.9123086331137529
 30
0.0
 40
0.0213023532093268
 50
248.6600782581477063
 51
291.7776974096357208
  0
ARC
  5
249F9
  8
0
 10
4349.8669621552062381
 20
589.9318975577591573
 30
0.0
 40
0.0574710008806819
 50
231.518196684038287
 51
293.97455130889972
  0
ARC
  5
249FA
  8
0
 10
4349.8124264049329213
 20
589.8843081709478611
 30
0.0
 40
0.017533435122308
 50
97.1254699635565117
 51
134.6253739749836029
  0
ARC
  5
249FB
  8
0
 10
4349.8103248375618932
 20
589.8875090773962029
 30
0.0
 40
0.0137995672747469
 50
137.7526266730791917
 51
187.0572260534295026
  0
LINE
  5
249FC
  8
0
 10
4349.7966298166993511
 20
589.8858136539952284
 30
0.0
 11
4349.8028778647558283
 21
589.7923989123055435
 31
0.0
  0
ARC
  5
249FD
  8
0
 10
4349.8413272352472632
 20
589.7961796159281676
 30
0.0
 40
0.0386348005177397
 50
185.6158070583057906
 51
231.3668251675223928
  0
ARC
  5
249FE
  8
0
 10
4349.8458532084960098
 20
589.7752050977916269
 30
0.0
 40
0.0157562680458973
 50
107.1660159378510997
 51
141.0960734867134931
  0
ARC
  5
249FF
  8
0
 10
4349.8403471112042098
 20
589.7802557794881295
 30
0.0
 40
0.0083129519486294
 50
144.3546151692086994
 51
213.1810448588030056
  0
ARC
  5
24A00
  8
0
 10
4349.8448420195782091
 20
589.7835043349458601
 30
0.0
 40
0.0138552534320734
 50
214.2515800359583125
 51
249.5794284193071917
  0
ARC
  5
24A01
  8
0
 10
4349.815209515701099
 20
589.7854296924234632
 30
0.0
 40
0.1113097603907295
 50
30.4546239151262199
 51
54.3936665671392774
  0
ARC
  5
24A02
  8
0
 10
4349.8857657019207181
 20
589.8277331934559697
 30
0.0
 40
0.0290549329415578
 50
347.5354836926335906
 51
29.0640266930463191
  0
LINE
  5
24A03
  8
0
 10
4349.9141358060978746
 20
589.8214621235950972
 30
0.0
 11
4349.8942099185560437
 21
589.7751648847055321
 31
0.0
  0
ARC
  5
24A04
  8
0
 10
4349.8617410401739107
 20
589.7906300080860547
 30
0.0
 40
0.0359638444063457
 50
290.0206486941040112
 51
334.5312570521415978
  0
ARC
  5
24A05
  8
0
 10
4349.8493368655435916
 20
589.7750931941887984
 30
0.0
 40
0.0159953851214584
 50
38.0727241308815465
 51
80.8437721798633362
  0
ARC
  5
24A06
  8
0
 10
4349.8552859701176203
 20
589.7801903789764992
 30
0.0
 40
0.0081760862047441
 50
330.8222376073543955
 51
35.6608761390971267
  0
ARC
  5
24A07
  8
0
 10
4349.8510844748689124
 20
589.7829599518128134
 30
0.0
 40
0.0131998657512118
 50
290.2956797532997939
 51
329.2167350306867206
  0
ARC
  5
24A08
  8
0
 10
4349.8166271355639765
 20
589.8629548823771529
 30
0.0
 40
0.0392722890484288
 50
84.8905425048828306
 51
99.3429808475743101
  0
ARC
  5
24A09
  8
0
 10
4349.8477784173182954
 20
589.7694642796684548
 30
0.0
 40
0.02181004476773
 50
79.1546626578913788
 51
107.5471876232436017
  0
ARC
  5
24A0A
  8
0
 10
4349.847759736214357
 20
589.7903616094398558
 30
0.0
 40
0.0213023532093268
 50
248.6600782581477063
 51
291.7776974096357208
  0
ARC
  5
24A0B
  8
0
 10
4349.8537042147208922
 20
589.8115277257818434
 30
0.0
 40
0.0583515241702725
 50
231.2823083322236073
 51
290.4101128367964861
  0
ARC
  5
24A0C
  8
0
 10
4349.9437750058041274
 20
589.8445043752482206
 30
0.0
 40
0.0284796403792341
 50
92.6712710909364432
 51
127.4533017725227069
  0
ARC
  5
24A0D
  8
0
 10
4349.9389366875702763
 20
589.8551176293254912
 30
0.0
 40
0.0173104438168498
 50
136.1358492634124957
 51
196.4962071380732027
  0
LINE
  5
24A0E
  8
0
 10
4349.9223387669990188
 20
589.8502022963951958
 30
0.0
 11
4349.9430478688209405
 21
589.7695710182149469
 31
0.0
  0
ARC
  5
24A0F
  8
0
 10
4349.9805428480276532
 20
589.7807655067431369
 30
0.0
 40
0.0391304234471636
 50
196.623503272318203
 51
232.7376386043466994
  0
ARC
  5
24A10
  8
0
 10
4349.9873838938738118
 20
589.7617365484832135
 30
0.0
 40
0.0157562680458973
 50
107.1660159378510997
 51
141.0960734867134931
  0
ARC
  5
24A11
  8
0
 10
4349.9818777965820118
 20
589.7667872301797161
 30
0.0
 40
0.0083129519486294
 50
144.3546151692086994
 51
213.1810448588030056
  0
ARC
  5
24A12
  8
0
 10
4349.9863727049560111
 20
589.7700357856375604
 30
0.0
 40
0.0138552534320734
 50
214.2515800359583125
 51
249.5794284193071917
  0
ARC
  5
24A13
  8
0
 10
4349.9314257407477271
 20
589.7355468069692961
 30
0.0
 40
0.1394221886320539
 50
53.2418825086080005
 51
75.1906981732124251
  0
ARC
  5
24A14
  8
0
 10
4349.9593806649236285
 20
589.7701818753920406
 30
0.0
 40
0.0949590323295312
 50
31.1293459335860092
 51
54.249372131877422
  0
ARC
  5
24A15
  8
0
 10
4350.0156750443802594
 20
589.8057727398461338
 30
0.0
 40
0.0284041671173352
 50
352.4230676742412811
 51
28.3783788403844213
  0
LINE
  5
24A16
  8
0
 10
4350.0438312063988633
 20
589.802027442795179
 30
0.0
 11
4350.0359404707196518
 21
589.7695710182149469
 31
0.0
  0
ARC
  5
24A17
  8
0
 10
4349.9988078972983203
 20
589.7796562869951913
 30
0.0
 40
0.0384777943146417
 50
290.4900747548268214
 51
344.8049261148312894
  0
ARC
  5
24A18
  8
0
 10
4349.9908675509213936
 20
589.7616246448802713
 30
0.0
 40
0.0159953851214584
 50
38.0727241308815465
 51
80.8437721798633362
  0
ARC
  5
24A19
  8
0
 10
4349.9968166554963318
 20
589.7667218296681995
 30
0.0
 40
0.0081760862047441
 50
330.8222376073543955
 51
35.6608761390971267
  0
ARC
  5
24A1A
  8
0
 10
4349.9926151602458049
 20
589.7694914025044
 30
0.0
 40
0.0131998657512118
 50
290.2956797532997939
 51
329.2167350306867206
  0
ARC
  5
24A1B
  8
0
 10
4349.946395980017769
 20
589.792974558695505
 30
0.0
 40
0.0800759078967537
 50
75.0434923702926397
 51
92.8262159251828507
  0
ARC
  5
24A1C
  8
0
 10
4349.9893091026960974
 20
589.755995730360155
 30
0.0
 40
0.02181004476773
 50
79.1546626578913788
 51
107.5471876232436017
  0
ARC
  5
24A1D
  8
0
 10
4349.989290421592159
 20
589.7768930601314423
 30
0.0
 40
0.0213023532093268
 50
248.6600782581477063
 51
291.7776974096357208
  0
ARC
  5
24A1E
  8
0
 10
4349.9900132508873867
 20
589.7968757358539733
 30
0.0
 40
0.0577286832200466
 50
234.9385234755609986
 51
292.6846839331100227
  0
ARC
  5
24A1F
  8
0
 10
4349.9518217479271698
 20
589.7385157130903508
 30
0.0
 40
0.0192565697839078
 50
98.3378530679153471
 51
132.3654393586257072
  0
ARC
  5
24A20
  8
0
 10
4349.9471261600201615
 20
589.74493071994209
 30
0.0
 40
0.0113846425032772
 50
136.6644248256866092
 51
192.826318777402804
  0
LINE
  5
24A21
  8
0
 10
4349.9360255929977939
 20
589.7424033701952339
 30
0.0
 11
4349.9504444498979865
 21
589.6511809196952072
 31
0.0
  0
ARC
  5
24A22
  8
0
 10
4349.985925302808937
 20
589.657445971915763
 30
0.0
 40
0.0360297349771592
 50
190.0138136642023881
 51
239.9451856722955938
  0
ARC
  5
24A23
  8
0
 10
4349.994757829667833
 20
589.6384218344364854
 30
0.0
 40
0.0157562680458973
 50
107.1660159378510997
 51
141.0960734867134931
  0
ARC
  5
24A24
  8
0
 10
4349.9892517323751235
 20
589.6434725161329879
 30
0.0
 40
0.0083129519486294
 50
144.3546151692086994
 51
213.1810448588030056
  0
ARC
  5
24A25
  8
0
 10
4349.9937466407473039
 20
589.6467210715907186
 30
0.0
 40
0.0138552534320734
 50
214.2515800359583125
 51
249.5794284193071917
  0
ARC
  5
24A26
  8
0
 10
4349.924464274339698
 20
589.5829232301467755
 30
0.0
 40
0.1810628381966133
 50
50.8181298004314002
 51
61.8924245052498279
  0
ARC
  5
24A27
  8
0
 10
4349.9910548070047298
 20
589.6645577268501484
 30
0.0
 40
0.0757134865482146
 50
33.3693862745919674
 51
50.8498430103793169
  0
ARC
  5
24A28
  8
0
 10
4350.0347982641005729
 20
589.6924628172199618
 30
0.0
 40
0.023844707086361
 50
351.5796066670902178
 51
35.1855534039994566
  0
LINE
  5
24A29
  8
0
 10
4350.0583859317994211
 20
589.6889711143951445
 30
0.0
 11
4350.0432231295981182
 21
589.6435035482951434
 31
0.0
  0
ARC
  5
24A2A
  8
0
 10
4350.0063736606143721
 20
589.6583100650352662
 30
0.0
 40
0.0397129236208605
 50
290.6224260765283134
 51
338.1092028638587976
  0
ARC
  5
24A2B
  8
0
 10
4349.9982414867154148
 20
589.6383099308336568
 30
0.0
 40
0.0159953851214584
 50
38.0727241308815465
 51
80.8437721798633362
  0
ARC
  5
24A2C
  8
0
 10
4350.0041905912894435
 20
589.643407115621244
 30
0.0
 40
0.0081760862047441
 50
330.8222376073543955
 51
35.6608761390971267
  0
ARC
  5
24A2D
  8
0
 10
4349.9999890960398261
 20
589.6461766884575582
 30
0.0
 40
0.0131998657512118
 50
290.2956797532997939
 51
329.2167350306867206
  0
ARC
  5
24A2E
  8
0
 10
4349.9966830384882996
 20
589.6326810163133132
 30
0.0
 40
0.02181004476773
 50
79.1546626578913788
 51
107.5471876232436017
  0
ARC
  5
24A2F
  8
0
 10
4349.9966643573852707
 20
589.6535783460847142
 30
0.0
 40
0.0213023532093268
 50
248.6600782581477063
 51
291.7776974096357208
  0
ARC
  5
24A30
  8
0
 10
4349.9993308752982557
 20
589.6771192574224187
 30
0.0
 40
0.0597973904775313
 50
238.2679552256122975
 51
290.5905650311956947
  0
LINE
  5
24A31
  8
0
 10
4350.0016623351448288
 20
589.6173673352532205
 30
0.0
 11
4350.0092795310993097
 21
589.5381052170952216
 31
0.0
  0
ARC
  5
24A32
  8
0
 10
4350.0443863700047586
 20
589.5426484483216427
 30
0.0
 40
0.0353995916358493
 50
187.3737555270014923
 51
237.5956110833087109
  0
ARC
  5
24A33
  8
0
 10
4350.0531512548441242
 20
589.5219139391402905
 30
0.0
 40
0.0157562680458973
 50
107.1660159378510997
 51
141.0960734867134931
  0
ARC
  5
24A34
  8
0
 10
4350.0476451575523242
 20
589.5269646208367931
 30
0.0
 40
0.0083129519486294
 50
144.3546151692086994
 51
213.1810448588030056
  0
ARC
  5
24A35
  8
0
 10
4350.0521400659254141
 20
589.5302131762946374
 30
0.0
 40
0.0138552534320734
 50
214.2515800359583125
 51
249.5794284193071917
  0
ARC
  5
24A36
  8
0
 10
4349.9893064847856294
 20
589.455643700999758
 30
0.0
 40
0.1880800255832599
 50
49.9224933261990529
 51
74.4351614379911695
  0
LINE
  5
24A37
  8
0
 10
4350.118121812204663
 20
589.5690640490987562
 30
0.0
 11
4350.1018067840977892
 21
589.5257869139951481
 31
0.0
  0
ARC
  5
24A38
  8
0
 10
4350.0695418824234366
 20
589.5391396893478486
 30
0.0
 40
0.0349187698772386
 50
292.3333702176328188
 51
337.5178644881556238
  0
ARC
  5
24A39
  8
0
 10
4350.056634911889887
 20
589.521802035537462
 30
0.0
 40
0.0159953851214584
 50
38.0727241308815465
 51
80.8437721798633362
  0
ARC
  5
24A3A
  8
0
 10
4350.0625840164648253
 20
589.5268992203251628
 30
0.0
 40
0.0081760862047441
 50
330.8222376073543955
 51
35.6608761390971267
  0
ARC
  5
24A3B
  8
0
 10
4350.0583825212170268
 20
589.5296687931613633
 30
0.0
 40
0.0131998657512118
 50
290.2956797532997939
 51
329.2167350306867206
  0
ARC
  5
24A3C
  8
0
 10
4350.0550764636645908
 20
589.516173121017232
 30
0.0
 40
0.02181004476773
 50
79.1546626578913788
 51
107.5471876232436017
  0
ARC
  5
24A3D
  8
0
 10
4350.0550577825615619
 20
589.5370704507885193
 30
0.0
 40
0.0213023532093268
 50
248.6600782581477063
 51
291.7776974096357208
  0
ARC
  5
24A3E
  8
0
 10
4350.059617959613206
 20
589.5631600705504525
 30
0.0
 40
0.0609084103777574
 50
235.8382932846321012
 51
292.3821837756424884
  0
ARC
  5
24A3F
  8
0
 10
4350.1266554569701839
 20
589.5999722895186324
 30
0.0
 40
0.0414673743267618
 50
88.1412094162132007
 51
115.936533659931996
  0
ARC
  5
24A40
  8
0
 10
4350.1138283991531353
 20
589.6283193054583762
 30
0.0
 40
0.010401136969362
 50
120.6969256477058963
 51
196.9077691568099908
  0
LINE
  5
24A41
  8
0
 10
4350.1038768600992626
 20
589.6252943226952539
 30
0.0
 11
4350.1233348721989387
 21
589.5484861076952257
 31
0.0
  0
ARC
  5
24A42
  8
0
 10
4350.1579419769577726
 20
589.5577643299061492
 30
0.0
 40
0.0358292772360101
 50
195.0081502178304902
 51
230.775692486323095
  0
ARC
  5
24A43
  8
0
 10
4350.1683018848998472
 20
589.5409574713307848
 30
0.0
 40
0.0157562680458973
 50
107.1660159378510997
 51
141.0960734867134931
  0
ARC
  5
24A44
  8
0
 10
4350.1627957876071378
 20
589.546008153027401
 30
0.0
 40
0.0083129519486294
 50
144.3546151692086994
 51
213.1810448588030056
  0
ARC
  5
24A45
  8
0
 10
4350.1672906959802276
 20
589.5492567084852453
 30
0.0
 40
0.0138552534320734
 50
214.2515800359583125
 51
249.5794284193071917
  0
ARC
  5
24A46
  8
0
 10
4350.1130103325413074
 20
589.4764858112447428
 30
0.0
 40
0.1663714762512404
 50
60.7878192178992123
 51
74.9846609968361264
  0
ARC
  5
24A47
  8
0
 10
4350.1559973634002745
 20
589.5467973403684709
 30
0.0
 40
0.0840837602532441
 50
38.5849693365268678
 51
62.9720475806292512
  0
ARC
  5
24A48
  8
0
 10
4350.2058740142429087
 20
589.5872950160261325
 30
0.0
 40
0.0198462161777699
 50
355.4065689861906208
 51
36.9981025159871066
  0
LINE
  5
24A49
  8
0
 10
4350.2256564856988916
 20
589.585705638895206
 30
0.0
 11
4350.2162275402988598
 21
589.548486116095205
 31
0.0
  0
ARC
  5
24A4A
  8
0
 10
4350.1779629424518134
 20
589.5601460474581472
 30
0.0
 40
0.0400016680624736
 50
293.6710506748701164
 51
343.0530506595138718
  0
ARC
  5
24A4B
  8
0
 10
4350.17178554194561
 20
589.5408455677281836
 30
0.0
 40
0.0159953851214584
 50
38.0727241308815465
 51
80.8437721798633362
  0
ARC
  5
24A4C
  8
0
 10
4350.1777346465205483
 20
589.5459427525158844
 30
0.0
 40
0.0081760862047441
 50
330.8222376073543955
 51
35.6608761390971267
  0
ARC
  5
24A4D
  8
0
 10
4350.1735331512718403
 20
589.5487123253520849
 30
0.0
 40
0.0131998657512118
 50
290.2956797532997939
 51
329.2167350306867206
  0
ARC
  5
24A4E
  8
0
 10
4350.124397352541564
 20
589.5222359385139725
 30
0.0
 40
0.1192363588942996
 50
74.5739992892952301
 51
88.268339179800293
  0
ARC
  5
24A4F
  8
0
 10
4350.1702270937203139
 20
589.53521665320784
 30
0.0
 40
0.02181004476773
 50
79.1546626578913788
 51
107.5471876232436017
  0
ARC
  5
24A50
  8
0
 10
4350.1702084126172849
 20
589.556113982979241
 30
0.0
 40
0.0213023532093268
 50
248.6600782581477063
 51
291.7776974096357208
  0
ARC
  5
24A51
  8
0
 10
4350.1702145703848146
 20
589.5770203233405482
 30
0.0
 40
0.0585679755332794
 50
233.3880083548905873
 51
293.9857616595301124
  0
LINE
  5
24A52
  8
0
 10
4350.186007408243313
 20
589.5206217947205687
 30
0.0
 11
4350.2002936369990493
 21
589.4398879626952521
 31
0.0
  0
ARC
  5
24A53
  8
0
 10
4350.2345413709690547
 20
589.4467818967035555
 30
0.0
 40
0.0349347049254796
 50
191.3813174610992007
 51
226.975366302893093
  0
ARC
  5
24A54
  8
0
 10
4350.2442643276635863
 20
589.4280648521664716
 30
0.0
 40
0.0157562680458973
 50
107.1660159378510997
 51
141.0960734867134931
  0
ARC
  5
24A55
  8
0
 10
4350.2387582303708768
 20
589.4331155338630879
 30
0.0
 40
0.0083129519486294
 50
144.3546151692086994
 51
213.1810448588030056
  0
ARC
  5
24A56
  8
0
 10
4350.2432531387448762
 20
589.4363640893209322
 30
0.0
 40
0.0138552534320734
 50
214.2515800359583125
 51
249.5794284193071917
  0
ARC
  5
24A57
  8
0
 10
4350.1930863377247078
 20
589.3520169047387753
 30
0.0
 40
0.1858754127548232
 50
59.8644356310010011
 51
72.1858902597028163
  0
ARC
  5
24A58
  8
0
 10
4350.2496884276279161
 20
589.4474687265119428
 30
0.0
 40
0.0749150031003989
 50
40.3279156133398473
 51
60.6525104623661235
  0
ARC
  5
24A59
  8
0
 10
4350.2966555345274173
 20
589.4882670687053405
 30
0.0
 40
0.0127260543195861
 50
353.1285258755563063
 51
37.1411632685629129
  0
LINE
  5
24A5A
  8
0
 10
4350.3092901779991735
 20
589.4867444909951928
 30
0.0
 11
4350.2933086989987714
 21
589.4342759669950738
 31
0.0
  0
ARC
  5
24A5B
  8
0
 10
4350.2571499845589642
 20
589.4474356867614233
 30
0.0
 40
0.0384789663877887
 50
290.7893020527085923
 51
340.0013656346305879
  0
ARC
  5
24A5C
  8
0
 10
4350.2477479847111681
 20
589.4279529485637568
 30
0.0
 40
0.0159953851214584
 50
38.0727241308815465
 51
80.8437721798633362
  0
ARC
  5
24A5D
  8
0
 10
4350.2536970892861063
 20
589.4330501333515713
 30
0.0
 40
0.0081760862047441
 50
330.8222376073543955
 51
35.6608761390971267
  0
ARC
  5
24A5E
  8
0
 10
4350.2494955940373984
 20
589.4358197061878855
 30
0.0
 40
0.0131998657512118
 50
290.2956797532997939
 51
329.2167350306867206
  0
ARC
  5
24A5F
  8
0
 10
4350.1945844902102181
 20
589.3634742907594273
 30
0.0
 40
0.1745214137497343
 50
71.5033884020964337
 51
84.6818894770547246
  0
ARC
  5
24A60
  8
0
 10
4350.2461895364858719
 20
589.4223240340435268
 30
0.0
 40
0.02181004476773
 50
79.1546626578913788
 51
107.5471876232436017
  0
ARC
  5
24A61
  8
0
 10
4350.246170855382843
 20
589.4432213638149278
 30
0.0
 40
0.0213023532093268
 50
248.6600782581477063
 51
291.7776974096357208
  0
ARC
  5
24A62
  8
0
 10
4350.2489044899966757
 20
589.4664245475075859
 30
0.0
 40
0.059166026569804
 50
229.7868809292226047
 51
291.7276018872411782
  0
ARC
  5
24A63
  8
0
 10
4350.3329585997153117
 20
589.3447114737590482
 30
0.0
 40
0.0977939952039613
 50
80.2893791178524765
 51
97.908200554111076
  0
ARC
  5
24A64
  8
0
 10
4350.3213876321551652
 20
589.4333288100992831
 30
0.0
 40
0.0084591191732209
 50
102.869763693347906
 51
164.4120116374058966
  0
LINE
  5
24A65
  8
0
 10
4350.3132396484988931
 20
589.4356019267952433
 30
0.0
 11
4350.3253844044993457
 21
589.3486483862950536
 31
0.0
  0
ARC
  5
24A66
  8
0
 10
4350.359712502059665
 20
589.3550173723607486
 30
0.0
 40
0.0349139265280354
 50
190.5107290851343862
 51
232.7026590703295881
  0
ARC
  5
24A67
  8
0
 10
4350.369197075709053
 20
589.3343629740414826
 30
0.0
 40
0.0157562680458973
 50
107.1660159378510997
 51
141.0960734867134931
  0
ARC
  5
24A68
  8
0
 10
4350.3636909784163436
 20
589.3394136557379852
 30
0.0
 40
0.0083129519486294
 50
144.3546151692086994
 51
213.1810448588030056
  0
ARC
  5
24A69
  8
0
 10
4350.3681858867903429
 20
589.3426622111957158
 30
0.0
 40
0.0138552534320734
 50
214.2515800359583125
 51
249.5794284193071917
  0
LINE
  5
24A6A
  8
0
 10
4350.4241180112767324
 20
589.3584522666411658
 30
0.0
 11
4350.4185030964990801
 21
589.3407728446951523
 31
0.0
  0
ARC
  5
24A6B
  8
0
 10
4350.3824097618189626
 20
589.3555839171158368
 30
0.0
 40
0.0390140573958352
 50
280.1616583177927851
 51
337.6889708922785758
  0
ARC
  5
24A6C
  8
0
 10
4350.3726807327557253
 20
589.3342510704386541
 30
0.0
 40
0.0159953851214584
 50
38.0727241308815465
 51
80.8437721798633362
  0
ARC
  5
24A6D
  8
0
 10
4350.3786298373297541
 20
589.3393482552263549
 30
0.0
 40
0.0081760862047441
 50
330.8222376073543955
 51
35.6608761390971267
  0
ARC
  5
24A6E
  8
0
 10
4350.3744283420819556
 20
589.3421178280625554
 30
0.0
 40
0.0131998657512118
 50
290.2956797532997939
 51
329.2167350306867206
  0
ARC
  5
24A6F
  8
0
 10
4350.3100788082410872
 20
589.1912551639544517
 30
0.0
 40
0.2529327446523364
 50
72.0918765190601647
 51
81.0441445492324846
  0
ARC
  5
24A70
  8
0
 10
4350.3711222845304292
 20
589.3286221559183105
 30
0.0
 40
0.02181004476773
 50
79.1546626578913788
 51
107.5471876232436017
  0
ARC
  5
24A71
  8
0
 10
4350.3711036034274002
 20
589.3495194856897115
 30
0.0
 40
0.0213023532093268
 50
248.6600782581477063
 51
291.7776974096357208
  0
ARC
  5
24A72
  8
0
 10
4350.3746139910272177
 20
589.3761155245631471
 30
0.0
 40
0.0607342451141635
 50
233.5803228408522898
 51
283.986315401068282
  0
ARC
  5
24A73
  8
0
 10
4350.4059126195206773
 20
589.4239614998764409
 30
0.0
 40
0.0432810090319397
 50
91.8299256586298753
 51
118.9830594558474957
  0
ARC
  5
24A74
  8
0
 10
4350.3891980981343295
 20
589.456096185049887
 30
0.0
 40
0.007135215245893
 50
126.6314343282484032
 51
193.8694688700331028
  0
LINE
  5
24A75
  8
0
 10
4350.3822709146988927
 20
589.454385797295231
 30
0.0
 11
4350.3997779280389295
 21
589.3839751829576699
 31
0.0
  0
ARC
  5
24A76
  8
0
 10
4350.4343850327995824
 20
589.3932534051685934
 30
0.0
 40
0.0358292772360101
 50
195.0081502178304902
 51
230.775692486323095
  0
ARC
  5
24A77
  8
0
 10
4350.4447449407398381
 20
589.3764465465934563
 30
0.0
 40
0.0157562680458973
 50
107.1660159378510997
 51
141.0960734867134931
  0
ARC
  5
24A78
  8
0
 10
4350.4392388434480381
 20
589.3814972282898452
 30
0.0
 40
0.0083129519486294
 50
144.3546151692086994
 51
213.1810448588030056
  0
ARC
  5
24A79
  8
0
 10
4350.443733751821128
 20
589.3847457837478032
 30
0.0
 40
0.0138552534320734
 50
214.2515800359583125
 51
249.5794284193071917
  0
ARC
  5
24A7A
  8
0
 10
4350.4117448155157035
 20
589.3042319298785969
 30
0.0
 40
0.1623425129650528
 50
64.2179376623536342
 51
77.610672926013649
  0
ARC
  5
24A7B
  8
0
 10
4350.4569817958918065
 20
589.3942040998449556
 30
0.0
 40
0.0616716074896408
 50
44.9029239035439005
 51
65.7050803229177944
  0
ARC
  5
24A7C
  8
0
 10
4350.4913226386061069
 20
589.4290167047881823
 30
0.0
 40
0.0127801575527949
 50
357.385740566095194
 51
43.0356392876292233
  0
LINE
  5
24A7D
  8
0
 10
4350.504089495198059
 20
589.4284337812952117
 30
0.0
 11
4350.4929137610979524
 21
589.3843190396952423
 31
0.0
  0
ARC
  5
24A7E
  8
0
 10
4350.4539711431716569
 20
589.3962332860111246
 30
0.0
 40
0.0407244000113417
 50
293.8935059149110884
 51
342.9888419999193161
  0
ARC
  5
24A7F
  8
0
 10
4350.4482285977874199
 20
589.3763346429905141
 30
0.0
 40
0.0159953851214584
 50
38.0727241308815465
 51
80.8437721798633362
  0
ARC
  5
24A80
  8
0
 10
4350.4541777023623581
 20
589.3814318277784423
 30
0.0
 40
0.0081760862047441
 50
330.8222376073543955
 51
35.6608761390971267
  0
ARC
  5
24A81
  8
0
 10
4350.4499762071118312
 20
589.3842014006146428
 30
0.0
 40
0.0131998657512118
 50
290.2956797532997939
 51
329.2167350306867206
  0
ARC
  5
24A82
  8
0
 10
4350.4093972000628128
 20
589.3115507378515758
 30
0.0
 40
0.1557457526256392
 50
76.1893250280726591
 51
91.7906409337500833
  0
ARC
  5
24A83
  8
0
 10
4350.4466701495612142
 20
589.3707057284703978
 30
0.0
 40
0.02181004476773
 50
79.1546626578913788
 51
107.5471876232436017
  0
ARC
  5
24A84
  8
0
 10
4350.4466514684581853
 20
589.3916030582415715
 30
0.0
 40
0.0213023532093268
 50
248.6600782581477063
 51
291.7776974096357208
  0
ARC
  5
24A85
  8
0
 10
4350.4466576262266244
 20
589.4125093986032198
 30
0.0
 40
0.0585679755332794
 50
233.3880083548905873
 51
293.9857616595301124
  0
ARC
  5
24A86
  8
0
 10
4350.5431540667714216
 20
589.3432531499453262
 30
0.0
 40
0.0468224913622093
 50
93.0104007448814514
 51
114.9209167101166997
  0
ARC
  5
24A87
  8
0
 10
4350.52654692834858
 20
589.380866870985642
 30
0.0
 40
0.0057674065630242
 50
122.7770612265058929
 51
183.2239833407489016
  0
LINE
  5
24A88
  8
0
 10
4350.5207886497992149
 20
589.3805425152952466
 30
0.0
 11
4350.5369526629992833
 21
589.3013139701952241
 31
0.0
  0
ARC
  5
24A89
  8
0
 10
4350.5682111947917292
 20
589.3075001447944032
 30
0.0
 40
0.0318647856728252
 50
191.1943885579349001
 51
232.3136996947368118
  0
ARC
  5
24A8A
  8
0
 10
4350.5814802427867107
 20
589.2903900739994469
 30
0.0
 40
0.0157562680458973
 50
107.1660159378510997
 51
141.0960734867134931
  0
ARC
  5
24A8B
  8
0
 10
4350.5759741454949108
 20
589.2954407556959495
 30
0.0
 40
0.0083129519486294
 50
144.3546151692086994
 51
213.1810448588030056
  0
ARC
  5
24A8C
  8
0
 10
4350.5804690538689101
 20
589.2986893111537938
 30
0.0
 40
0.0138552534320734
 50
214.2515800359583125
 51
249.5794284193071917
  0
ARC
  5
24A8D
  8
0
 10
4350.5757381862531474
 20
589.2552769520367519
 30
0.0
 40
0.1308109813875038
 50
62.9861358472517665
 51
77.2474424990001722
  0
ARC
  5
24A8E
  8
0
 10
4350.6190618310683931
 20
589.3395717335102972
 30
0.0
 40
0.0360365109704105
 50
43.8940976975867585
 51
63.4785244493604779
  0
ARC
  5
24A8F
  8
0
 10
4350.6400062431557672
 20
589.3601084585353647
 30
0.0
 40
0.0067105735544873
 50
353.3154992024631156
 51
41.5207738751522726
  0
LINE
  5
24A90
  8
0
 10
4350.6466711993980425
 20
589.3593273338950667
 30
0.0
 11
4350.6301437723986965
 21
589.2983563256951811
 31
0.0
  0
ARC
  5
24A91
  8
0
 10
4350.5929881190013475
 20
589.3110532986646604
 30
0.0
 40
0.0392651970838931
 50
287.8441594561360262
 51
341.1334785643684882
  0
ARC
  5
24A92
  8
0
 10
4350.5849638998342925
 20
589.2902781703967321
 30
0.0
 40
0.0159953851214584
 50
38.0727241308815465
 51
80.8437721798633362
  0
ARC
  5
24A93
  8
0
 10
4350.5909130044092308
 20
589.2953753551844329
 30
0.0
 40
0.0081760862047441
 50
330.8222376073543955
 51
35.6608761390971267
  0
ARC
  5
24A94
  8
0
 10
4350.5867115091596133
 20
589.2981449280207471
 30
0.0
 40
0.0131998657512118
 50
290.2956797532997939
 51
329.2167350306867206
  0
ARC
  5
24A95
  8
0
 10
4350.5477672207871365
 20
589.1639506325218463
 30
0.0
 40
0.2261709910423138
 50
75.4430506756589949
 51
91.7918740714623738
  0
ARC
  5
24A96
  8
0
 10
4350.5834054516089964
 20
589.2846492558763885
 30
0.0
 40
0.02181004476773
 50
79.1546626578913788
 51
107.5471876232436017
  0
ARC
  5
24A97
  8
0
 10
4350.5833867705041484
 20
589.3055465856477895
 30
0.0
 40
0.0213023532093268
 50
248.6600782581477063
 51
291.7776974096357208
  0
ARC
  5
24A98
  8
0
 10
4350.5846701018435851
 20
589.3289598053146392
 30
0.0
 40
0.0589093390863871
 50
232.405146061129301
 51
290.2090428303517911
  0
ARC
  5
24A99
  8
0
 10
4350.7130916886699197
 20
589.3054358793689289
 30
0.0
 40
0.0268264042740553
 50
99.8799882772943732
 51
121.2100055134333019
  0
ARC
  5
24A9A
  8
0
 10
4350.7011943520437853
 20
589.3257709955091741
 30
0.0
 40
0.0032893403916998
 50
127.5230281622030049
 51
184.4948481035035002
  0
LINE
  5
24A9B
  8
0
 10
4350.697915128398563
 20
589.3255132116952382
 30
0.0
 11
4350.713266215198928
 21
589.2464261825952008
 31
0.0
  0
ARC
  5
24A9C
  8
0
 10
4350.7469008844718701
 20
589.2546123827457905
 30
0.0
 40
0.0346165401224928
 50
193.6790173170913931
 51
237.1730660556160899
  0
ARC
  5
24A9D
  8
0
 10
4350.7558803731235457
 20
589.2346676566702399
 30
0.0
 40
0.0133147071989159
 50
109.1331972689314966
 51
140.5570610104479101
  0
ARC
  5
24A9E
  8
0
 10
4350.7504523459383563
 20
589.2393962674819932
 30
0.0
 40
0.006122114576399
 50
142.4593950381780019
 51
215.4149571476544054
  0
ARC
  5
24A9F
  8
0
 10
4350.7548234641208182
 20
589.2424126810830103
 30
0.0
 40
0.0114327110255101
 50
215.0404393249546047
 51
238.9670478504800997
  0
LINE
  5
24AA0
  8
0
 10
4350.8145253272841728
 20
589.2742947304221843
 30
0.0
 11
4350.8067303304987945
 21
589.2437193463952099
 31
0.0
  0
ARC
  5
24AA1
  8
0
 10
4350.7714065022828436
 20
589.2555464341318157
 30
0.0
 40
0.0372512126535699
 50
291.2561591803028023
 51
341.4884767743187126
  0
ARC
  5
24AA2
  8
0
 10
4350.7604181156239065
 20
589.2293851539996012
 30
0.0
 40
0.0191163857778244
 50
46.9156984921846387
 51
73.6641840269197559
  0
ARC
  5
24AA3
  8
0
 10
4350.768953630082251
 20
589.2388966194808972
 30
0.0
 40
0.0063447650787548
 50
321.1595658336261749
 51
44.5389062754480491
  0
ARC
  5
24AA4
  8
0
 10
4350.7636889667419382
 20
589.2437658618314344
 30
0.0
 40
0.0135080732264906
 50
289.2209427191911004
 51
319.0769993076265223
  0
ARC
  5
24AA5
  8
0
 10
4350.7311233617710968
 20
589.2004907617357503
 30
0.0
 40
0.1333093000401798
 50
90.4410634106266542
 51
99.775651383071974
  0
ARC
  5
24AA6
  8
0
 10
4350.759445687641346
 20
589.2241291868153894
 30
0.0
 40
0.0244397602587952
 50
74.9423394872523687
 51
108.9320930488986932
  0
ARC
  5
24AA7
  8
0
 10
4350.7603123477883855
 20
589.253101959348669
 30
0.0
 40
0.0234356444744661
 50
240.941354052261886
 51
289.5017048999472991
  0
ARC
  5
24AA8
  8
0
 10
4350.7611950989339675
 20
589.2796813971067422
 30
0.0
 40
0.0634509059597117
 50
238.5984960797883048
 51
291.9486492929887049
  0
ARC
  5
24AA9
  8
0
 10
4350.747675334790074
 20
589.3350960207096705
 30
0.0
 40
0.0360907568226193
 50
99.6242620162459644
 51
129.1755842796520142
  0
ARC
  5
24AAA
  8
0
 10
4350.7291292218242234
 20
589.3597042497387974
 30
0.0
 40
0.0054257217549658
 50
141.6047589758599088
 51
192.8207195983925999
  0
LINE
  5
24AAB
  8
0
 10
4350.7238387677989522
 20
589.3585002759951976
 30
0.0
 11
4350.7394270543982202
 21
589.2969675628952473
 31
0.0
  0
ARC
  5
24AAC
  8
0
 10
4350.775895461939399
 20
589.3074267269477104
 30
0.0
 40
0.0379386196535588
 50
196.0029273407189976
 51
235.2377782273825915
  0
ARC
  5
24AAD
  8
0
 10
4350.7841430881508131
 20
589.2891802399336711
 30
0.0
 40
0.0157562680458973
 50
107.1660159378510997
 51
141.0960734867134931
  0
ARC
  5
24AAE
  8
0
 10
4350.7786369908581037
 20
589.2942309216301737
 30
0.0
 40
0.0083129519486294
 50
144.3546151692086994
 51
213.1810448588030056
  0
ARC
  5
24AAF
  8
0
 10
4350.783131899232103
 20
589.2974794770881317
 30
0.0
 40
0.0138552534320734
 50
214.2515800359583125
 51
249.5794284193071917
  0
ARC
  5
24AB0
  8
0
 10
4350.7720359300801647
 20
589.1883906006587495
 30
0.0
 40
0.1846256891154825
 50
73.7184507650788703
 51
87.9835559406120922
  0
ARC
  5
24AB1
  8
0
 10
4350.8097412399620225
 20
589.3152118411863967
 30
0.0
 40
0.0523234527872923
 50
48.4995535353413132
 51
74.4169463203211876
  0
ARC
  5
24AB2
  8
0
 10
4350.8393125161810531
 20
589.3505375048905535
 30
0.0
 40
0.0063969572810049
 50
350.3394188348163993
 51
37.137288803769259
  0
LINE
  5
24AB3
  8
0
 10
4350.8456187591991693
 20
589.3494640238951661
 30
0.0
 11
4350.8323196562987505
 21
589.2969675628952473
 31
0.0
  0
ARC
  5
24AB4
  8
0
 10
4350.7938626802042563
 20
589.3088305865001075
 30
0.0
 40
0.0402451281442373
 50
295.2606107375531792
 51
342.8563028131056853
  0
ARC
  5
24AB5
  8
0
 10
4350.7876267451965759
 20
589.28906833633107
 30
0.0
 40
0.0159953851214584
 50
38.0727241308815465
 51
80.8437721798633362
  0
ARC
  5
24AB6
  8
0
 10
4350.7935758497724237
 20
589.2941655211186571
 30
0.0
 40
0.0081760862047441
 50
330.8222376073543955
 51
35.6608761390971267
  0
ARC
  5
24AB7
  8
0
 10
4350.7893743545237157
 20
589.2969350939549713
 30
0.0
 40
0.0131998657512118
 50
290.2956797532997939
 51
329.2167350306867206
  0
ARC
  5
24AB8
  8
0
 10
4350.769162738981322
 20
589.2211858226454524
 30
0.0
 40
0.152005180425968
 50
86.4660890382902636
 51
100.4312107229507944
  0
ARC
  5
24AB9
  8
0
 10
4350.7860682969712798
 20
589.2834394218107263
 30
0.0
 40
0.02181004476773
 50
79.1546626578913788
 51
107.5471876232436017
  0
ARC
  5
24ABA
  8
0
 10
4350.7860496158691603
 20
589.3043367515821274
 30
0.0
 40
0.0213023532093268
 50
248.6600782581477063
 51
291.7776974096357208
  0
ARC
  5
24ABB
  8
0
 10
4350.7860238127332195
 20
589.3244132729884086
 30
0.0
 40
0.0576845416196493
 50
236.5932647339323864
 51
295.6972401366605254
  0
ARC
  5
24ABC
  8
0
 10
4350.9165919238366769
 20
589.6222844352760148
 30
0.0
 40
1.0420650978004831
 50
99.6984460950153704
 51
123.8758546700763929
  0
ARC
  5
24ABD
  8
0
 10
4350.7510073229314003
 20
589.8822743942050693
 30
0.0
 40
0.733950794093201
 50
124.4567466016752064
 51
139.5488191349550959
  0
ARC
  5
24ABE
  8
0
 10
4350.6109110400666395
 20
590.0005043637158906
 30
0.0
 40
0.5506364452089823
 50
139.4524352367209019
 51
161.5565324394864888
  0
ARC
  5
24ABF
  8
0
 10
4350.9444372338430185
 20
589.5317346500738722
 30
0.0
 40
1.1165176333490849
 50
100.2119016346558027
 51
111.5609464492515031
  0
LINE
  5
24AC0
  8
0
 10
4350.5214457978991049
 20
590.5865246580470966
 30
0.0
 11
4350.5214457978991049
 21
590.5356741256431405
 31
0.0
  0
ARC
  5
24AC1
  8
0
 10
4350.574585195938198
 20
590.5356741256431405
 30
0.0
 40
0.05313939803907
 50
139.583604906217289
 51
220.416395093782711
  0
ARC
  5
24AC2
  8
0
 10
4350.54349850761173
 20
590.3808717141138231
 30
0.0
 40
0.044512694087636
 50
116.5946330725119964
 51
190.1077736083184107
  0
ARC
  5
24AC3
  8
0
 10
4350.4578827010836903
 20
590.3650479886191533
 30
0.0
 40
0.0425549575741424
 50
293.7169388950885036
 51
10.8517207452243998
  0
ARC
  5
24AC4
  8
0
 10
4350.4513656913259183
 20
590.3861792264306132
 30
0.0
 40
0.0645724826069576
 50
246.9599226376701893
 51
291.4690142241587978
  0
ARC
  5
24AC5
  8
0
 10
4350.4019363386269106
 20
590.2678138968140047
 30
0.0
 40
0.0637019316928072
 50
67.7143745070169274
 51
108.4403915216859957
  0
ARC
  5
24AC6
  8
0
 10
4350.3974909854414364
 20
590.2914151736764552
 30
0.0
 40
0.0400383519684127
 50
113.0940499951498026
 51
213.0042303595816122
  0
ARC
  5
24AC7
  8
0
 10
4350.3295574977628348
 20
590.2473181122965116
 30
0.0
 40
0.0409524503282191
 50
302.7554577976641781
 51
32.9730287446209687
  0
ARC
  5
24AC8
  8
0
 10
4350.3257907081451776
 20
590.2638156822547444
 30
0.0
 40
0.0571555431981752
 50
257.6779743402694862
 51
296.9732565968076869
  0
ARC
  5
24AC9
  8
0
 10
4350.3013158879466573
 20
590.1502936196718565
 30
0.0
 40
0.058975296159491
 50
77.9842740799339538
 51
113.427840366751397
  0
ARC
  5
24ACA
  8
0
 10
4350.2912222900076813
 20
590.1759994353872116
 30
0.0
 40
0.0313901283358644
 50
115.1785114215952035
 51
180.6828888838267062
  0
ARC
  5
24ACB
  8
0
 10
4350.3143723086577666
 20
590.1793237407177912
 30
0.0
 40
0.0546631757786435
 50
183.879506255101802
 51
224.4489761704637942
  0
ARC
  5
24ACC
  8
0
 10
4350.2361635643810587
 20
590.1018717058990433
 30
0.0
 40
0.0554081453615503
 50
3.5000488407357921
 51
44.9903036622685235
  0
ARC
  5
24ACD
  8
0
 10
4350.2612613106648496
 20
590.1047008099525328
 30
0.0
 40
0.0302121199872008
 50
308.1171717992262984
 51
1.049799732632527
  0
ARC
  5
24ACE
  8
0
 10
4350.2523064876759236
 20
590.1193750944711383
 30
0.0
 40
0.0473274942551764
 50
271.9584359156930873
 51
305.6796778106904071
  0
ARC
  5
24ACF
  8
0
 10
4350.2556743698551145
 20
590.0221546562312369
 30
0.0
 40
0.0499512702883047
 50
92.0082804104239926
 51
120.3727387060997955
  0
ARC
  5
24AD0
  8
0
 10
4350.2448212716199123
 20
590.0412042645198198
 30
0.0
 40
0.02802984318517
 50
120.9213191746792972
 51
171.5568899475574085
  0
ARC
  5
24AD1
  8
0
 10
4350.1900297342363046
 20
590.0493772491280424
 30
0.0
 40
0.0273679171049621
 50
301.379715955767324
 51
351.474170231887399
  0
ARC
  5
24AD2
  8
0
 10
4350.1788715141428838
 20
590.072402191363949
 30
0.0
 40
0.0528926701286623
 50
258.3829588127028956
 51
298.7106146111415228
  0
ARC
  5
24AD3
  8
0
 10
4350.1830196375867672
 20
590.1113429190794477
 30
0.0
 40
0.0919486784239236
 50
247.0515150921659995
 51
260.7379949548230229
  0
ARC
  5
24AD4
  8
0
 10
4350.1136326687174005
 20
589.948675364653468
 30
0.0
 40
0.084900196996108
 50
66.7338096224535491
 51
89.2086799089450722
  0
ARC
  5
24AD5
  8
0
 10
4350.1138675410802534
 20
589.9959489724928972
 30
0.0
 40
0.0376301760153952
 50
88.5721708649105466
 51
138.8844374125879995
  0
ARC
  5
24AD6
  8
0
 10
4350.1366202952258391
 20
590.0288103223518874
 30
0.0
 40
0.0652472678094097
 50
80.696406870494485
 51
141.5897176524993029
  0
ARC
  5
24AD7
  8
0
 10
4350.1576427976651757
 20
590.1722485956929631
 30
0.0
 40
0.079740210505079
 50
262.4521139488180097
 51
293.6710137962033969
  0
ARC
  5
24AD8
  8
0
 10
4350.171350453388186
 20
590.1429219273417175
 30
0.0
 40
0.0473839292665999
 50
292.7276026929229147
 51
344.8854864884012841
  0
ARC
  5
24AD9
  8
0
 10
4350.2548189401413765
 20
590.1232814525402546
 30
0.0
 40
0.0384207394010016
 50
129.3997975314113944
 51
169.0696661619793133
  0
ARC
  5
24ADA
  8
0
 10
4350.2715281049268015
 20
590.1022524498350776
 30
0.0
 40
0.0652778296384924
 50
105.645315899602906
 51
129.0171762661034904
  0
ARC
  5
24ADB
  8
0
 10
4350.2339954704993943
 20
590.2351509616952399
 30
0.0
 40
0.0728192186000621
 50
285.8827500838955871
 51
291.7659943235464084
  0
LINE
  5
24ADC
  8
0
 10
4350.2598343911995471
 20
590.2607524844952422
 30
0.0
 11
4350.2598343911995471
 21
590.1756253159951484
 31
0.0
  0
ARC
  5
24ADD
  8
0
 10
4350.2922244190604033
 20
590.2599554802478679
 30
0.0
 40
0.0323998321078267
 50
132.2808648750464897
 51
178.59043756370761
  0
ARC
  5
24ADE
  8
0
 10
4350.3127609591556393
 20
590.2373709695864363
 30
0.0
 40
0.0629253886291575
 50
89.8701407805413197
 51
132.2808648750464897
  0
ARC
  5
24ADF
  8
0
 10
4350.3130610796588371
 20
590.3697882809899511
 30
0.0
 40
0.0694922628818375
 50
269.8701407805413055
 51
309.7491849068894112
  0
LINE
  5
24AE0
  8
0
 10
4350.3574963827986721
 20
590.2932863732419264
 30
0.0
 11
4350.3574963827986721
 21
590.3803635077950958
 31
0.0
  0
ARC
  5
24AE1
  8
0
 10
4350.3894390241812289
 20
590.3796564084520924
 30
0.0
 40
0.0319504667877868
 50
135.8547734916843126
 51
178.7318771823910026
  0
ARC
  5
24AE2
  8
0
 10
4350.4071584815810638
 20
590.3624579170257221
 30
0.0
 40
0.0566439330871328
 50
100.9543627664333059
 51
135.8547734916843126
  0
ARC
  5
24AE3
  8
0
 10
4350.4135277925061018
 20
590.3413477334846675
 30
0.0
 40
0.0786117764260762
 50
80.3047031272435419
 51
102.5884711823095046
  0
ARC
  5
24AE4
  8
0
 10
4350.4402869102295881
 20
590.4991856290506576
 30
0.0
 40
0.0814784854052249
 50
260.4483764013971268
 51
290.7807721577883058
  0
ARC
  5
24AE5
  8
0
 10
4350.4527664335028021
 20
590.4699455259661818
 30
0.0
 40
0.0497297774768495
 50
289.2903370160536838
 51
338.6888669845034769
  0
LINE
  5
24AE6
  8
0
 10
4350.499095719998877
 20
590.4719550307952431
 30
0.0
 11
4350.499095719998877
 21
590.383997795872574
 31
0.0
  0
ARC
  5
24AE7
  8
0
 10
4350.5319381745421197
 20
590.4714791478805864
 30
0.0
 40
0.0328459021027569
 50
140.7601694119086915
 51
179.1698496673224099
  0
ARC
  5
24AE8
  8
0
 10
4350.5469456223399902
 20
590.4592219898679559
 30
0.0
 40
0.0522227287764183
 50
116.5891393756442938
 51
140.7601694119086915
  0
ARC
  5
24AE9
  8
0
 10
4350.5007139033750718
 20
590.5515883261157342
 30
0.0
 40
0.05106769628881
 50
296.5891393756443222
 51
303.231376299661008
  0
ARC
  5
24AEA
  8
0
 10
4350.4836795728306242
 20
590.4608079605280864
 30
0.0
 40
0.064639476445531
 50
1.2350239524075901
 51
38.6983274905302892
  0
ARC
  5
24AEB
  8
0
 10
4350.5027259837615929
 20
590.4612185739746337
 30
0.0
 40
0.0455886399086357
 50
297.2096318912633137
 51
1.2350239524075901
  0
ARC
  5
24AEC
  8
0
 10
4350.9165919238366769
 20
590.4436781339476283
 30
0.0
 40
1.0420650978004831
 50
236.1241453299236071
 51
260.3015539049847007
  0
ARC
  5
24AED
  8
0
 10
4350.7510073229314003
 20
590.1836881750183466
 30
0.0
 40
0.733950794093201
 50
220.4511808650447904
 51
235.5432533983249073
  0
ARC
  5
24AEE
  8
0
 10
4350.6109110400666395
 20
590.0654582055076389
 30
0.0
 40
0.5506364452089823
 50
198.4434675605135112
 51
220.5475647632790128
  0
ARC
  5
24AEF
  8
0
 10
4350.5218558424494404
 20
590.0329812846117647
 30
0.0
 40
0.4558883819503254
 50
161.8876364153468899
 51
198.1123635846531101
  0
LINE
  5
24AF0
  8
0
 10
4350.0854674601987426
 20
590.1229565896952636
 30
0.0
 11
4350.0855175380993387
 21
590.0206938199952447
 31
0.0
  0
ARC
  5
24AF1
  8
0
 10
4350.5445155137103939
 20
590.0294437088181212
 30
0.0
 40
0.4590813676993797
 50
181.0920984685029964
 51
201.5247039966704108
  0
ARC
  5
24AF2
  8
0
 10
4350.6686952678946909
 20
590.0903395886232374
 30
0.0
 40
0.597046552972508
 50
202.5887448240900142
 51
227.2295575929798872
  0
ARC
  5
24AF3
  8
0
 10
4350.8401316781582864
 20
590.2831105042082527
 30
0.0
 40
0.8549868975605714
 50
227.5683437165575924
 51
247.8560736471218888
  0
ARC
  5
24AF4
  8
0
 10
4350.5274873863063476
 20
590.122899222178944
 30
0.0
 40
0.4420199298286271
 50
173.2957641224745089
 51
179.9925638724583052
  0
ARC
  5
24AF5
  8
0
 10
4350.5309053602004496
 20
590.1233327958950667
 30
0.0
 40
0.4650444675000001
 50
185.6694518092373869
 51
197.7136361046354125
  0
ARC
  5
24AF6
  8
0
 10
4350.5434091970364534
 20
590.0732642399450469
 30
0.0
 40
0.4579445637878409
 50
155.9154629968066104
 51
179.4033937753108034
  0
ARC
  5
24AF7
  8
0
 10
4350.1521501878687559
 20
590.1131099087010625
 30
0.0
 40
0.0470721955728475
 50
65.9755914333849347
 51
114.1348176567861969
  0
ARC
  5
24AF8
  8
0
 10
4350.1590087499998845
 20
590.1284968469076375
 30
0.0
 40
0.0302258980005999
 50
31.3287625598533594
 51
65.9755914333849347
  0
ARC
  5
24AF9
  8
0
 10
4350.1689726872664323
 20
590.1353193621534956
 30
0.0
 40
0.0181788894247761
 50
324.520461138443693
 51
29.2889777198520207
  0
ARC
  5
24AFA
  8
0
 10
4350.1591131781706281
 20
590.1425574021039893
 30
0.0
 40
0.0304092432375523
 50
296.6804903746826199
 51
324.1972850150675072
  0
ARC
  5
24AFB
  8
0
 10
4350.1523137688300267
 20
590.1565607313459623
 30
0.0
 40
0.0459750839069069
 50
236.7878435354008957
 51
296.4159585024727903
  0
ARC
  5
24AFC
  8
0
 10
4350.1431407979598589
 20
590.1310994958596439
 30
0.0
 40
0.0269852518177391
 50
112.2954319227823987
 51
156.3500187528512981
  0
ARC
  5
24AFD
  8
0
 10
4350.1336503637694477
 20
590.1352556274326844
 30
0.0
 40
0.016624664441625
 50
156.3500187528572951
 51
211.1463063953924859
  0
ARC
  5
24AFE
  8
0
 10
4350.145597404354703
 20
590.142475718723631
 30
0.0
 40
0.030583944402792
 50
211.1463063953924859
 51
232.8586896134000028
  0
ARC
  5
24AFF
  8
0
 10
4350.2242421095306781
 20
590.1838880989607787
 30
0.0
 40
0.0470721955728475
 50
65.9755914333849347
 51
114.1348176567861969
  0
ARC
  5
24B00
  8
0
 10
4350.2311006716618067
 20
590.1992750371673537
 30
0.0
 40
0.0302258980005999
 50
31.3287625598533594
 51
65.9755914333849347
  0
ARC
  5
24B01
  8
0
 10
4350.2410646089283546
 20
590.2060975524132118
 30
0.0
 40
0.0181788894247761
 50
324.520461138443693
 51
29.2889777198520207
  0
ARC
  5
24B02
  8
0
 10
4350.2312050998325503
 20
590.2133355923638192
 30
0.0
 40
0.0304092432375523
 50
296.6804903746826199
 51
324.1972850150675072
  0
ARC
  5
24B03
  8
0
 10
4350.2244056904919489
 20
590.2273389216056785
 30
0.0
 40
0.0459750839069069
 50
236.7878435354008957
 51
296.4159585024727903
  0
ARC
  5
24B04
  8
0
 10
4350.2152327196217811
 20
590.2018776861193601
 30
0.0
 40
0.0269852518177391
 50
112.2954319227823987
 51
156.3500187528512981
  0
ARC
  5
24B05
  8
0
 10
4350.20574228543137
 20
590.2060338176924006
 30
0.0
 40
0.016624664441625
 50
156.3500187528572951
 51
211.1463063953924859
  0
ARC
  5
24B06
  8
0
 10
4350.2176893260184443
 20
590.2132539089833472
 30
0.0
 40
0.030583944402792
 50
211.1463063953924859
 51
232.8586896134000028
  0
ARC
  5
24B07
  8
0
 10
4350.207556018829564
 20
590.2698573005981189
 30
0.0
 40
0.0470721955728475
 50
65.9755914333849347
 51
114.1348176567861969
  0
ARC
  5
24B08
  8
0
 10
4350.214414580961602
 20
590.2852442388044665
 30
0.0
 40
0.0302258980005999
 50
31.3287625598533594
 51
65.9755914333849347
  0
ARC
  5
24B09
  8
0
 10
4350.2243785182281499
 20
590.2920667540504382
 30
0.0
 40
0.0181788894247761
 50
324.520461138443693
 51
29.2889777198520207
  0
ARC
  5
24B0A
  8
0
 10
4350.2145190091332552
 20
590.2993047940010456
 30
0.0
 40
0.0304092432375523
 50
296.6804903746826199
 51
324.1972850150675072
  0
ARC
  5
24B0B
  8
0
 10
4350.2077195997926538
 20
590.3133081232430186
 30
0.0
 40
0.0459750839069069
 50
236.7878435354008957
 51
296.4159585024727903
  0
ARC
  5
24B0C
  8
0
 10
4350.1985466289215765
 20
590.2878468877565865
 30
0.0
 40
0.0269852518177391
 50
112.2954319227823987
 51
156.3500187528512981
  0
ARC
  5
24B0D
  8
0
 10
4350.1890561947311653
 20
590.292003019329627
 30
0.0
 40
0.016624664441625
 50
156.3500187528572951
 51
211.1463063953924859
  0
ARC
  5
24B0E
  8
0
 10
4350.2010032353173301
 20
590.2992231106204599
 30
0.0
 40
0.030583944402792
 50
211.1463063953924859
 51
232.8586896134000028
  0
ARC
  5
24B0F
  8
0
 10
4350.30418483345602
 20
590.3229713823047859
 30
0.0
 40
0.0470721955728475
 50
65.9755914333849347
 51
114.1348176567861969
  0
ARC
  5
24B10
  8
0
 10
4350.311043395588058
 20
590.3383583205112473
 30
0.0
 40
0.0302258980005999
 50
31.3287625598533594
 51
65.9755914333849347
  0
ARC
  5
24B11
  8
0
 10
4350.3210073328536964
 20
590.3451808357571053
 30
0.0
 40
0.0181788894247761
 50
324.520461138443693
 51
29.2889777198520207
  0
ARC
  5
24B12
  8
0
 10
4350.3111478237588017
 20
590.3524188757074853
 30
0.0
 40
0.0304092432375523
 50
296.6804903746826199
 51
324.1972850150675072
  0
ARC
  5
24B13
  8
0
 10
4350.3043484144182003
 20
590.3664222049496857
 30
0.0
 40
0.0459750839069069
 50
236.7878435354008957
 51
296.4159585024727903
  0
ARC
  5
24B14
  8
0
 10
4350.295175443547123
 20
590.3409609694632536
 30
0.0
 40
0.0269852518177391
 50
112.2954319227823987
 51
156.3500187528512981
  0
ARC
  5
24B15
  8
0
 10
4350.2856850093558023
 20
590.3451171010361804
 30
0.0
 40
0.016624664441625
 50
156.3500187528572951
 51
211.1463063953924859
  0
ARC
  5
24B16
  8
0
 10
4350.2976320499428766
 20
590.3523371923272407
 30
0.0
 40
0.030583944402792
 50
211.1463063953924859
 51
232.8586896134000028
  0
ARC
  5
24B17
  8
0
 10
4350.3213090185290639
 20
590.4089271268245511
 30
0.0
 40
0.0470721955728475
 50
65.9755914333849347
 51
114.1348176567861969
  0
ARC
  5
24B18
  8
0
 10
4350.3281675806620115
 20
590.4243140650311261
 30
0.0
 40
0.0302258980005999
 50
31.3287625598533594
 51
65.9755914333849347
  0
ARC
  5
24B19
  8
0
 10
4350.3381315179267403
 20
590.4311365802767568
 30
0.0
 40
0.0181788894247761
 50
324.520461138443693
 51
29.2889777198520207
  0
ARC
  5
24B1A
  8
0
 10
4350.3282720088327551
 20
590.4383746202274779
 30
0.0
 40
0.0304092432375523
 50
296.6804903746826199
 51
324.1972850150675072
  0
ARC
  5
24B1B
  8
0
 10
4350.3214725994921537
 20
590.4523779494694509
 30
0.0
 40
0.0459750839069069
 50
236.7878435354008957
 51
296.4159585024727903
  0
ARC
  5
24B1C
  8
0
 10
4350.3122996286201669
 20
590.4269167139830188
 30
0.0
 40
0.0269852518177391
 50
112.2954319227823987
 51
156.3500187528512981
  0
ARC
  5
24B1D
  8
0
 10
4350.3028091944297557
 20
590.4310728455559456
 30
0.0
 40
0.016624664441625
 50
156.3500187528572951
 51
211.1463063953924859
  0
ARC
  5
24B1E
  8
0
 10
4350.31475623501683
 20
590.4382929368470059
 30
0.0
 40
0.030583944402792
 50
211.1463063953924859
 51
232.8586896134000028
  0
ARC
  5
24B1F
  8
0
 10
4350.4350499538613803
 20
590.4418630635351519
 30
0.0
 40
0.0470721955728475
 50
65.9755914333849347
 51
114.1348176567861969
  0
ARC
  5
24B20
  8
0
 10
4350.4419085159934184
 20
590.4572500017417269
 30
0.0
 40
0.0302258980005999
 50
31.3287625598533594
 51
65.9755914333849347
  0
ARC
  5
24B21
  8
0
 10
4350.4518724532599663
 20
590.4640725169874713
 30
0.0
 40
0.0181788894247761
 50
324.520461138443693
 51
29.2889777198520207
  0
ARC
  5
24B22
  8
0
 10
4350.442012944164162
 20
590.471310556937965
 30
0.0
 40
0.0304092432375523
 50
296.6804903746826199
 51
324.1972850150675072
  0
ARC
  5
24B23
  8
0
 10
4350.4352135348226511
 20
590.4853138861800517
 30
0.0
 40
0.0459750839069069
 50
236.7878435354008957
 51
296.4159585024727903
  0
ARC
  5
24B24
  8
0
 10
4350.4260405639515739
 20
590.4598526506937333
 30
0.0
 40
0.0269852518177391
 50
112.2954319227823987
 51
156.3500187528512981
  0
ARC
  5
24B25
  8
0
 10
4350.4165501297620722
 20
590.4640087822666601
 30
0.0
 40
0.016624664441625
 50
156.3500187528572951
 51
211.1463063953924859
  0
ARC
  5
24B26
  8
0
 10
4350.4284971703491465
 20
590.4712288735577204
 30
0.0
 40
0.030583944402792
 50
211.1463063953924859
 51
232.8586896134000028
  0
ARC
  5
24B27
  8
0
 10
4350.4852587486711855
 20
590.5209719008170168
 30
0.0
 40
0.0470721955728475
 50
65.9755914333849347
 51
99.1697945428736602
  0
ARC
  5
24B28
  8
0
 10
4350.492117310802314
 20
590.5363588390235918
 30
0.0
 40
0.0302258980005999
 50
31.3287625598533594
 51
65.9755914333849347
  0
ARC
  5
24B29
  8
0
 10
4350.5020812480697714
 20
590.5431813542693362
 30
0.0
 40
0.0181788894247761
 50
324.520461138443693
 51
29.2889777198520207
  0
ARC
  5
24B2A
  8
0
 10
4350.4922217389730577
 20
590.5504193942199436
 30
0.0
 40
0.0304092432375523
 50
296.6804903746826199
 51
324.1972850150675072
  0
ARC
  5
24B2B
  8
0
 10
4350.4854223296333657
 20
590.5644227234619166
 30
0.0
 40
0.0459750839069069
 50
236.7878435354008957
 51
296.4159585024727903
  0
ARC
  5
24B2C
  8
0
 10
4350.4762493587622885
 20
590.5389614879753708
 30
0.0
 40
0.0269852518177391
 50
137.4227883824466119
 51
156.3500187528512981
  0
ARC
  5
24B2D
  8
0
 10
4350.4667589245718773
 20
590.5431176195484113
 30
0.0
 40
0.016624664441625
 50
156.3500187528572951
 51
211.1463063953924859
  0
ARC
  5
24B2E
  8
0
 10
4350.4787059651589516
 20
590.5503377108393579
 30
0.0
 40
0.030583944402792
 50
211.1463063953924859
 51
232.8586896134000028
  0
ARC
  5
24B2F
  8
0
 10
4350.9377195411370849
 20
589.6334639171469689
 30
0.0
 40
0.7891703587896374
 50
99.899491434057154
 51
120.2567552541821954
  0
ARC
  5
24B30
  8
0
 10
4350.8145214057904013
 20
589.8459530424961486
 30
0.0
 40
0.5435511601377769
 50
120.3255382220995955
 51
144.6805559972175956
  0
ARC
  5
24B31
  8
0
 10
4350.6526007505090092
 20
589.9589079288884932
 30
0.0
 40
0.3461332903096652
 50
144.4409734465010047
 51
215.5590265534989953
  0
ARC
  5
24B32
  8
0
 10
4350.8118168945902653
 20
590.0689111927960084
 30
0.0
 40
0.5396386636486298
 50
215.229750036475906
 51
239.764099134208891
  0
ARC
  5
24B33
  8
0
 10
4350.9373623887304348
 20
590.2849057303463951
 30
0.0
 40
0.7894691055699247
 50
239.7858930316099872
 51
257.6244998316487909
  0
ARC
  5
24B34
  8
0
 10
4350.6431590919191876
 20
589.9673924482356142
 30
0.0
 40
0.3416916317214383
 50
153.1647023190087111
 51
208.4279605474295067
  0
ARC
  5
24B35
  8
0
 10
4350.7472542965952016
 20
589.9147296593323517
 30
0.0
 40
0.4583500260678081
 50
130.326376654422603
 51
153.1647023190087111
  0
ARC
  5
24B36
  8
0
 10
4350.8810432578729888
 20
589.7571182795476261
 30
0.0
 40
0.665088588502718
 50
111.9288243262806049
 51
130.326376654422603
  0
ARC
  5
24B37
  8
0
 10
4350.9526216254344035
 20
589.5852425291152485
 30
0.0
 40
0.8512630071747951
 50
97.9039163636213061
 51
112.0776930168207031
  0
LINE
  5
24B38
  8
0
 10
4350.306467460199201
 20
590.0256326089292997
 30
0.0
 11
4350.306467460199201
 21
589.9589079288884932
 31
0.0
  0
ARC
  5
24B39
  8
0
 10
4350.9588265631900867
 20
590.2260945095946454
 30
0.0
 40
0.094482434355631
 50
110.4495374176187994
 51
155.622870494948188
  0
ARC
  5
24B3A
  8
0
 10
4350.9441972859176531
 20
590.234436825010448
 30
0.0
 40
0.0777298302029422
 50
156.7732034431836894
 51
208.6850394365777959
  0
ARC
  5
24B3B
  8
0
 10
4350.9592458716006149
 20
590.2438902470961466
 30
0.0
 40
0.0954751118141064
 50
209.327161188532699
 51
250.4549931115716106
  0
ARC
  5
24B3C
  8
0
 10
4350.9489195591822863
 20
590.2718833699991592
 30
0.0
 40
0.0826406494874802
 50
193.5816334599952881
 51
216.5825869412790041
  0
ARC
  5
24B3D
  8
0
 10
4350.9608339223068469
 20
590.2817598844553686
 30
0.0
 40
0.0980975926106015
 50
217.0674258037871027
 51
248.8952402861316955
  0
ARC
  5
24B3E
  8
0
 10
4350.6353102068378575
 20
590.1124889581360549
 30
0.0
 40
0.1126163345857566
 50
67.2156961085953668
 51
112.7843038914046048
  0
ARC
  5
24B3F
  8
0
 10
4350.6353161645602086
 20
590.1020424300967306
 30
0.0
 40
0.1223125099597756
 50
46.8415960385524599
 51
69.1137059532753
  0
ARC
  5
24B40
  8
0
 10
4350.653047569681803
 20
590.1205578476844948
 30
0.0
 40
0.0966779341404944
 50
16.1571501631068202
 51
47.0013577289408389
  0
ARC
  5
24B41
  8
0
 10
4350.6806344391507082
 20
590.1297373764506347
 30
0.0
 40
0.0676358880759886
 50
336.0578958433320054
 51
15.1911497252721706
  0
ARC
  5
24B42
  8
0
 10
4350.6216717474317193
 20
590.1467238836106617
 30
0.0
 40
0.0757741983724523
 50
113.3012678753136981
 51
145.5771516044071916
  0
ARC
  5
24B43
  8
0
 10
4350.6155402594276893
 20
590.1525334617444969
 30
0.0
 40
0.0674453143700748
 50
146.7038049847805894
 51
204.565582893173513
  0
ARC
  5
24B44
  8
0
 10
4350.6532664196101905
 20
590.169311937366956
 30
0.0
 40
0.1087329486773237
 50
204.3420123901063903
 51
244.6612201962296069
  0
ARC
  5
24B45
  8
0
 10
4350.6636447131677414
 20
590.1857895134035061
 30
0.0
 40
0.1280880191682705
 50
243.619844578659098
 51
258.830236240912825
  0
ARC
  5
24B46
  8
0
 10
4350.661958825399779
 20
590.1681063885241656
 30
0.0
 40
0.1104274832886875
 50
257.9110137064403716
 51
290.8886584368513013
  0
ARC
  5
24B47
  8
0
 10
4350.6744839999200849
 20
590.1357997069354724
 30
0.0
 40
0.0757784873807322
 50
290.7503594553625135
 51
333.7551364903367244
  0
ARC
  5
24B48
  8
0
 10
4350.6806344391507082
 20
590.166028234249552
 30
0.0
 40
0.0676358880759886
 50
336.0578958433320054
 51
344.4268694837322755
  0
ARC
  5
24B49
  8
0
 10
4350.6155402594276893
 20
590.1888243195434143
 30
0.0
 40
0.0674453143700748
 50
195.6070976712813092
 51
204.565582893173513
  0
ARC
  5
24B4A
  8
0
 10
4350.6532664196101905
 20
590.2056027951658734
 30
0.0
 40
0.1087329486773237
 50
204.3420123901063903
 51
244.6612201962296069
  0
ARC
  5
24B4B
  8
0
 10
4350.6636447131677414
 20
590.2220803712024235
 30
0.0
 40
0.1280880191682705
 50
243.619844578659098
 51
258.830236240912825
  0
ARC
  5
24B4C
  8
0
 10
4350.661958825399779
 20
590.204397246323083
 30
0.0
 40
0.1104274832886875
 50
257.9110137064403716
 51
290.8886584368513013
  0
ARC
  5
24B4D
  8
0
 10
4350.6744839999200849
 20
590.1720905647343898
 30
0.0
 40
0.0757784873807322
 50
290.7503594553625135
 51
333.7551364903367244
  0
ARC
  5
24B4E
  8
0
 10
4350.4950489743214348
 20
589.8547114584989686
 30
0.0
 40
0.133987393592515
 50
73.2451465816892409
 51
106.7548534183107023
  0
ARC
  5
24B4F
  8
0
 10
4350.4887540779973278
 20
589.8338022261583546
 30
0.0
 40
0.1558236413651187
 50
53.4763985686707883
 51
73.2451465816892409
  0
ARC
  5
24B50
  8
0
 10
4350.5247909996332965
 20
589.8824613985600536
 30
0.0
 40
0.0952730445073863
 50
21.7890943633289709
 51
53.4763985686707883
  0
ARC
  5
24B51
  8
0
 10
4350.5656206274443321
 20
589.9000359862766345
 30
0.0
 40
0.0508502083090198
 50
338.6156808555700195
 51
20.4781085377553111
  0
ARC
  5
24B52
  8
0
 10
4350.5578189625257437
 20
589.9079545329393568
 30
0.0
 40
0.0611699225747777
 50
291.2489275088801151
 51
334.3698788538371218
  0
ARC
  5
24B53
  8
0
 10
4350.538497910903061
 20
589.9629413918095224
 30
0.0
 40
0.1194362751947734
 50
259.3707223476985178
 51
290.3274126516594151
  0
ARC
  5
24B54
  8
0
 10
4350.536650172723057
 20
589.9787552490613507
 30
0.0
 40
0.1347211276519073
 50
213.7684558483983892
 51
261.3840236666990222
  0
ARC
  5
24B55
  8
0
 10
4350.4706049098431322
 20
589.9319665054499637
 30
0.0
 40
0.0538556826725367
 50
150.2343623027238948
 51
211.4437014454522057
  0
ARC
  5
24B56
  8
0
 10
4350.4770526223101115
 20
589.9213976825761847
 30
0.0
 40
0.0649747980215737
 50
108.511509324985596
 51
144.9594610899019926
  0
ARC
  5
24B57
  8
0
 10
4350.5578189625257437
 20
589.943788836426279
 30
0.0
 40
0.0611699225747777
 50
291.2489275088801151
 51
334.946450844480978
  0
ARC
  5
24B58
  8
0
 10
4350.538497910903061
 20
589.9987756952964446
 30
0.0
 40
0.1194362751947734
 50
259.3707223476985178
 51
290.3274126516594151
  0
ARC
  5
24B59
  8
0
 10
4350.536650172723057
 20
590.0145895525481592
 30
0.0
 40
0.1347211276519073
 50
213.7684558483983892
 51
261.3840236666990222
  0
ARC
  5
24B5A
  8
0
 10
4350.4706049098431322
 20
589.9678008089368859
 30
0.0
 40
0.0538556826725367
 50
199.4320215706055137
 51
211.4437014454522057
  0
ARC
  5
24B5B
  8
0
 10
4350.6301473778512445
 20
589.592974057025117
 30
0.0
 40
0.1582038318695496
 50
75.4871152830652505
 51
104.5128847169347068
  0
ARC
  5
24B5C
  8
0
 10
4350.6283217173240701
 20
589.5859212948387267
 30
0.0
 40
0.1654890560129132
 50
56.221411176890939
 51
75.4871152830652505
  0
ARC
  5
24B5D
  8
0
 10
4350.6809349779459808
 20
589.6645776140856015
 30
0.0
 40
0.070858343499712
 50
27.9853228273992016
 51
56.221411176890939
  0
ARC
  5
24B5E
  8
0
 10
4350.7101397286460269
 20
589.6800964604974524
 30
0.0
 40
0.0377864210069182
 50
320.6325475197359083
 51
27.9853228273992016
  0
ARC
  5
24B5F
  8
0
 10
4350.6860463675684514
 20
589.707796783923186
 30
0.0
 40
0.0742366811557276
 50
282.3461773514417814
 51
315.8939050195692744
  0
ARC
  5
24B60
  8
0
 10
4350.6670287026117876
 20
589.7963685897605046
 30
0.0
 40
0.1648268455133522
 50
254.0156479250491088
 51
282.2209078933530009
  0
ARC
  5
24B61
  8
0
 10
4350.6546507057328199
 20
589.7634108337256293
 30
0.0
 40
0.129765473888364
 50
222.0579428537407978
 51
255.2624993461953125
  0
ARC
  5
24B62
  8
0
 10
4350.5903938559085873
 20
589.7021842187874654
 30
0.0
 40
0.0411131881226331
 50
143.8272263105488946
 51
218.6914212328420035
  0
ARC
  5
24B63
  8
0
 10
4350.6094500979634176
 20
589.6760641238911376
 30
0.0
 40
0.0725826177320069
 50
105.1328215215922057
 51
136.0374242150010105
  0
ARC
  5
24B64
  8
0
 10
4350.7101397286460269
 20
589.7157330801649096
 30
0.0
 40
0.0377864210069182
 50
320.6325475197359083
 51
331.8649410343372779
  0
ARC
  5
24B65
  8
0
 10
4350.6860463675684514
 20
589.7434334035906431
 30
0.0
 40
0.0742366811557276
 50
282.3461773514417814
 51
315.8939050195692744
  0
ARC
  5
24B66
  8
0
 10
4350.6670287026117876
 20
589.8320052094279617
 30
0.0
 40
0.1648268455133522
 50
254.0156479250491088
 51
282.2209078933530009
  0
ARC
  5
24B67
  8
0
 10
4350.6546507057328199
 20
589.7990474533932002
 30
0.0
 40
0.129765473888364
 50
222.0579428537407978
 51
255.2624993461953125
  0
ARC
  5
24B68
  8
0
 10
4350.5903938559085873
 20
589.7378208384551499
 30
0.0
 40
0.0411131881226331
 50
205.6833014005781024
 51
218.6914212328420035
  0
ARC
  5
24B69
  8
0
 10
4350.953053772354906
 20
589.5304929665069267
 30
0.0
 40
0.1200816595785179
 50
98.7490556918450721
 51
123.1211257157388985
  0
ARC
  5
24B6A
  8
0
 10
4350.9212243003130425
 20
589.5818427004734303
 30
0.0
 40
0.059699826571432
 50
124.4651754730910937
 51
146.946974574507891
  0
ARC
  5
24B6B
  8
0
 10
4350.8976150057760606
 20
589.5980752266915488
 30
0.0
 40
0.0310663993029979
 50
148.2910243318862058
 51
211.8435639675003017
  0
ARC
  5
24B6C
  8
0
 10
4350.9191057155849194
 20
589.6114226637965885
 30
0.0
 40
0.0563647131856334
 50
211.8435639675003017
 51
245.078847512245602
  0
ARC
  5
24B6D
  8
0
 10
4350.9604270761747102
 20
589.6893621052555545
 30
0.0
 40
0.1445329634962352
 50
243.2421267422299138
 51
263.2164095882920947
  0
ARC
  5
24B6E
  8
0
 10
4350.9191057155849194
 20
589.647886118385145
 30
0.0
 40
0.0563647131856334
 50
214.1265489354846068
 51
245.078847512245602
  0
ARC
  5
24B6F
  8
0
 10
4350.9604270761747102
 20
589.7258255598442247
 30
0.0
 40
0.1445329634962352
 50
243.2421267422299138
 51
263.2164095882920947
  0
ARC
  5
24B70
  8
0
 10
4350.9599730411136989
 20
589.8152175257124554
 30
0.0
 40
0.1597566952419819
 50
100.3535134911710003
 51
120.3500082452599003
  0
ARC
  5
24B71
  8
0
 10
4350.9356883262353222
 20
589.8566926898917018
 30
0.0
 40
0.1116948952292725
 50
120.3500082452599003
 51
143.488747536921494
  0
ARC
  5
24B72
  8
0
 10
4350.903914284250277
 20
589.8802139025108318
 30
0.0
 40
0.0721621595896682
 50
143.488747536921494
 51
215.779950511186712
  0
ARC
  5
24B73
  8
0
 10
4350.9359495873677588
 20
589.9033014549326026
 30
0.0
 40
0.1116500782823006
 50
215.779950511186712
 51
245.746560008220797
  0
ARC
  5
24B74
  8
0
 10
4350.9630572624691922
 20
589.954940654781808
 30
0.0
 40
0.169902701275237
 50
244.5651494930789909
 51
262.2290391935051161
  0
ARC
  5
24B75
  8
0
 10
4350.903914284250277
 20
589.9150823553504779
 30
0.0
 40
0.0721621595896682
 50
193.9808690835085088
 51
215.779950511186712
  0
ARC
  5
24B76
  8
0
 10
4350.9359495873677588
 20
589.9381699077722487
 30
0.0
 40
0.1116500782823006
 50
215.779950511186712
 51
245.746560008220797
  0
ARC
  5
24B77
  8
0
 10
4350.9630572624691922
 20
589.9898091076216815
 30
0.0
 40
0.169902701275237
 50
244.5651494930789909
 51
262.2290391935051161
  0
ARC
  5
24B78
  8
0
 10
4350.9427809577136941
 20
590.017433735782447
 30
0.0
 40
0.1351765185331033
 50
224.2262525779088946
 51
247.6333515088637114
  0
ARC
  5
24B79
  8
0
 10
4350.9460254354307835
 20
590.0337225392919436
 30
0.0
 40
0.141685076995083
 50
227.6462657589902108
 51
247.9736178458796871
  0
ARC
  5
24B7A
  8
0
 10
4350.959563426211389
 20
590.103832687913723
 30
0.0
 40
0.1724207103950866
 50
241.6313645911885999
 51
258.2010837552119256
  0
ARC
  5
24B7B
  8
0
 10
4350.9619617054340779
 20
590.1219438548704375
 30
0.0
 40
0.1802714878407337
 50
245.6684193790152051
 51
259.7169605524402982
  0
ARC
  5
24B7C
  8
0
 10
4350.5442776404051983
 20
589.5913429837825106
 30
0.0
 40
0.1035815450639798
 50
255.2225741797819865
 51
279.0013943809121884
  0
ARC
  5
24B7D
  8
0
 10
4350.5543314630631357
 20
589.5278756424806943
 30
0.0
 40
0.0393228276633763
 50
279.0013943809121884
 51
309.3468062808231025
  0
ARC
  5
24B7E
  8
0
 10
4350.6082703763931931
 20
589.4620848968532982
 30
0.0
 40
0.0457526011126463
 50
96.9945571048298945
 51
129.3468062808231025
  0
ARC
  5
24B7F
  8
0
 10
4350.6211888133211687
 20
589.3790247210829421
 30
0.0
 40
0.1297960082054615
 50
72.6054191818162309
 51
98.1898744684401237
  0
ARC
  5
24B80
  8
0
 10
4350.694906128738694
 20
589.6118098804136025
 30
0.0
 40
0.1143838837079425
 50
252.2272952951367131
 51
283.039977870175278
  0
ARC
  5
24B81
  8
0
 10
4350.7490236665580596
 20
589.3809526226719981
 30
0.0
 40
0.1227324492461405
 50
79.790389171769533
 51
103.3357095870905056
  0
ARC
  5
24B82
  8
0
 10
4350.7573891886750062
 20
589.4104162126340043
 30
0.0
 40
0.0923017144939506
 50
59.2452217682512909
 51
81.6595621389915465
  0
ARC
  5
24B83
  8
0
 10
4350.7862342587477542
 20
589.4588912157971663
 30
0.0
 40
0.035893700886121
 50
31.3011184560568303
 51
59.2452217682512909
  0
ARC
  5
24B84
  8
0
 10
4350.9541650467535874
 20
589.4074294226966231
 30
0.0
 40
0.0732167275997962
 50
102.3349103450947979
 51
121.2819883273103017
  0
ARC
  5
24B85
  8
0
 10
4350.9664674601990555
 20
590.6909036775488175
 30
0.0
 40
1.238991195418905
 50
261.4581017588135978
 51
278.5418982411864022
  0
ARC
  5
24B86
  8
0
 10
4350.9535694663709364
 20
590.6077708560055726
 30
0.0
 40
1.154864822879655
 50
252.3128352463535009
 51
261.4782935044308942
  0
ARC
  5
24B87
  8
0
 10
4350.8478799965441794
 20
589.5069921707521416
 30
0.0
 40
0.0427435491649867
 50
223.555787640223997
 51
250.03632719382
  0
ARC
  5
24B88
  8
0
 10
4350.8726613179142078
 20
589.5716166405476315
 30
0.0
 40
0.1119523663524451
 50
249.4079266100507937
 51
284.892684230058876
  0
ARC
  5
24B89
  8
0
 10
4350.890159588439019
 20
589.5083910618916434
 30
0.0
 40
0.0463580957205369
 50
284.0758042004812864
 51
304.0962410218288028
  0
ARC
  5
24B8A
  8
0
 10
4350.3222473363721292
 20
590.220450365163515
 30
0.0
 40
0.6817798759691166
 50
152.8503162779674938
 51
207.1496837220325062
  0
ARC
  5
24B8B
  8
0
 10
4350.2982700615211797
 20
590.2516456121418287
 30
0.0
 40
0.6648155910979755
 50
153.3381367994641096
 51
193.5254182369658906
  0
ARC
  5
24B8C
  8
0
 10
4350.3035663172677232
 20
590.2857499638274703
 30
0.0
 40
0.6697286662416082
 50
180.8209255129607982
 51
188.592079919477186
  0
ARC
  5
24B8D
  8
0
 10
4350.302801780811933
 20
590.2516582084031143
 30
0.0
 40
0.6643341402155939
 50
180.0008715350003001
 51
184.9902454708741004
  0
LINE
  5
24B8E
  8
0
 10
4349.6384676406732979
 20
590.251648103113439
 30
0.0
 11
4349.6384676406732979
 21
590.3331350937355637
 31
0.0
  0
ARC
  5
24B8F
  8
0
 10
4350.3040075297740259
 20
590.2516049957481528
 30
0.0
 40
0.6655398904968988
 50
174.6995841477541092
 51
179.9962889225386107
  0
ARC
  5
24B90
  8
0
 10
4350.3380253689965684
 20
590.2467165065941117
 30
0.0
 40
0.6998659844111303
 50
154.4352935148932886
 51
174.5583562266808997
  0
ARC
  5
24B91
  8
0
 10
4350.5525654810762717
 20
590.1216270523500498
 30
0.0
 40
0.9475988326109193
 50
135.7076471871314141
 51
153.2100457742926949
  0
ARC
  5
24B92
  8
0
 10
4350.4740061154843715
 20
590.1674399953869852
 30
0.0
 40
0.8596583384415998
 50
134.2367118281372882
 51
153.5784072103768096
  0
ARC
  5
24B93
  8
0
 10
4350.7429167940435946
 20
589.887613536399499
 30
0.0
 40
1.247745086121026
 50
115.9323337162200005
 51
134.1196636645508988
  0
ARC
  5
24B94
  8
0
 10
4350.9232782949502507
 20
589.5121604830944761
 30
0.0
 40
1.664269158810231
 50
99.1522265797547817
 51
115.8638917898395988
  0
ARC
  5
24B95
  8
0
 10
4350.6009560281299855
 20
590.0588044577852997
 30
0.0
 40
1.0036796669561461
 50
124.6004151815389065
 51
151.8994571709415879
  0
ARC
  5
24B96
  8
0
 10
4350.8490632763068788
 20
589.6991581026512677
 30
0.0
 40
1.440603810668309
 50
111.8092372052483938
 51
124.6004151815389065
  0
ARC
  5
24B97
  8
0
 10
4350.9480609727315823
 20
589.4229742985407938
 30
0.0
 40
1.733832384686961
 50
97.342463335862476
 51
111.4558076833578042
  0
ARC
  5
24B98
  8
0
 10
4350.513009241493819
 20
590.3149490347593655
 30
0.0
 40
0.8946493672895346
 50
206.9600353235252044
 51
226.3912088019094995
  0
ARC
  5
24B99
  8
0
 10
4350.775735110196365
 20
590.6028873634232923
 30
0.0
 40
1.2843730835672911
 50
226.7645523379345889
 51
233.1652629300992032
  0
ARC
  5
24B9A
  8
0
 10
4350.775735110196365
 20
590.6028873634232923
 30
0.0
 40
1.2843730835672911
 50
237.9462725948716866
 51
243.2394240416194009
  0
ARC
  5
24B9B
  8
0
 10
4350.775735110196365
 20
590.6028873634232923
 30
0.0
 40
1.2843730835672911
 50
247.3593555012558056
 51
248.2401693434773051
  0
ARC
  5
24B9C
  8
0
 10
4350.9381240710536076
 20
590.979772243640582
 30
0.0
 40
1.694640065257677
 50
247.8648575253079969
 51
248.5288304153878869
  0
ARC
  5
24B9D
  8
0
 10
4350.9381240710536076
 20
590.979772243640582
 30
0.0
 40
1.694640065257677
 50
253.506549047656506
 51
256.0671890502954966
  0
ARC
  5
24B9E
  8
0
 10
4350.9381240710536076
 20
590.979772243640582
 30
0.0
 40
1.694640065257677
 50
259.662112093155713
 51
262.0089610599115986
  0
ARC
  5
24B9F
  8
0
 10
4350.3525861401276416
 20
590.0778914153906953
 30
0.0
 40
0.9305569749436102
 50
136.2559917912506933
 51
163.920621799628293
  0
ARC
  5
24BA0
  8
0
 10
4350.7071862243683427
 20
589.7385067416465745
 30
0.0
 40
1.421396232251662
 50
120.8807898396496938
 51
136.2559917912506933
  0
ARC
  5
24BA1
  8
0
 10
4350.8731143581962897
 20
589.4267084982271854
 30
0.0
 40
1.774243786227272
 50
105.5113164744812053
 51
120.3115867178236016
  0
ARC
  5
24BA2
  8
0
 10
4350.9574427188490517
 20
589.1324656289989434
 30
0.0
 40
2.080323047898291
 50
94.8566753045122937
 51
105.5820420118018035
  0
ARC
  5
24BA3
  8
0
 10
4350.3525861401276416
 20
590.1753097654907378
 30
0.0
 40
0.9305569749436102
 50
196.0793782003715933
 51
223.7440082087493067
  0
ARC
  5
24BA4
  8
0
 10
4350.7071862243683427
 20
590.5146944392348587
 30
0.0
 40
1.421396232251662
 50
223.7440082087493067
 51
239.119210160350292
  0
ARC
  5
24BA5
  8
0
 10
4350.8731143581962897
 20
590.8264926826541341
 30
0.0
 40
1.774243786227272
 50
239.6884132821764126
 51
254.4886835255186952
  0
ARC
  5
24BA6
  8
0
 10
4350.9574427188490517
 20
591.1207355518824897
 30
0.0
 40
2.080323047898291
 50
254.4179579881981965
 51
265.1433246954877063
  0
ARC
  5
24BA7
  8
0
 10
4350.2052738014335773
 20
590.1266005904407166
 30
0.0
 40
0.7755399640364641
 50
164.3640965036310888
 51
195.6359034963687975
  0
ARC
  5
24BA8
  8
0
 10
4350.0769447396169198
 20
590.2455322631261652
 30
0.0
 40
0.9389771109216301
 50
162.8130913024245103
 51
197.1869086975754044
  0
ARC
  5
24BA9
  8
0
 10
4350.246966361176419
 20
590.1810376356838788
 30
0.0
 40
1.1205218118480309
 50
138.9236880504132898
 51
162.2314406338859101
  0
ARC
  5
24BAA
  8
0
 10
4350.5902087574495454
 20
589.8743110306318158
 30
0.0
 40
1.5808191183801239
 50
119.6267692456319054
 51
138.717486712669114
  0
ARC
  5
24BAB
  8
0
 10
4350.8877518125636925
 20
589.3372300553412515
 30
0.0
 40
2.1947848617560739
 50
101.969996796555705
 51
119.4476479421035009
  0
ARC
  5
24BAC
  8
0
 10
4350.246966361176419
 20
590.3100268905687926
 30
0.0
 40
1.1205218118480309
 50
197.7685593661140047
 51
221.0763119495867102
  0
ARC
  5
24BAD
  8
0
 10
4350.5902087574495454
 20
590.6167534956208556
 30
0.0
 40
1.5808191183801239
 50
221.2825132873308007
 51
240.3732307543681088
  0
ARC
  5
24BAE
  8
0
 10
4350.8877518125636925
 20
591.1538344709111925
 30
0.0
 40
2.1947848617560739
 50
240.5523520578965133
 51
258.0300032034443234
  0
ARC
  5
24BAF
  8
0
 10
4350.0769447396169198
 20
590.2602017633129208
 30
0.0
 40
0.9389771109216301
 50
162.8130913024245103
 51
180.4475662858961869
  0
ARC
  5
24BB0
  8
0
 10
4350.246966361176419
 20
590.1957071358705207
 30
0.0
 40
1.1205218118480309
 50
138.9236880504132898
 51
162.2314406338859101
  0
ARC
  5
24BB1
  8
0
 10
4350.5902087574495454
 20
589.8889805308184577
 30
0.0
 40
1.5808191183801239
 50
119.6267692456319054
 51
138.717486712669114
  0
ARC
  5
24BB2
  8
0
 10
4350.8877518125636925
 20
589.3518995555280071
 30
0.0
 40
2.1947848617560739
 50
101.969996796555705
 51
119.4476479421035009
  0
ARC
  5
24BB3
  8
0
 10
4350.9059848453507584
 20
589.2828428389582314
 30
0.0
 40
2.3640861711822012
 50
99.4250581948817711
 51
115.1543317011979042
  0
ARC
  5
24BB4
  8
0
 10
4350.679749213980358
 20
589.7646143978711279
 30
0.0
 40
1.8318396156467709
 50
115.1543317011979042
 51
131.8459193592811971
  0
ARC
  5
24BB5
  8
0
 10
4350.3202088064354029
 20
590.1660904391383156
 30
0.0
 40
1.292903333356481
 50
131.8459193592811971
 51
154.9921829200607988
  0
ARC
  5
24BB6
  8
0
 10
4350.0350700912003958
 20
590.3037012806430539
 30
0.0
 40
0.9763313731046362
 50
155.2368848696127941
 51
204.7631151303872059
  0
ARC
  5
24BB7
  8
0
 10
4350.5236795439568596
 20
590.4934016972312065
 30
0.0
 40
1.501956530505913
 50
164.810356508994488
 51
195.1896434910053983
  0
ARC
  5
24BB8
  8
0
 10
4350.507180182191405
 20
590.5032433529397622
 30
0.0
 40
1.4886764096153839
 50
195.7215863272747924
 51
201.6075673689759071
  0
ARC
  5
24BB9
  8
0
 10
4350.3383547484099836
 20
590.5436353683360267
 30
0.0
 40
1.309944305950814
 50
145.7646468831152049
 51
164.8068955424039927
  0
ARC
  5
24BBA
  8
0
 10
4350.4672558528609443
 20
590.4203858181103897
 30
0.0
 40
1.486140940895587
 50
126.606347134856307
 51
144.6320437250905968
  0
ARC
  5
24BBB
  8
0
 10
4350.9178289602014047
 20
589.7583902829314866
 30
0.0
 40
2.2864807641865279
 50
102.0608181998871942
 51
125.7779124355238025
  0
ARC
  5
24BBC
  8
0
 10
4350.3201801653431176
 20
590.4364615831148058
 30
0.0
 40
1.2908342948033791
 50
204.8132393278168024
 51
228.6132488976805064
  0
ARC
  5
24BBD
  8
0
 10
4332.8436568198703753
 20
593.7909324906532902
 30
0.0
 40
16.8724435645044117
 50
352.5676005230644137
 51
353.367107602933288
  0
ARC
  5
24BBE
  8
0
 10
4351.5929350122178221
 20
591.6045609849585389
 30
0.0
 40
2.0038898181508351
 50
170.3434103338998113
 51
173.1939304862152085
  0
ARC
  5
24BBF
  8
0
 10
4350.6356857209430018
 20
591.754711024859148
 30
0.0
 40
1.035093468372398
 50
129.3255749269580122
 51
169.6487733242564957
  0
ARC
  5
24BC0
  8
0
 10
4350.866393554509159
 20
591.4860864840594559
 30
0.0
 40
1.389119965701298
 50
110.022024121006595
 51
129.6650875087811983
  0
ARC
  5
24BC1
  8
0
 10
4350.946121862810287
 20
591.9035853197401593
 30
0.0
 40
1.120225364416688
 50
100.2024234830306995
 51
111.1472617225584969
  0
ARC
  5
24BC2
  8
0
 10
4350.8862665124997875
 20
592.057895555205846
 30
0.0
 40
0.9547131784403466
 50
111.1379870997864998
 51
121.8212916896384996
  0
ARC
  5
24BC3
  8
0
 10
4350.8047732533323142
 20
592.1901419193878837
 30
0.0
 40
0.7993749314551768
 50
121.8560678866889049
 51
131.651428773795601
  0
ARC
  5
24BC4
  8
0
 10
4350.725301180263159
 20
592.2802775381413767
 30
0.0
 40
0.6792087164387567
 50
131.695479593606791
 51
141.8079667801663106
  0
ARC
  5
24BC5
  8
0
 10
4350.8103537720025997
 20
592.3409250168758717
 30
0.0
 40
0.6848553236087132
 50
124.9630910168932019
 51
132.4599324353337977
  0
ARC
  5
24BC6
  8
0
 10
4350.8756805835428167
 20
592.2451368090721644
 30
0.0
 40
0.8007923919430391
 50
114.3514236048121973
 51
124.8661720379880933
  0
ARC
  5
24BC7
  8
0
 10
4350.9432092536408163
 20
592.0922336617469455
 30
0.0
 40
0.9679377394128932
 50
100.2947819718144018
 51
114.2610938172860955
  0
ARC
  5
24BC8
  8
0
 10
4350.8801074689235975
 20
592.2772557692530881
 30
0.0
 40
0.7751605720378545
 50
90.8838941967054552
 51
98.1492645637583365
  0
LINE
  5
24BC9
  8
0
 10
4350.7296505477988831
 20
593.0026963409112568
 30
0.0
 11
4350.7296505477988831
 21
593.0249228196952345
 31
0.0
  0
ARC
  5
24BCA
  8
0
 10
4350.7363983327768437
 20
593.0249228196952345
 30
0.0
 40
0.0067477849789297
 50
140.2701082569865036
 51
180.0
  0
ARC
  5
24BCB
  8
0
 10
4350.7483847915873412
 20
593.0149609015940086
 30
0.0
 40
0.0223335158582946
 50
116.3778649960515992
 51
140.2701082569865036
  0
ARC
  5
24BCC
  8
0
 10
4350.7846384961876538
 20
592.9397482390495497
 30
0.0
 40
0.1058265717767898
 50
103.3680188786757981
 51
115.8705162892932066
  0
ARC
  5
24BCD
  8
0
 10
4350.8889627566013587
 20
591.693691121567781
 30
0.0
 40
1.218766127661973
 50
106.6610974047902971
 51
121.8800712967966007
  0
ARC
  5
24BCE
  8
0
 10
4350.958969825422173
 20
591.4701572400117584
 30
0.0
 40
1.452990260039388
 50
94.0430737098212148
 51
106.778551255923503
  0
ARC
  5
24BCF
  8
0
 10
4350.9421221483462432
 20
591.2951597852013492
 30
0.0
 40
1.5944458013662219
 50
101.8190973814400024
 51
110.2297949554292984
  0
ARC
  5
24BD0
  8
0
 10
4350.9635168684999371
 20
591.196427760285701
 30
0.0
 40
1.695466894008177
 50
93.9242693931847867
 51
101.8433818418649963
  0
LINE
  5
24BD1
  8
0
 10
4350.2170952119986396
 20
590.1305666121952527
 30
0.0
 11
4350.2170952119986396
 21
590.0453198114952329
 31
0.0
  0
LINE
  5
24BD2
  8
0
 10
4350.4714674602346349
 20
592.9364256097481984
 30
0.0
 11
4350.4714676975991097
 21
593.2752248276950695
 31
0.0
  0
ARC
  5
24BD3
  8
0
 10
4350.7403697509898848
 20
593.2745056775469266
 30
0.0
 40
0.2689030150350718
 50
162.5068214370434134
 51
179.8467688529065072
  0
ARC
  5
24BD4
  8
0
 10
4350.7971483314531724
 20
593.2511674689358188
 30
0.0
 40
0.3301118540444616
 50
134.1542234749171882
 51
161.605691813065107
  0
ARC
  5
24BD5
  8
0
 10
4350.9191278295611482
 20
593.1137691477019871
 30
0.0
 40
0.5137259790143484
 50
104.2667740283075943
 51
133.2402785089527129
  0
LINE
  5
24BD6
  8
0
 10
4350.5604674601991064
 20
593.481289178827069
 30
0.0
 11
4350.5604674601991064
 21
594.5414806481951473
 31
0.0
  0
ARC
  5
24BD7
  8
0
 10
4350.9664674601990555
 20
594.5414806481951473
 30
0.0
 40
0.4060000000000002
 50
0.0
 51
180.0
  0
ARC
  5
24BD8
  8
0
 10
4350.9664674601990555
 20
594.5414806481951473
 30
0.0
 40
0.5985959810000004
 50
312.7073392133934249
 51
227.2926607866066036
  0
ARC
  5
24BD9
  8
0
 10
4350.9664674601990555
 20
594.5414806481951473
 30
0.0
 40
0.9057608080000001
 50
296.6309457667204015
 51
243.3690542332797122
  0
ARC
  5
24BDA
  8
0
 10
4350.9664674601990555
 20
594.5414806481951473
 30
0.0
 40
1.0110089467854899
 50
293.676928928711618
 51
246.3230710712884104
  0
ARC
  5
24BDB
  8
0
 10
4350.9664674601990555
 20
594.5414806481951473
 30
0.0
 40
0.4117556972999999
 50
350.408776920527373
 51
189.5912230794725986
  0
LINE
  5
24BDC
  8
0
 10
4350.7715315732993986
 20
593.5000985765951782
 30
0.0
 11
4350.7715315732993986
 21
593.1308638250951617
 31
0.0
  0
ARC
  5
24BDD
  8
0
 10
4350.9642743294807588
 20
590.9156602717355327
 30
0.0
 40
0.0622425549991333
 50
37.9852699633178617
 51
72.5635158308093651
  0
ARC
  5
24BDE
  8
0
 10
4350.9522689127115882
 20
590.9062855816085857
 30
0.0
 40
0.0774745885715125
 50
10.1157754038100602
 51
37.9852699633178617
  0
ARC
  5
24BDF
  8
0
 10
4350.9488793907676154
 20
590.9056808528870306
 30
0.0
 40
0.0809176331314133
 50
344.7361892696621908
 51
10.1157754038100602
  0
LINE
  5
24BE0
  8
0
 10
4351.0269425648994002
 20
590.8843781723951452
 30
0.0
 11
4351.01267217269924
 21
590.8323861581950496
 31
0.0
  0
ARC
  5
24BE1
  8
0
 10
4350.9765117541073778
 20
590.8423112084814193
 30
0.0
 40
0.0374977665453987
 50
299.1442190928027003
 51
344.6518366764556731
  0
ARC
  5
24BE2
  8
0
 10
4350.9682724722651983
 20
590.8279898834381356
 30
0.0
 40
0.0150977586944653
 50
34.4249350827865968
 51
77.4136586085154761
  0
ARC
  5
24BE3
  8
0
 10
4350.9733823242859216
 20
590.8314919395105562
 30
0.0
 40
0.0089030041057534
 50
327.8133167496166038
 51
34.4249350827865968
  0
ARC
  5
24BE4
  8
0
 10
4350.9687812197189487
 20
590.8343879164342525
 30
0.0
 40
0.0143396248928685
 50
290.0953276863393739
 51
327.8133167496166038
  0
ARC
  5
24BE5
  8
0
 10
4350.9664674601990555
 20
590.8227463885199313
 30
0.0
 40
0.0206178717753126
 50
75.693175758511714
 51
104.3068242414883002
  0
ARC
  5
24BE6
  8
0
 10
4350.9664674601990555
 20
590.8399601443203437
 30
0.0
 40
0.0203692357251736
 50
249.1778672719657948
 51
290.8221327280342052
  0
ARC
  5
24BE7
  8
0
 10
4351.1423233316991173
 20
590.8204645572993741
 30
0.0
 40
0.0665642073060924
 50
12.6889524823583493
 51
45.0918678756296387
  0
ARC
  5
24BE8
  8
0
 10
4351.1299455697308076
 20
590.8174362866368483
 30
0.0
 40
0.0793051998076188
 50
345.636951919567025
 51
12.8590480886555998
  0
LINE
  5
24BE9
  8
0
 10
4351.2067719544993452
 20
590.7977634291952427
 30
0.0
 11
4351.1935078659989813
 21
590.7454051827952526
 31
0.0
  0
ARC
  5
24BEA
  8
0
 10
4351.1576267914260825
 20
590.7554477859652025
 30
0.0
 40
0.0372599703558884
 50
298.3202512380523785
 51
344.3638213453671142
  0
ARC
  5
24BEB
  8
0
 10
4351.1492112441474092
 20
590.7381807213063212
 30
0.0
 40
0.0151301186209191
 50
37.245951006661663
 51
79.0246906481766445
  0
ARC
  5
24BEC
  8
0
 10
4351.1552625526110205
 20
590.7427424815858785
 30
0.0
 40
0.0075521207732963
 50
324.967907833667482
 51
37.4820106571483933
  0
ARC
  5
24BED
  8
0
 10
4351.1493105923063922
 20
590.7460457241800214
 30
0.0
 40
0.0143396248928685
 50
290.0953276863393739
 51
327.8133167496166038
  0
ARC
  5
24BEE
  8
0
 10
4351.1561395880462442
 20
590.8181959242741641
 30
0.0
 40
0.065150204697675
 50
108.3960704275772997
 51
135.8437744799059033
  0
ARC
  5
24BEF
  8
0
 10
4351.165720028022406
 20
590.8091060972902824
 30
0.0
 40
0.0783559025812516
 50
135.9552614159543964
 51
162.3057227129847888
  0
ARC
  5
24BF0
  8
0
 10
4351.1665904643277827
 20
590.8083530253768458
 30
0.0
 40
0.0794153386151839
 50
161.978976672124503
 51
193.8078794694891087
  0
LINE
  5
24BF1
  8
0
 10
4351.0894701124989297
 20
590.7893992040951616
 30
0.0
 11
4351.1006152640993605
 21
590.7454051827952526
 31
0.0
  0
ARC
  5
24BF2
  8
0
 10
4351.1363827479235624
 20
590.7552566411187627
 30
0.0
 40
0.0370993818044895
 50
195.3991838814447988
 51
241.5181241308766005
  0
ARC
  5
24BF3
  8
0
 10
4351.145800278382012
 20
590.7365432164757522
 30
0.0
 40
0.0169454094888524
 50
103.3004591288492975
 51
140.4288992163008061
  0
ARC
  5
24BF4
  8
0
 10
4351.138731112961068
 20
590.7427424815858785
 30
0.0
 40
0.0075521207732963
 50
142.5179893428515925
 51
215.0320921663324896
  0
ARC
  5
24BF5
  8
0
 10
4351.1446830732656963
 20
590.7460457241800214
 30
0.0
 40
0.0143396248928685
 50
212.1866832503833962
 51
249.9046723136605976
  0
ARC
  5
24BF6
  8
0
 10
4351.1469968327855895
 20
590.7330556643412365
 30
0.0
 40
0.0206178717753126
 50
75.693175758511714
 51
104.3068242414883002
  0
ARC
  5
24BF7
  8
0
 10
4351.1469968327855895
 20
590.7516179520661126
 30
0.0
 40
0.0203692357251736
 50
249.1778672719657948
 51
290.8221327280342052
  0
ARC
  5
24BF8
  8
0
 10
4351.1469968327855895
 20
590.7707886306623095
 30
0.0
 40
0.0558462582659479
 50
239.5452995815608972
 51
300.4547004184391881
  0
ARC
  5
24BF9
  8
0
 10
4351.3570899797732636
 20
590.8768362145402762
 30
0.0
 40
0.0519972740962584
 50
47.9737910926994076
 51
75.5802648171710985
  0
ARC
  5
24BFA
  8
0
 10
4351.3532812949715662
 20
590.8725421499694903
 30
0.0
 40
0.05773689125233
 50
23.9640273766054612
 51
48.0189544985606034
  0
ARC
  5
24BFB
  8
0
 10
4351.3380408317507317
 20
590.8660403855939194
 30
0.0
 40
0.0743048290111813
 50
345.7458973284195167
 51
23.772182816120921
  0
LINE
  5
24BFC
  8
0
 10
4351.4100580588992671
 20
590.8477448503950882
 30
0.0
 11
4351.3956846110004335
 21
590.7864327796952466
 31
0.0
  0
ARC
  5
24BFD
  8
0
 10
4351.3579201227139492
 20
590.7958284863429981
 30
0.0
 40
0.0389157536075107
 50
298.1778195854467981
 51
346.0286253791060744
  0
ARC
  5
24BFE
  8
0
 10
4351.3515958879816026
 20
590.780303379835118
 30
0.0
 40
0.0150977586944653
 50
34.4249350827865968
 51
77.4136586085154761
  0
ARC
  5
24BFF
  8
0
 10
4351.3567057400032354
 20
590.7838054359076523
 30
0.0
 40
0.0089030041057534
 50
327.8133167496166038
 51
34.4249350827865968
  0
ARC
  5
24C00
  8
0
 10
4351.3521046354362625
 20
590.7867014128313485
 30
0.0
 40
0.0143396248928685
 50
290.0953276863393739
 51
327.8133167496166038
  0
ARC
  5
24C01
  8
0
 10
4351.3642035721522916
 20
590.8543638469778898
 30
0.0
 40
0.0761540788014745
 50
114.5706899466643023
 51
143.1260638234101918
  0
ARC
  5
24C02
  8
0
 10
4351.371321806058404
 20
590.8486428101012962
 30
0.0
 40
0.0852818558701981
 50
142.9209869722577082
 51
166.5949400967868996
  0
ARC
  5
24C03
  8
0
 10
4351.3626831033807321
 20
590.8498810451590089
 30
0.0
 40
0.0765956059412178
 50
165.9978195249829866
 51
196.7537198888155103
  0
LINE
  5
24C04
  8
0
 10
4351.2893387780977719
 20
590.827801715495184
 30
0.0
 11
4351.303299844198591
 21
590.7830882969950608
 31
0.0
  0
ARC
  5
24C05
  8
0
 10
4351.3412445392086738
 20
590.7961699573617125
 30
0.0
 40
0.0401363889431343
 50
199.0219390210488086
 51
239.7787495105696109
  0
ARC
  5
24C06
  8
0
 10
4351.3479858638511359
 20
590.780303379835118
 30
0.0
 40
0.0150977586944653
 50
102.5863413914844955
 51
145.5750649172134104
  0
ARC
  5
24C07
  8
0
 10
4351.3428760118304126
 20
590.7838054359076523
 30
0.0
 40
0.0089030041057534
 50
145.5750649172134104
 51
212.1866832503833962
  0
ARC
  5
24C08
  8
0
 10
4351.3474771163973855
 20
590.7867014128313485
 30
0.0
 40
0.0143396248928685
 50
212.1866832503833962
 51
249.9046723136605976
  0
ARC
  5
24C09
  8
0
 10
4351.3564936080510961
 20
590.8707779922600594
 30
0.0
 40
0.058020628248044
 50
76.4997278523493236
 51
114.3864594970004021
  0
ARC
  5
24C0A
  8
0
 10
4351.3497908759163693
 20
590.7750598849169137
 30
0.0
 40
0.0206178717753126
 50
75.693175758511714
 51
104.3068242414883002
  0
ARC
  5
24C0B
  8
0
 10
4351.3497908759163693
 20
590.7922736407174398
 30
0.0
 40
0.0203692357251736
 50
249.1778672719657948
 51
290.8221327280342052
  0
ARC
  5
24C0C
  8
0
 10
4351.3486374554486247
 20
590.8102485011994531
 30
0.0
 40
0.0560269963282235
 50
240.4927479481318926
 51
299.5823347039944906
  0
ARC
  5
24C0D
  8
0
 10
4351.7007638208360731
 20
590.7426497754028105
 30
0.0
 40
0.0464444456130346
 50
16.6316920538364812
 51
58.6419198722135278
  0
ARC
  5
24C0E
  8
0
 10
4351.6797803082226892
 20
590.7364274138434439
 30
0.0
 40
0.06833106891639
 50
348.0478968779351021
 51
16.5949471287690997
  0
LINE
  5
24C0F
  8
0
 10
4351.7466300322994357
 20
590.722276464395236
 30
0.0
 11
4351.7324618675993406
 21
590.6507178629951795
 31
0.0
  0
ARC
  5
24C10
  8
0
 10
4351.6939383217613795
 20
590.6593437151185526
 30
0.0
 40
0.0394774481035437
 50
301.0766691820494998
 51
347.3790097618880282
  0
ARC
  5
24C11
  8
0
 10
4351.688324032622404
 20
590.6429856455238223
 30
0.0
 40
0.0150977586944653
 50
34.4249350827865968
 51
77.4136586085154761
  0
ARC
  5
24C12
  8
0
 10
4351.6934338846431274
 20
590.6464877015963566
 30
0.0
 40
0.0089030041057534
 50
327.8133167496166038
 51
34.4249350827865968
  0
ARC
  5
24C13
  8
0
 10
4351.6888327800761544
 20
590.6493836785200529
 30
0.0
 40
0.0143396248928685
 50
290.0953276863393739
 51
327.8133167496166038
  0
ARC
  5
24C14
  8
0
 10
4351.7105017138019321
 20
590.7053975054620878
 30
0.0
 40
0.0851678831036262
 50
112.8322948336193008
 51
137.3089925242686036
  0
ARC
  5
24C15
  8
0
 10
4351.7149000491690458
 20
590.7000770893537265
 30
0.0
 40
0.0920129133258258
 50
136.7309049822179929
 51
167.579274594070597
  0
ARC
  5
24C16
  8
0
 10
4351.6876032146274156
 20
590.7046519107572067
 30
0.0
 40
0.0643862803271216
 50
166.3302420633673933
 51
198.4880836284526993
  0
LINE
  5
24C17
  8
0
 10
4351.6265399341991724
 20
590.6842345436951973
 30
0.0
 11
4351.6401261753990184
 21
590.6445162311952117
 31
0.0
  0
ARC
  5
24C18
  8
0
 10
4351.6762249583825906
 20
590.6575855142384626
 30
0.0
 40
0.0383917737573155
 50
199.902394042053686
 51
240.4291733176991954
  0
ARC
  5
24C19
  8
0
 10
4351.6847140084901184
 20
590.6429856455238223
 30
0.0
 40
0.0150977586944653
 50
102.5863413914844955
 51
145.5750649172134104
  0
ARC
  5
24C1A
  8
0
 10
4351.6796041564693951
 20
590.6464877015963566
 30
0.0
 40
0.0089030041057534
 50
145.5750649172134104
 51
212.1866832503833962
  0
ARC
  5
24C1B
  8
0
 10
4351.684205261036368
 20
590.6493836785200529
 30
0.0
 40
0.0143396248928685
 50
212.1866832503833962
 51
249.9046723136605976
  0
ARC
  5
24C1C
  8
0
 10
4351.6995927026164281
 20
590.7350625420970118
 30
0.0
 40
0.0536139801958274
 50
61.7941990663516165
 51
114.3893769434895944
  0
ARC
  5
24C1D
  8
0
 10
4351.6865190205562612
 20
590.637742150605618
 30
0.0
 40
0.0206178717753126
 50
75.693175758511714
 51
104.3068242414883002
  0
ARC
  5
24C1E
  8
0
 10
4351.6865190205562612
 20
590.6549559064061441
 30
0.0
 40
0.0203692357251736
 50
249.1778672719657948
 51
290.8221327280342052
  0
ARC
  5
24C1F
  8
0
 10
4351.6846612667841327
 20
590.6733000917173513
 30
0.0
 40
0.0562243315600639
 50
240.8548182328613905
 51
301.8323425447082968
  0
ARC
  5
24C20
  8
0
 10
4350.9754106179670998
 20
589.1720630299721506
 30
0.0
 40
0.165291635050433
 50
76.2890587435308873
 51
85.5261314935983705
  0
ARC
  5
24C21
  8
0
 10
4351.0055184313514474
 20
589.2954502247769142
 30
0.0
 40
0.0382842329297386
 50
52.8922973776328433
 51
76.2953020341086159
  0
ARC
  5
24C22
  8
0
 10
4351.0253800741820669
 20
589.3230459760354734
 30
0.0
 40
0.0043693020760693
 50
351.6508398307498737
 51
42.219166960306282
  0
LINE
  5
24C23
  8
0
 10
4351.0297030684987476
 20
589.3224115307950797
 30
0.0
 11
4351.013095489499392
 21
589.2521682486950567
 31
0.0
  0
ARC
  5
24C24
  8
0
 10
4350.9772161519667861
 20
589.2625384804078976
 30
0.0
 40
0.0373479392663997
 50
297.680176201384711
 51
343.8790802784915854
  0
ARC
  5
24C25
  8
0
 10
4350.9688129741316516
 20
589.242114246998085
 30
0.0
 40
0.0154549357078926
 50
39.9982885651506024
 51
78.5446315048094732
  0
ARC
  5
24C26
  8
0
 10
4350.9749940398560284
 20
589.2475596026658877
 30
0.0
 40
0.0072224921846456
 50
321.8895674782576748
 51
38.4232540187603533
  0
ARC
  5
24C27
  8
0
 10
4350.9684198815730269
 20
589.2536584099465244
 30
0.0
 40
0.0161762376302703
 50
282.650696412241075
 51
319.2631741328339103
  0
ARC
  5
24C28
  8
0
 10
4351.167776382089869
 20
590.9731832588670386
 30
0.0
 40
0.0667421827855881
 50
16.0883995197405412
 51
48.8264357535491982
  0
ARC
  5
24C29
  8
0
 10
4351.1566500659782832
 20
590.9695665337460468
 30
0.0
 40
0.078435985477618
 50
345.3398267023983976
 51
16.374566300557909
  0
LINE
  5
24C2A
  8
0
 10
4351.2325324822986659
 20
590.9497155208952108
 30
0.0
 11
4351.2190412428990385
 21
590.897171381695216
 31
0.0
  0
ARC
  5
24C2B
  8
0
 10
4351.1782653084310368
 20
590.9089082225394804
 30
0.0
 40
0.0424314772868311
 50
298.0593581012192885
 51
343.9422001389688717
  0
ARC
  5
24C2C
  8
0
 10
4351.1747682076666024
 20
590.8936720135072846
 30
0.0
 40
0.0148702315291542
 50
35.2047870262753335
 51
73.1066533599496466
  0
ARC
  5
24C2D
  8
0
 10
4351.1788705891431164
 20
590.896697283901517
 30
0.0
 40
0.0097747035764486
 50
330.6699747200873958
 51
34.5780877827695079
  0
ARC
  5
24C2E
  8
0
 10
4351.1747365231130971
 20
590.8992000234452462
 30
0.0
 40
0.0146056179065534
 50
295.5172793519989227
 51
330.0544986539106844
  0
ARC
  5
24C2F
  8
0
 10
4351.1770743270699313
 20
590.97308356378187
 30
0.0
 40
0.0643679481791857
 50
103.7623813568552009
 51
129.4571352449034123
  0
ARC
  5
24C30
  8
0
 10
4351.1850160407348085
 20
590.9640821428849904
 30
0.0
 40
0.0763660206063269
 50
129.7657931368837865
 51
162.9453116819788931
  0
ARC
  5
24C31
  8
0
 10
4351.1867972627433119
 20
590.9626051127671644
 30
0.0
 40
0.0785071448807361
 50
162.295999693160411
 51
198.3475519527679012
  0
LINE
  5
24C32
  8
0
 10
4351.1122810633978588
 20
590.9378926091950461
 30
0.0
 11
4351.1272544733992618
 21
590.8937088420951795
 31
0.0
  0
ARC
  5
24C33
  8
0
 10
4351.1668947280732027
 20
590.9084333555414332
 30
0.0
 40
0.0422866537672741
 50
200.3776930227963078
 51
241.3206442339466946
  0
ARC
  5
24C34
  8
0
 10
4351.1719062203546855
 20
590.8932672519182461
 30
0.0
 40
0.015241844117483
 50
106.8410625226928943
 51
147.2561487460812089
  0
ARC
  5
24C35
  8
0
 10
4351.16762477858083
 20
590.8962823809285965
 30
0.0
 40
0.0100123231904925
 50
148.516647630632292
 51
209.779975394720708
  0
ARC
  5
24C36
  8
0
 10
4351.1707899209122843
 20
590.8984065844706492
 30
0.0
 40
0.0138171740433013
 50
210.9064844377427903
 51
250.6424926683168906
  0
ARC
  5
24C37
  8
0
 10
4351.1733609514431009
 20
590.8896184268788829
 30
0.0
 40
0.0191585730169519
 50
72.6024505875244444
 51
107.8435987497068993
  0
ARC
  5
24C38
  8
0
 10
4351.1728526071055967
 20
590.9032095273353207
 30
0.0
 40
0.0190355951552511
 50
249.5766479030673963
 51
295.4357793500312823
  0
ARC
  5
24C39
  8
0
 10
4351.1722928370709269
 20
590.9191541383610229
 30
0.0
 40
0.0542843359640059
 50
241.7524632650026035
 51
298.5353151917498735
  0
ARC
  5
24C3A
  8
0
 10
4351.1749022504673121
 20
590.980976851262426
 30
0.0
 40
0.0561850224376361
 50
49.0639649115695775
 51
103.5258574445648065
  0
ARC
  5
24C3B
  8
0
 10
4351.5680709228290652
 20
590.8868061382737551
 30
0.0
 40
0.0493918893376274
 50
36.4740799745657327
 51
72.4354147476075099
  0
ARC
  5
24C3C
  8
0
 10
4351.5604427953339837
 20
590.8811505567050517
 30
0.0
 40
0.058887877229733
 50
15.4173057449356694
 51
36.486913250845582
  0
ARC
  5
24C3D
  8
0
 10
4351.5454124878642688
 20
590.8776071795167582
 30
0.0
 40
0.0743215809971542
 50
349.567665229581678
 51
14.9702483671551398
  0
LINE
  5
24C3E
  8
0
 10
4351.6185054914003558
 20
590.8641494591952323
 30
0.0
 11
4351.6072709457994279
 21
590.8009776611952475
 31
0.0
  0
ARC
  5
24C3F
  8
0
 10
4351.5672685473509773
 20
590.8088105245897168
 30
0.0
 40
0.0407620611659759
 50
301.5177032317056955
 51
348.921096920480295
  0
ARC
  5
24C40
  8
0
 10
4351.5633639296756883
 20
590.7928969069308778
 30
0.0
 40
0.0150977586944653
 50
34.4249350827865968
 51
77.4136586085154761
  0
ARC
  5
24C41
  8
0
 10
4351.5684737816973211
 20
590.7963989630034121
 30
0.0
 40
0.0089030041057534
 50
327.8133167496166038
 51
34.4249350827865968
  0
ARC
  5
24C42
  8
0
 10
4351.5638726771294387
 20
590.799294939927222
 30
0.0
 40
0.0143396248928685
 50
290.0953276863393739
 51
327.8133167496166038
  0
ARC
  5
24C43
  8
0
 10
4351.5751389816787196
 20
590.8597470205926356
 30
0.0
 40
0.0780580901166541
 50
112.7180786628045013
 51
141.9464099228617044
  0
ARC
  5
24C44
  8
0
 10
4351.5819389581238283
 20
590.8536655049680348
 30
0.0
 40
0.0871633087971638
 50
141.5537773584055117
 51
163.81108410509799
  0
ARC
  5
24C45
  8
0
 10
4351.5668831188795593
 20
590.8563103077020742
 30
0.0
 40
0.0719861737546502
 50
162.4915439129092931
 51
201.3700512357146124
  0
LINE
  5
24C46
  8
0
 10
4351.4998462528992604
 20
590.8300792609951486
 30
0.0
 11
4351.5157554994993916
 21
590.7912152771951924
 31
0.0
  0
ARC
  5
24C47
  8
0
 10
4351.5534105330279999
 20
590.8075768025702246
 30
0.0
 40
0.0410560721775025
 50
203.4854752851352941
 51
249.0662549305249911
  0
ARC
  5
24C48
  8
0
 10
4351.5597539055443121
 20
590.7928969069308778
 30
0.0
 40
0.0150977586944653
 50
102.5863413914844955
 51
145.5750649172134104
  0
ARC
  5
24C49
  8
0
 10
4351.5546440535217698
 20
590.7963989630034121
 30
0.0
 40
0.0089030041057534
 50
145.5750649172134104
 51
212.1866832503833962
  0
ARC
  5
24C4A
  8
0
 10
4351.5592451580905617
 20
590.799294939927222
 30
0.0
 40
0.0143396248928685
 50
212.1866832503833962
 51
249.9046723136605976
  0
ARC
  5
24C4B
  8
0
 10
4351.5670129557283872
 20
590.8792295985258534
 30
0.0
 40
0.0569488024806168
 50
73.7211193555224753
 51
112.7467892833545022
  0
ARC
  5
24C4C
  8
0
 10
4351.5615589176113644
 20
590.7876534120125598
 30
0.0
 40
0.0206178717753126
 50
75.693175758511714
 51
104.3068242414883002
  0
ARC
  5
24C4D
  8
0
 10
4351.5615589176113644
 20
590.8048671678130859
 30
0.0
 40
0.0203692357251736
 50
249.1778672719657948
 51
290.8221327280342052
  0
ARC
  5
24C4E
  8
0
 10
4351.5589745378174484
 20
590.8199752036823611
 30
0.0
 40
0.0546294438358185
 50
248.2618491789550035
 51
302.8120382833712938
  0
ARC
  5
24C4F
  8
0
 10
4351.4805179909672006
 20
590.7379875579890722
 30
0.0
 40
0.0704329835047607
 50
344.7308334541434078
 51
24.5742446858777086
  0
LINE
  5
24C50
  8
0
 10
4351.5484646394979791
 20
590.7194387542951972
 30
0.0
 11
4351.5329137611988699
 21
590.6580537059951439
 31
0.0
  0
ARC
  5
24C51
  8
0
 10
4351.4960992534533943
 20
590.668552128902661
 30
0.0
 40
0.0382821742339173
 50
295.4707211574756798
 51
344.0833971155391282
  0
ARC
  5
24C52
  8
0
 10
4351.4882272011100213
 20
590.651791116867571
 30
0.0
 40
0.0150977586944653
 50
34.4249350827865968
 51
77.4136586085154761
  0
ARC
  5
24C53
  8
0
 10
4351.4933370531298351
 20
590.6552931729402189
 30
0.0
 40
0.0089030041057534
 50
327.8133167496166038
 51
34.4249350827865968
  0
ARC
  5
24C54
  8
0
 10
4351.4887359485637717
 20
590.6581891498640289
 30
0.0
 40
0.0143396248928685
 50
290.0953276863393739
 51
327.8133167496166038
  0
ARC
  5
24C55
  8
0
 10
4351.512437203193258
 20
590.7124745734121234
 30
0.0
 40
0.0825699369392191
 50
117.0403922433109045
 51
141.5088550762561113
  0
ARC
  5
24C56
  8
0
 10
4351.5168232824644292
 20
590.7083975561865827
 30
0.0
 40
0.0885416513691595
 50
141.2103885700327908
 51
164.224860055615494
  0
ARC
  5
24C57
  8
0
 10
4351.4999334698723032
 20
590.7119776607538597
 30
0.0
 40
0.071323893456662
 50
163.3038588393796999
 51
193.6210546979519052
  0
LINE
  5
24C58
  8
0
 10
4351.4306155946987928
 20
590.6951809360950847
 30
0.0
 11
4351.4400211592992491
 21
590.6580537059951439
 31
0.0
  0
ARC
  5
24C59
  8
0
 10
4351.4768447898368322
 20
590.668681230257107
 30
0.0
 40
0.038326544820925
 50
196.0984623602911086
 51
240.5768333642749042
  0
ARC
  5
24C5A
  8
0
 10
4351.4846171769777357
 20
590.651791116867571
 30
0.0
 40
0.0150977586944653
 50
102.5863413914844955
 51
145.5750649172134104
  0
ARC
  5
24C5B
  8
0
 10
4351.4795073249570123
 20
590.6552931729402189
 30
0.0
 40
0.0089030041057534
 50
145.5750649172134104
 51
212.1866832503833962
  0
ARC
  5
24C5C
  8
0
 10
4351.4841084295239853
 20
590.6581891498640289
 30
0.0
 40
0.0143396248928685
 50
212.1866832503833962
 51
249.9046723136605976
  0
ARC
  5
24C5D
  8
0
 10
4351.50195826973777
 20
590.733933253868372
 30
0.0
 40
0.0586945856090149
 50
76.2898816452418629
 51
117.4524087554694063
  0
ARC
  5
24C5E
  8
0
 10
4351.4864221890438785
 20
590.6465476219493667
 30
0.0
 40
0.0206178717753126
 50
75.693175758511714
 51
104.3068242414883002
  0
ARC
  5
24C5F
  8
0
 10
4351.4864221890438785
 20
590.6637613777498927
 30
0.0
 40
0.0203692357251736
 50
249.1778672719657948
 51
290.8221327280342052
  0
ARC
  5
24C60
  8
0
 10
4351.486504436757059
 20
590.6853281865827512
 30
0.0
 40
0.0575721397440455
 50
240.3421814983342131
 51
296.911633338928425
  0
ARC
  5
24C61
  8
0
 10
4351.7896789613132569
 20
590.5844338464379462
 30
0.0
 40
0.0393288925180277
 50
10.6477240200999308
 51
49.4072199022767435
  0
ARC
  5
24C62
  8
0
 10
4351.7691123923150371
 20
590.5798966347654186
 30
0.0
 40
0.0603832788098672
 50
344.5697188124228774
 51
11.2730442097471908
  0
LINE
  5
24C63
  8
0
 10
4351.8273191510988909
 20
590.5638307207951812
 30
0.0
 11
4351.809599981998872
 21
590.4938866295950675
 31
0.0
  0
ARC
  5
24C64
  8
0
 10
4351.7729854781518952
 20
590.5044213719319259
 30
0.0
 40
0.0380999040418612
 50
302.5943797396409991
 51
343.94838965929398
  0
ARC
  5
24C65
  8
0
 10
4351.7650626429358454
 20
590.4860372624469846
 30
0.0
 40
0.0157562680458973
 50
38.9039265132864571
 51
72.8339840621488861
  0
ARC
  5
24C66
  8
0
 10
4351.7705687402303738
 20
590.4910879441434872
 30
0.0
 40
0.0083129519486294
 50
326.8189551411970228
 51
35.645384830791258
  0
ARC
  5
24C67
  8
0
 10
4351.7660738318545555
 20
590.4943364996013315
 30
0.0
 40
0.0138552534320734
 50
290.4205715806928083
 51
325.748419964041716
  0
ARC
  5
24C68
  8
0
 10
4351.800817977468796
 20
590.531546431286074
 30
0.0
 40
0.0943789721407992
 50
111.9572009075700976
 51
136.0720834651831126
  0
ARC
  5
24C69
  8
0
 10
4351.8018773576959575
 20
590.529764882530344
 30
0.0
 40
0.0963794649924953
 50
135.7462187058067968
 51
162.2297198068656883
  0
ARC
  5
24C6A
  8
0
 10
4351.7728236156053754
 20
590.5396451659322565
 30
0.0
 40
0.0656986964397057
 50
162.7020813651423055
 51
191.6877150020779936
  0
LINE
  5
24C6B
  8
0
 10
4351.7084870982980647
 20
590.5263360992952357
 30
0.0
 11
4351.7167073800992512
 21
590.4938866295950675
 31
0.0
  0
ARC
  5
24C6C
  8
0
 10
4351.7554405961063821
 20
590.5058332180741445
 30
0.0
 40
0.0405337266797177
 50
197.1414707954945129
 51
250.3669874537785915
  0
ARC
  5
24C6D
  8
0
 10
4351.7615789858900825
 20
590.4859253588441561
 30
0.0
 40
0.0159953851214584
 50
99.1562278201367064
 51
141.9272758691184038
  0
ARC
  5
24C6E
  8
0
 10
4351.7556298813151443
 20
590.4910225436318569
 30
0.0
 40
0.0081760862047441
 50
144.3391238609029017
 51
209.1777623926456897
  0
ARC
  5
24C6F
  8
0
 10
4351.7598313765638522
 20
590.4937921164680574
 30
0.0
 40
0.0131998657512118
 50
210.7832649693131941
 51
249.7043202467000924
  0
ARC
  5
24C70
  8
0
 10
4351.7860951905704496
 20
590.5719145514296997
 30
0.0
 40
0.0514540985860835
 50
55.4590298855600281
 51
113.5601774654398071
  0
ARC
  5
24C71
  8
0
 10
4351.7631374341153787
 20
590.4802964443239262
 30
0.0
 40
0.02181004476773
 50
72.4528123767563983
 51
100.845337342108607
  0
ARC
  5
24C72
  8
0
 10
4351.7631561152193171
 20
590.5011937740953272
 30
0.0
 40
0.0213023532093268
 50
248.2223025903643077
 51
291.3399217418522085
  0
ARC
  5
24C73
  8
0
 10
4351.7630304369067744
 20
590.521333410531156
 30
0.0
 40
0.0577155783400671
 50
248.4401179982872918
 51
301.8764805151918722
  0
ARC
  5
24C74
  8
0
 10
4351.8908682372966723
 20
590.7057866104033792
 30
0.0
 40
0.0403518738606261
 50
25.6794019566206089
 51
61.5689336465844477
  0
ARC
  5
24C75
  8
0
 10
4351.8812007512087803
 20
590.7008278796228069
 30
0.0
 40
0.0512140860606512
 50
8.4881085596483619
 51
25.9923291237012499
  0
ARC
  5
24C76
  8
0
 10
4351.8666610040381784
 20
590.6987470005317391
 30
0.0
 40
0.0659017775717166
 50
353.2275085550843983
 51
8.4115649210331735
  0
LINE
  5
24C77
  8
0
 10
4351.9321029348993761
 20
590.6909753872952251
 30
0.0
 11
4351.9235632384989003
 21
590.6164965089950556
 31
0.0
  0
ARC
  5
24C78
  8
0
 10
4351.8837003043254299
 20
590.6219613039706928
 30
0.0
 40
0.0402357739463113
 50
304.001207526345695
 51
352.1940008403319098
  0
ARC
  5
24C79
  8
0
 10
4351.8799405310846851
 20
590.6053321133897498
 30
0.0
 40
0.0150977586944653
 50
34.4249350827865968
 51
77.4136586085154761
  0
ARC
  5
24C7A
  8
0
 10
4351.8850503831054084
 20
590.6088341694622841
 30
0.0
 40
0.0089030041057534
 50
327.8133167496166038
 51
34.4249350827865968
  0
ARC
  5
24C7B
  8
0
 10
4351.880449278539345
 20
590.611730146386094
 30
0.0
 40
0.0143396248928685
 50
290.0953276863393739
 51
327.8133167496166038
  0
ARC
  5
24C7C
  8
0
 10
4351.8980203392393378
 20
590.6640814800981616
 30
0.0
 40
0.0838061793403826
 50
109.9877374785747008
 51
137.1655620288046009
  0
ARC
  5
24C7D
  8
0
 10
4351.9053564253499644
 20
590.6551943726736909
 30
0.0
 40
0.0952403550966335
 50
136.2454297529866096
 51
164.0813803198454082
  0
ARC
  5
24C7E
  8
0
 10
4351.8767248849626412
 20
590.6627747602198042
 30
0.0
 40
0.0656301002785126
 50
163.5897592766494881
 51
201.5515898110919863
  0
LINE
  5
24C7F
  8
0
 10
4351.8156831694977882
 20
590.6386662754952113
 30
0.0
 11
4351.8323656900993228
 21
590.6020772345951855
 31
0.0
  0
ARC
  5
24C80
  8
0
 10
4351.8684368099538915
 20
590.6195284596859665
 30
0.0
 40
0.040070824108355
 50
205.817719407877803
 51
250.8899633773355049
  0
ARC
  5
24C81
  8
0
 10
4351.8763305069533089
 20
590.6053321133897498
 30
0.0
 40
0.0150977586944653
 50
102.5863413914844955
 51
145.5750649172134104
  0
ARC
  5
24C82
  8
0
 10
4351.8712206549316761
 20
590.6088341694622841
 30
0.0
 40
0.0089030041057534
 50
145.5750649172134104
 51
212.1866832503833962
  0
ARC
  5
24C83
  8
0
 10
4351.8758217594995585
 20
590.611730146386094
 30
0.0
 40
0.0143396248928685
 50
212.1866832503833962
 51
249.9046723136605976
  0
ARC
  5
24C84
  8
0
 10
4351.8878961937325585
 20
590.6945320643485502
 30
0.0
 40
0.0517368653726621
 50
64.6099842516618565
 51
110.978134930283602
  0
ARC
  5
24C85
  8
0
 10
4351.8781355190194517
 20
590.6000886184715455
 30
0.0
 40
0.0206178717753126
 50
75.693175758511714
 51
104.3068242414883002
  0
ARC
  5
24C86
  8
0
 10
4351.8781355190194517
 20
590.6173023742719579
 30
0.0
 40
0.0203692357251736
 50
249.1778672719657948
 51
290.8221327280342052
  0
ARC
  5
24C87
  8
0
 10
4351.8740643226401517
 20
590.6342296463353705
 30
0.0
 40
0.055806486035997
 50
250.3720292649614976
 51
305.1592791287259843
  0
ARC
  5
24C88
  8
0
 10
4351.9548759616227471
 20
590.5347182536196442
 30
0.0
 40
0.0421464436078731
 50
5.8369968039300364
 51
37.4281973558845067
  0
ARC
  5
24C89
  8
0
 10
4351.9385304894467481
 20
590.533023322688905
 30
0.0
 40
0.0585795456559137
 50
349.8586632148757758
 51
5.8603046535857661
  0
LINE
  5
24C8A
  8
0
 10
4351.9961948118980217
 20
590.5227088141951981
 30
0.0
 11
4351.9824002467994433
 21
590.4415686792950737
 31
0.0
  0
ARC
  5
24C8B
  8
0
 10
4351.9442569659850051
 20
590.449176440397423
 30
0.0
 40
0.0388945741740275
 50
307.9724375621739227
 51
348.7202504001999728
  0
ARC
  5
24C8C
  8
0
 10
4351.9381807220679548
 20
590.4307658623821453
 30
0.0
 40
0.0157562680458973
 50
38.9039265132864571
 51
72.8339840621488861
  0
ARC
  5
24C8D
  8
0
 10
4351.9436868193606642
 20
590.4358165440786479
 30
0.0
 40
0.0083129519486294
 50
326.8189551411970228
 51
35.645384830791258
  0
ARC
  5
24C8E
  8
0
 10
4351.9391919109875744
 20
590.4390650995366059
 30
0.0
 40
0.0138552534320734
 50
290.4205715806928083
 51
325.748419964041716
  0
ARC
  5
24C8F
  8
0
 10
4351.9691708007812849
 20
590.4813932517198509
 30
0.0
 40
0.0939566653084374
 50
109.6283671228635939
 51
137.8392298542433139
  0
ARC
  5
24C90
  8
0
 10
4351.9666984692858023
 20
590.4790842525352446
 30
0.0
 40
0.0937344820651052
 50
135.7782162482234014
 51
166.5690664290349048
  0
ARC
  5
24C91
  8
0
 10
4351.9304942292455962
 20
590.4877943226676962
 30
0.0
 40
0.0564973256209244
 50
166.6325362542168023
 51
197.4944249560940932
  0
LINE
  5
24C92
  8
0
 10
4351.8766101192986753
 20
590.4708104921952554
 30
0.0
 11
4351.8900811322992013
 21
590.4333757876952404
 31
0.0
  0
ARC
  5
24C93
  8
0
 10
4351.9262232514620337
 20
590.4472352031200444
 30
0.0
 40
0.0387083475942264
 50
200.9803161523956874
 51
251.0234427551085048
  0
ARC
  5
24C94
  8
0
 10
4351.934697065022192
 20
590.4306539587795442
 30
0.0
 40
0.0159953851214584
 50
99.1562278201367064
 51
141.9272758691184038
  0
ARC
  5
24C95
  8
0
 10
4351.9287479604472537
 20
590.435751143567245
 30
0.0
 40
0.0081760862047441
 50
144.3391238609029017
 51
209.1777623926456897
  0
ARC
  5
24C96
  8
0
 10
4351.9329494556959617
 20
590.4385207164034455
 30
0.0
 40
0.0131998657512118
 50
210.7832649693131941
 51
249.7043202467000924
  0
ARC
  5
24C97
  8
0
 10
4351.9552840392980215
 20
590.52427004136905
 30
0.0
 40
0.0489244782317554
 50
47.4870168169727975
 51
111.1782389734071046
  0
ARC
  5
24C98
  8
0
 10
4351.9362555132465786
 20
590.4250250442592005
 30
0.0
 40
0.02181004476773
 50
72.4528123767563983
 51
100.845337342108607
  0
ARC
  5
24C99
  8
0
 10
4351.9362741943496076
 20
590.4459223740306015
 30
0.0
 40
0.0213023532093268
 50
248.2223025903643077
 51
291.3399217418522085
  0
ARC
  5
24C9A
  8
0
 10
4351.933791938129616
 20
590.4638334729073676
 30
0.0
 40
0.0568929511294593
 50
249.2508040345230995
 51
307.1984121136338217
  0
ARC
  5
24C9B
  8
0
 10
4352.1055941778577107
 20
590.459356032873643
 30
0.0
 40
0.0298627200675582
 50
26.8812510966161184
 51
67.674355397378875
  0
ARC
  5
24C9C
  8
0
 10
4352.0940318912998919
 20
590.454510848805171
 30
0.0
 40
0.042376055071751
 50
354.3102923578134096
 51
25.6559508473137114
  0
LINE
  5
24C9D
  8
0
 10
4352.13619917629876
 20
590.4503096442952028
 30
0.0
 11
4352.1299082032992374
 21
590.3658934440952635
 31
0.0
  0
ARC
  5
24C9E
  8
0
 10
4352.0904165287865908
 20
590.3701627247035049
 30
0.0
 40
0.0397217712676683
 50
308.9915942863781879
 51
353.8299534109552269
  0
ARC
  5
24C9F
  8
0
 10
4352.0868964128021616
 20
590.3507629781493051
 30
0.0
 40
0.0157562680458973
 50
38.9039265132864571
 51
72.8339840621488861
  0
ARC
  5
24CA0
  8
0
 10
4352.0924025100939616
 20
590.3558136598459214
 30
0.0
 40
0.0083129519486294
 50
326.8189551411970228
 51
35.645384830791258
  0
ARC
  5
24CA1
  8
0
 10
4352.0879076017199623
 20
590.359062215303652
 30
0.0
 40
0.0138552534320734
 50
290.4205715806928083
 51
325.748419964041716
  0
ARC
  5
24CA2
  8
0
 10
4352.1165862894440579
 20
590.3929518559796179
 30
0.0
 40
0.0993040242495808
 50
107.4388076363788969
 51
134.1639156879573989
  0
ARC
  5
24CA3
  8
0
 10
4352.1176600266326204
 20
590.3899952274026646
 30
0.0
 40
0.1021811866802952
 50
133.4407388079974055
 51
162.245372729170299
  0
ARC
  5
24CA4
  8
0
 10
4352.0617642906227047
 20
590.4046873770289494
 30
0.0
 40
0.0445721066186946
 50
158.3183805897155878
 51
204.7365098549113043
  0
LINE
  5
24CA5
  8
0
 10
4352.0212820437991468
 20
590.3860363614951439
 30
0.0
 11
4352.0388138576981873
 21
590.3489685328952419
 31
0.0
  0
ARC
  5
24CA6
  8
0
 10
4352.0715922402669094
 20
590.3646700878964566
 30
0.0
 40
0.0363450298292587
 50
205.595429959648186
 51
244.7341692243377054
  0
ARC
  5
24CA7
  8
0
 10
4352.0834127557563988
 20
590.350651074546704
 30
0.0
 40
0.0159953851214584
 50
99.1562278201367064
 51
141.9272758691184038
  0
ARC
  5
24CA8
  8
0
 10
4352.0774636511796416
 20
590.3557482593344048
 30
0.0
 40
0.0081760862047441
 50
144.3391238609029017
 51
209.1777623926456897
  0
ARC
  5
24CA9
  8
0
 10
4352.081665146429259
 20
590.358517832170719
 30
0.0
 40
0.0131998657512118
 50
210.7832649693131941
 51
249.7043202467000924
  0
ARC
  5
24CAA
  8
0
 10
4352.1008032455356442
 20
590.4416676453838591
 30
0.0
 40
0.0480995391306869
 50
70.4002216095069571
 51
106.8930840178836945
  0
ARC
  5
24CAB
  8
0
 10
4352.0849712039807855
 20
590.3450221600262466
 30
0.0
 40
0.02181004476773
 50
72.4528123767563983
 51
100.845337342108607
  0
ARC
  5
24CAC
  8
0
 10
4352.0849898850838144
 20
590.3659194897976477
 30
0.0
 40
0.0213023532093268
 50
248.2223025903643077
 51
291.3399217418522085
  0
ARC
  5
24CAD
  8
0
 10
4352.0797853576686975
 20
590.3827661082439135
 30
0.0
 40
0.0562077893885531
 50
245.0546334004303901
 51
309.3308625214258996
  0
ARC
  5
24CAE
  8
0
 10
4351.9818137848378683
 20
590.3651339437263914
 30
0.0
 40
0.0291807477615406
 50
27.5875020949814918
 51
67.6274788211576947
  0
ARC
  5
24CAF
  8
0
 10
4351.9698009077474126
 20
590.3614593521507459
 30
0.0
 40
0.0415935241485242
 50
343.6189314364422103
 51
24.4087826685386311
  0
LINE
  5
24CB0
  8
0
 10
4352.00970603479891
 20
590.3497289605951437
 30
0.0
 11
4351.9901940867994199
 21
590.2727049259951855
 31
0.0
  0
ARC
  5
24CB1
  8
0
 10
4351.9544769354515665
 20
590.2826692727154523
 30
0.0
 40
0.0370810343159769
 50
306.7653104521718888
 51
344.4119968107352747
  0
ARC
  5
24CB2
  8
0
 10
4351.9461381936744147
 20
590.2650777086602147
 30
0.0
 40
0.0157562680458973
 50
38.9039265132864571
 51
72.8339840621488861
  0
ARC
  5
24CB3
  8
0
 10
4351.9516442909662146
 20
590.2701283903566036
 30
0.0
 40
0.0083129519486294
 50
326.8189551411970228
 51
35.645384830791258
  0
ARC
  5
24CB4
  8
0
 10
4351.9471493825931248
 20
590.2733769458144479
 30
0.0
 40
0.0138552534320734
 50
290.4205715806928083
 51
325.748419964041716
  0
ARC
  5
24CB5
  8
0
 10
4351.9913220399848797
 20
590.2904140372609163
 30
0.0
 40
0.1072321931690646
 50
110.8824684906116005
 51
134.4580299068030058
  0
ARC
  5
24CB6
  8
0
 10
4351.9786603322054361
 20
590.2994422524797073
 30
0.0
 40
0.0919601546781569
 50
132.7666855121001959
 51
164.0167112813419124
  0
ARC
  5
24CB7
  8
0
 10
4351.9358835836092112
 20
590.3125953458768436
 30
0.0
 40
0.0472232080450425
 50
165.0671767582639973
 51
192.3009865273915011
  0
LINE
  5
24CB8
  8
0
 10
4351.8897445303991844
 20
590.3025345731950893
 30
0.0
 11
4351.8973014848988896
 21
590.2727049259951855
 31
0.0
  0
ARC
  5
24CB9
  8
0
 10
4351.9356007806263733
 20
590.2843092937421261
 30
0.0
 40
0.0400187131722814
 50
196.8563716416080922
 51
248.9783285031290063
  0
ARC
  5
24CBA
  8
0
 10
4351.9426545366268329
 20
590.2649658050574999
 30
0.0
 40
0.0159953851214584
 50
99.1562278201367064
 51
141.9272758691184038
  0
ARC
  5
24CBB
  8
0
 10
4351.9367054320518946
 20
590.270062989845087
 30
0.0
 40
0.0081760862047441
 50
144.3391238609029017
 51
209.1777623926456897
  0
ARC
  5
24CBC
  8
0
 10
4351.9409069273024215
 20
590.2728325626814012
 30
0.0
 40
0.0131998657512118
 50
210.7832649693131941
 51
249.7043202467000924
  0
ARC
  5
24CBD
  8
0
 10
4351.9749566471964499
 20
590.3402113192620391
 30
0.0
 40
0.0549275488902489
 50
70.9101126520428267
 51
113.4493271329522059
  0
ARC
  5
24CBE
  8
0
 10
4351.944212984853948
 20
590.2593368905371563
 30
0.0
 40
0.02181004476773
 50
72.4528123767563983
 51
100.845337342108607
  0
ARC
  5
24CBF
  8
0
 10
4351.9442316659569769
 20
590.2802342203084436
 30
0.0
 40
0.0213023532093268
 50
248.2223025903643077
 51
291.3399217418522085
  0
ARC
  5
24CC0
  8
0
 10
4351.9435088366617492
 20
590.3002168960310883
 30
0.0
 40
0.0577286832200466
 50
247.3153160668900057
 51
305.0614765244390014
  0
ARC
  5
24CC1
  8
0
 10
4352.1028997025186982
 20
590.2818139136913942
 30
0.0
 40
0.0263499644022377
 50
13.6643932848074492
 51
59.0444820678994802
  0
ARC
  5
24CC2
  8
0
 10
4352.0908147586387713
 20
590.2791990091318439
 30
0.0
 40
0.0387118610243692
 50
350.1497929085024907
 51
13.1996708943891505
  0
LINE
  5
24CC3
  8
0
 10
4352.1289559436991112
 20
590.2725764577952532
 30
0.0
 11
4352.115387659398948
 21
590.1842039875950832
 31
0.0
  0
ARC
  5
24CC4
  8
0
 10
4352.078076475960188
 20
590.1909859228837831
 30
0.0
 40
0.0379225402086813
 50
309.5204200023239878
 51
349.6980020174245851
  0
ARC
  5
24CC5
  8
0
 10
4352.0717306347560225
 20
590.1719757551909424
 30
0.0
 40
0.0157562680458973
 50
38.9039265132864571
 51
72.8339840621488861
  0
ARC
  5
24CC6
  8
0
 10
4352.0772367320487319
 20
590.177026436887445
 30
0.0
 40
0.0083129519486294
 50
326.8189551411970228
 51
35.645384830791258
  0
ARC
  5
24CC7
  8
0
 10
4352.0727418236747326
 20
590.1802749923452893
 30
0.0
 40
0.0138552534320734
 50
290.4205715806928083
 51
325.748419964041716
  0
ARC
  5
24CC8
  8
0
 10
4352.1081583969562416
 20
590.2117072194888578
 30
0.0
 40
0.098362949491717
 50
102.743860499077897
 51
125.7798748919219065
  0
ARC
  5
24CC9
  8
0
 10
4352.11549278016264
 20
590.197837461481754
 30
0.0
 40
0.1139237333095186
 50
124.6939264049663052
 51
154.9700250671737081
  0
ARC
  5
24CCA
  8
0
 10
4352.0577075209739633
 20
590.2252074249994394
 30
0.0
 40
0.0499864968615477
 50
155.3724166635873871
 51
194.3564526597768065
  0
LINE
  5
24CCB
  8
0
 10
4352.0092820075988129
 20
590.2128130906952492
 30
0.0
 11
4352.0230020696990323
 21
590.1750960469952361
 31
0.0
  0
ARC
  5
24CCC
  8
0
 10
4352.0579537319736119
 20
590.1886092853911805
 30
0.0
 40
0.0374730077213489
 50
201.1378220765381002
 51
246.6378232333528047
  0
ARC
  5
24CCD
  8
0
 10
4352.0682469777093502
 20
590.1718638515882276
 30
0.0
 40
0.0159953851214584
 50
99.1562278201367064
 51
141.9272758691184038
  0
ARC
  5
24CCE
  8
0
 10
4352.0622978731353214
 20
590.1769610363759284
 30
0.0
 40
0.0081760862047441
 50
144.3391238609029017
 51
209.1777623926456897
  0
ARC
  5
24CCF
  8
0
 10
4352.0664993683840294
 20
590.1797306092122426
 30
0.0
 40
0.0131998657512118
 50
210.7832649693131941
 51
249.7043202467000924
  0
ARC
  5
24CD0
  8
0
 10
4352.097004017728068
 20
590.2647618848143338
 30
0.0
 40
0.0441623433573231
 50
63.8701833264860497
 51
103.8128184306641941
  0
ARC
  5
24CD1
  8
0
 10
4352.0698054259346463
 20
590.1662349370678839
 30
0.0
 40
0.02181004476773
 50
72.4528123767563983
 51
100.845337342108607
  0
ARC
  5
24CD2
  8
0
 10
4352.0698241070376753
 20
590.187132266839285
 30
0.0
 40
0.0213023532093268
 50
248.2223025903643077
 51
291.3399217418522085
  0
ARC
  5
24CD3
  8
0
 10
4352.0664463521652578
 20
590.2067211914846894
 30
0.0
 40
0.0574710008806819
 50
246.0254486911003085
 51
308.481803315961713
  0
ARC
  5
24CD4
  8
0
 10
4352.1860670451687838
 20
590.1753448564041946
 30
0.0
 40
0.0206460890433594
 50
16.1280210056018589
 51
63.287528632824511
  0
ARC
  5
24CD5
  8
0
 10
4352.1758288064656881
 20
590.1726948459548794
 30
0.0
 40
0.0312189427270566
 50
356.329464229838095
 51
15.5805296494890406
  0
LINE
  5
24CD6
  8
0
 10
4352.2069837088993154
 20
590.1706962365951767
 30
0.0
 11
4352.2015566850977848
 21
590.0794760479951719
 31
0.0
  0
ARC
  5
24CD7
  8
0
 10
4352.163107314608169
 20
590.083256751617796
 30
0.0
 40
0.0386348005177397
 50
308.6331748324777209
 51
354.3841929416942094
  0
ARC
  5
24CD8
  8
0
 10
4352.1585023597608597
 20
590.0626771614214476
 30
0.0
 40
0.0157562680458973
 50
38.9039265132864571
 51
72.8339840621488861
  0
ARC
  5
24CD9
  8
0
 10
4352.1640084570526597
 20
590.0677278431179502
 30
0.0
 40
0.0083129519486294
 50
326.8189551411970228
 51
35.645384830791258
  0
ARC
  5
24CDA
  8
0
 10
4352.1595135486795698
 20
590.0709763985757945
 30
0.0
 40
0.0138552534320734
 50
290.4205715806928083
 51
325.748419964041716
  0
ARC
  5
24CDB
  8
0
 10
4352.1983503922056116
 20
590.0869172983803992
 30
0.0
 40
0.1127093396236467
 50
107.1603745839464068
 51
127.0543646656595058
  0
ARC
  5
24CDC
  8
0
 10
4352.2016362842687158
 20
590.0803116848502441
 30
0.0
 40
0.119968717456054
 50
126.4057803483470934
 51
152.2280272034475956
  0
ARC
  5
24CDD
  8
0
 10
4352.1372960822709501
 20
590.1144404411445521
 30
0.0
 40
0.0471380041685853
 50
152.4928403326933903
 51
195.0094270481739045
  0
LINE
  5
24CDE
  8
0
 10
4352.09176627459874
 20
590.1022327365950559
 30
0.0
 11
4352.1102246312993884
 21
590.0622420203950469
 31
0.0
  0
ARC
  5
24CDF
  8
0
 10
4352.1426935096787929
 20
590.0777071437756831
 30
0.0
 40
0.0359638444063457
 50
205.4687429478584022
 51
249.9793513058959888
  0
ARC
  5
24CE0
  8
0
 10
4352.1550187027141874
 20
590.0625652578185054
 30
0.0
 40
0.0159953851214584
 50
99.1562278201367064
 51
141.9272758691184038
  0
ARC
  5
24CE1
  8
0
 10
4352.1490695981392491
 20
590.0676624426064336
 30
0.0
 40
0.0081760862047441
 50
144.3391238609029017
 51
209.1777623926456897
  0
ARC
  5
24CE2
  8
0
 10
4352.1532710933879571
 20
590.0704320154426341
 30
0.0
 40
0.0131998657512118
 50
210.7832649693131941
 51
249.7043202467000924
  0
ARC
  5
24CE3
  8
0
 10
4352.179066549972049
 20
590.1516649421364491
 30
0.0
 40
0.0451595374121859
 50
68.867493714220231
 51
108.0209205396621002
  0
ARC
  5
24CE4
  8
0
 10
4352.1565771509385741
 20
590.0569363432983891
 30
0.0
 40
0.02181004476773
 50
72.4528123767563983
 51
100.845337342108607
  0
ARC
  5
24CE5
  8
0
 10
4352.156595832041603
 20
590.0778336730695628
 30
0.0
 40
0.0213023532093268
 50
248.2223025903643077
 51
291.3399217418522085
  0
ARC
  5
24CE6
  8
0
 10
4352.1507303351354494
 20
590.0986048614713582
 30
0.0
 40
0.0583515241702725
 50
249.5898871632034002
 51
308.7176916677764211
  0
ARC
  5
24CE7
  8
0
 10
4352.0505023080158935
 20
590.1092643896161007
 30
0.0
 40
0.0248974905661855
 50
31.2118194751035816
 51
80.3634967934809481
  0
ARC
  5
24CE8
  8
0
 10
4352.045625251704223
 20
590.1099400304603932
 30
0.0
 40
0.0288858922904115
 50
343.4077419644402767
 51
25.0407559967863094
  0
LINE
  5
24CE9
  8
0
 10
4352.073308369199367
 20
590.10169140759524
 30
0.0
 11
4352.0529137611993065
 21
590.0211863728951585
 31
0.0
  0
ARC
  5
24CEA
  8
0
 10
4352.0154187819907747
 20
590.0323808614233485
 30
0.0
 40
0.0391304234471636
 50
307.2623613956532722
 51
343.376496727681797
  0
ARC
  5
24CEB
  8
0
 10
4352.0085777361437067
 20
590.0133519031633114
 30
0.0
 40
0.0157562680458973
 50
38.9039265132864571
 51
72.8339840621488861
  0
ARC
  5
24CEC
  8
0
 10
4352.0140838334373257
 20
590.0184025848598139
 30
0.0
 40
0.0083129519486294
 50
326.8189551411970228
 51
35.645384830791258
  0
ARC
  5
24CED
  8
0
 10
4352.0095889250642358
 20
590.0216511403176582
 30
0.0
 40
0.0138552534320734
 50
290.4205715806928083
 51
325.748419964041716
  0
ARC
  5
24CEE
  8
0
 10
4352.0608758626613053
 20
590.015467054579176
 30
0.0
 40
0.1214652185868248
 50
106.7003212936386944
 51
130.5927652279198981
  0
ARC
  5
24CEF
  8
0
 10
4352.0415131314903192
 20
590.0340077025033452
 30
0.0
 40
0.0948241372599732
 50
128.9978947884291927
 51
156.5158118454307044
  0
ARC
  5
24CF0
  8
0
 10
4351.9852195410767308
 20
590.0582255028945156
 30
0.0
 40
0.0335433719449067
 50
156.1384411465635935
 51
192.1886206302966116
  0
LINE
  5
24CF1
  8
0
 10
4351.9524323089990503
 20
590.0511434682952085
 30
0.0
 11
4351.9600211592987762
 21
590.0211863728951585
 31
0.0
  0
ARC
  5
24CF2
  8
0
 10
4351.9971537327201077
 20
590.0312716416752892
 30
0.0
 40
0.0384777943146417
 50
195.1950738851687106
 51
249.509925245173207
  0
ARC
  5
24CF3
  8
0
 10
4352.0050940790988534
 20
590.0132399995604828
 30
0.0
 40
0.0159953851214584
 50
99.1562278201367064
 51
141.9272758691184038
  0
ARC
  5
24CF4
  8
0
 10
4351.9991449745239152
 20
590.0183371843482973
 30
0.0
 40
0.0081760862047441
 50
144.3391238609029017
 51
209.1777623926456897
  0
ARC
  5
24CF5
  8
0
 10
4352.0033464697717136
 20
590.0211067571846115
 30
0.0
 40
0.0131998657512118
 50
210.7832649693131941
 51
249.7043202467000924
  0
ARC
  5
24CF6
  8
0
 10
4352.0446833004543805
 20
590.0702548946469506
 30
0.0
 40
0.0643355188196209
 50
81.0698935468389834
 51
106.9092354712464044
  0
ARC
  5
24CF7
  8
0
 10
4352.0066525273241496
 20
590.0076110850402529
 30
0.0
 40
0.02181004476773
 50
72.4528123767563983
 51
100.845337342108607
  0
ARC
  5
24CF8
  8
0
 10
4352.0066712084271785
 20
590.0285084148116539
 30
0.0
 40
0.0213023532093268
 50
248.2223025903643077
 51
291.3399217418522085
  0
ARC
  5
24CF9
  8
0
 10
4352.0059483791319508
 20
590.0484910905341849
 30
0.0
 40
0.0577286832200466
 50
247.3153160668900057
 51
305.0614765244390014
  0
ARC
  5
24CFA
  8
0
 10
4352.1080741720388687
 20
590.0023488169164239
 30
0.0
 40
0.0233220275242062
 50
37.1108781735434619
 51
84.1819347032933649
  0
ARC
  5
24CFB
  8
0
 10
4352.1070857125032489
 20
590.0054930562714617
 30
0.0
 40
0.022428987036176
 50
350.0129727293975179
 51
29.15648552907534
  0
LINE
  5
24CFC
  8
0
 10
4352.1291748340991035
 20
590.0016033047952533
 30
0.0
 11
4352.1149140724255631
 21
589.9093803538695511
 31
0.0
  0
ARC
  5
24CFD
  8
0
 10
4352.0776028889858935
 20
589.916162289158251
 30
0.0
 40
0.0379225402086813
 50
309.5204200023239878
 51
349.6980020174245851
  0
ARC
  5
24CFE
  8
0
 10
4352.0712570477808185
 20
589.8971521214654103
 30
0.0
 40
0.0157562680458973
 50
38.9039265132864571
 51
72.8339840621488861
  0
ARC
  5
24CFF
  8
0
 10
4352.0767631450744375
 20
589.9022028031619129
 30
0.0
 40
0.0083129519486294
 50
326.8189551411970228
 51
35.645384830791258
  0
ARC
  5
24D00
  8
0
 10
4352.0722682367013476
 20
589.9054513586197572
 30
0.0
 40
0.0138552534320734
 50
290.4205715806928083
 51
325.748419964041716
  0
ARC
  5
24D01
  8
0
 10
4352.1250903120799194
 20
589.8952031243732108
 30
0.0
 40
0.1339518184916964
 50
110.0647953055151049
 51
127.9088582879874991
  0
ARC
  5
24D02
  8
0
 10
4352.1115576900483575
 20
589.9091760264332152
 30
0.0
 40
0.1146319022739825
 50
126.8631484549130022
 51
148.3919398631105082
  0
ARC
  5
24D03
  8
0
 10
4352.0438962482667193
 20
589.948955450406288
 30
0.0
 40
0.0361938493230892
 50
145.8844596541952114
 51
192.3027516425030115
  0
LINE
  5
24D04
  8
0
 10
4352.0085335782978291
 20
589.9412433623950847
 30
0.0
 11
4352.0225284827247378
 21
589.900272413269704
 31
0.0
  0
ARC
  5
24D05
  8
0
 10
4352.0574801449993174
 20
589.9137856516657621
 30
0.0
 40
0.0374730077213489
 50
201.1378220765381002
 51
246.6378232333528047
  0
ARC
  5
24D06
  8
0
 10
4352.0677733907359652
 20
589.8970402178625818
 30
0.0
 40
0.0159953851214584
 50
99.1562278201367064
 51
141.9272758691184038
  0
ARC
  5
24D07
  8
0
 10
4352.061824286161027
 20
589.9021374026503963
 30
0.0
 40
0.0081760862047441
 50
144.3391238609029017
 51
209.1777623926456897
  0
ARC
  5
24D08
  8
0
 10
4352.0660257814097349
 20
589.9049069754867105
 30
0.0
 40
0.0131998657512118
 50
210.7832649693131941
 51
249.7043202467000924
  0
ARC
  5
24D09
  8
0
 10
4352.1049962228462391
 20
589.9526670552388623
 30
0.0
 40
0.0730865467104539
 50
85.7297426048240254
 51
110.7236307071954968
  0
ARC
  5
24D0A
  8
0
 10
4352.0693318389603519
 20
589.8914113033423519
 30
0.0
 40
0.02181004476773
 50
72.4528123767563983
 51
100.845337342108607
  0
ARC
  5
24D0B
  8
0
 10
4352.0693505200642903
 20
589.9123086331137529
 30
0.0
 40
0.0213023532093268
 50
248.2223025903643077
 51
291.3399217418522085
  0
ARC
  5
24D0C
  8
0
 10
4352.0659727651909634
 20
589.9318975577591573
 30
0.0
 40
0.0574710008806819
 50
246.0254486911003085
 51
308.481803315961713
  0
ARC
  5
24D0D
  8
0
 10
4352.1205085154651897
 20
589.8843081709478611
 30
0.0
 40
0.017533435122308
 50
45.3746260250163402
 51
82.8745300364434883
  0
ARC
  5
24D0E
  8
0
 10
4352.1226100828353083
 20
589.8875090773962029
 30
0.0
 40
0.0137995672747469
 50
352.9427739465704121
 51
42.2473733269207798
  0
LINE
  5
24D0F
  8
0
 10
4352.1363051036978504
 20
589.8858136539952284
 30
0.0
 11
4352.1300570556422826
 21
589.7923989123055435
 31
0.0
  0
ARC
  5
24D10
  8
0
 10
4352.0916076851499383
 20
589.7961796159281676
 30
0.0
 40
0.0386348005177397
 50
308.6331748324777209
 51
354.3841929416942094
  0
ARC
  5
24D11
  8
0
 10
4352.0870817119011917
 20
589.7752050977916269
 30
0.0
 40
0.0157562680458973
 50
38.9039265132864571
 51
72.8339840621488861
  0
ARC
  5
24D12
  8
0
 10
4352.0925878091939012
 20
589.7802557794881295
 30
0.0
 40
0.0083129519486294
 50
326.8189551411970228
 51
35.645384830791258
  0
ARC
  5
24D13
  8
0
 10
4352.0880929008199018
 20
589.7835043349458601
 30
0.0
 40
0.0138552534320734
 50
290.4205715806928083
 51
325.748419964041716
  0
ARC
  5
24D14
  8
0
 10
4352.1177254046961025
 20
589.7854296924234632
 30
0.0
 40
0.1113097603907295
 50
125.6063334328606942
 51
149.5453760848737943
  0
ARC
  5
24D15
  8
0
 10
4352.0471692184755739
 20
589.8277331934559697
 30
0.0
 40
0.0290549329415578
 50
150.9359733069537128
 51
192.4645163073664094
  0
LINE
  5
24D16
  8
0
 10
4352.0187991143002364
 20
589.8214621235950972
 30
0.0
 11
4352.0387250018420673
 21
589.7751648847055321
 31
0.0
  0
ARC
  5
24D17
  8
0
 10
4352.0711938802232908
 20
589.7906300080860547
 30
0.0
 40
0.0359638444063457
 50
205.4687429478584022
 51
249.9793513058959888
  0
ARC
  5
24D18
  8
0
 10
4352.0835980548536099
 20
589.7750931941887984
 30
0.0
 40
0.0159953851214584
 50
99.1562278201367064
 51
141.9272758691184038
  0
ARC
  5
24D19
  8
0
 10
4352.0776489502786717
 20
589.7801903789764992
 30
0.0
 40
0.0081760862047441
 50
144.3391238609029017
 51
209.1777623926456897
  0
ARC
  5
24D1A
  8
0
 10
4352.0818504455291986
 20
589.7829599518128134
 30
0.0
 40
0.0131998657512118
 50
210.7832649693131941
 51
249.7043202467000924
  0
ARC
  5
24D1B
  8
0
 10
4352.1163077848341345
 20
589.8629548823771529
 30
0.0
 40
0.0392722890484288
 50
80.6570191524256757
 51
95.1094574951171836
  0
ARC
  5
24D1C
  8
0
 10
4352.0851565030807251
 20
589.7694642796684548
 30
0.0
 40
0.02181004476773
 50
72.4528123767563983
 51
100.845337342108607
  0
ARC
  5
24D1D
  8
0
 10
4352.085175184183754
 20
589.7903616094398558
 30
0.0
 40
0.0213023532093268
 50
248.2223025903643077
 51
291.3399217418522085
  0
ARC
  5
24D1E
  8
0
 10
4352.0792307056781283
 20
589.8115277257818434
 30
0.0
 40
0.0583515241702725
 50
249.5898871632034002
 51
308.7176916677764211
  0
ARC
  5
24D1F
  8
0
 10
4351.9891599145948931
 20
589.8445043752482206
 30
0.0
 40
0.0284796403792341
 50
52.5466982274772292
 51
87.3287289090635568
  0
ARC
  5
24D20
  8
0
 10
4351.9939982328269252
 20
589.8551176293254912
 30
0.0
 40
0.0173104438168498
 50
343.5037928619267973
 51
43.8641507365875114
  0
LINE
  5
24D21
  8
0
 10
4352.0105961533990921
 20
589.8502022963951958
 30
0.0
 11
4351.9898870515771705
 21
589.7695710182149469
 31
0.0
  0
ARC
  5
24D22
  8
0
 10
4351.9523920723695483
 20
589.7807655067431369
 30
0.0
 40
0.0391304234471636
 50
307.2623613956532722
 51
343.376496727681797
  0
ARC
  5
24D23
  8
0
 10
4351.9455510265233897
 20
589.7617365484832135
 30
0.0
 40
0.0157562680458973
 50
38.9039265132864571
 51
72.8339840621488861
  0
ARC
  5
24D24
  8
0
 10
4351.9510571238160992
 20
589.7667872301797161
 30
0.0
 40
0.0083129519486294
 50
326.8189551411970228
 51
35.645384830791258
  0
ARC
  5
24D25
  8
0
 10
4351.9465622154420998
 20
589.7700357856375604
 30
0.0
 40
0.0138552534320734
 50
290.4205715806928083
 51
325.748419964041716
  0
ARC
  5
24D26
  8
0
 10
4352.0015091796503839
 20
589.7355468069692961
 30
0.0
 40
0.1394221886320539
 50
104.8093018267876033
 51
126.7581174913919995
  0
ARC
  5
24D27
  8
0
 10
4351.9735542554726635
 20
589.7701818753920406
 30
0.0
 40
0.0949590323295312
 50
125.7506278681226064
 51
148.870654066414005
  0
ARC
  5
24D28
  8
0
 10
4351.9172598760169421
 20
589.8057727398461338
 30
0.0
 40
0.0284041671173352
 50
151.6216211596155858
 51
187.5769323257586905
  0
LINE
  5
24D29
  8
0
 10
4351.8891037139992477
 20
589.802027442795179
 30
0.0
 11
4351.8969944496766402
 21
589.7695710182149469
 31
0.0
  0
ARC
  5
24D2A
  8
0
 10
4351.9341270230988812
 20
589.7796562869951913
 30
0.0
 40
0.0384777943146417
 50
195.1950738851687106
 51
249.509925245173207
  0
ARC
  5
24D2B
  8
0
 10
4351.9420673694767174
 20
589.7616246448802713
 30
0.0
 40
0.0159953851214584
 50
99.1562278201367064
 51
141.9272758691184038
  0
ARC
  5
24D2C
  8
0
 10
4351.9361182649017792
 20
589.7667218296681995
 30
0.0
 40
0.0081760862047441
 50
144.3391238609029017
 51
209.1777623926456897
  0
ARC
  5
24D2D
  8
0
 10
4351.9403197601513966
 20
589.7694914025044
 30
0.0
 40
0.0131998657512118
 50
210.7832649693131941
 51
249.7043202467000924
  0
ARC
  5
24D2E
  8
0
 10
4351.986538940380342
 20
589.792974558695505
 30
0.0
 40
0.0800759078967537
 50
87.1737840748171493
 51
104.9565076297073034
  0
ARC
  5
24D2F
  8
0
 10
4351.9436258177020136
 20
589.755995730360155
 30
0.0
 40
0.02181004476773
 50
72.4528123767563983
 51
100.845337342108607
  0
ARC
  5
24D30
  8
0
 10
4351.9436444988050425
 20
589.7768930601314423
 30
0.0
 40
0.0213023532093268
 50
248.2223025903643077
 51
291.3399217418522085
  0
ARC
  5
24D31
  8
0
 10
4351.9429216695098148
 20
589.7968757358539733
 30
0.0
 40
0.0577286832200466
 50
247.3153160668900057
 51
305.0614765244390014
  0
ARC
  5
24D32
  8
0
 10
4351.9811131724700317
 20
589.7385157130903508
 30
0.0
 40
0.0192565697839078
 50
47.6345606413742573
 51
81.6621469320846387
  0
ARC
  5
24D33
  8
0
 10
4351.98580876037704
 20
589.74493071994209
 30
0.0
 40
0.0113846425032772
 50
347.1736812225972244
 51
43.3355751743133979
  0
LINE
  5
24D34
  8
0
 10
4351.9969093273994076
 20
589.7424033701952339
 30
0.0
 11
4351.982490470499215
 21
589.6511809196952072
 31
0.0
  0
ARC
  5
24D35
  8
0
 10
4351.947009617589174
 20
589.657445971915763
 30
0.0
 40
0.0360297349771592
 50
300.0548143277043778
 51
349.9861863357975835
  0
ARC
  5
24D36
  8
0
 10
4351.938177090730278
 20
589.6384218344364854
 30
0.0
 40
0.0157562680458973
 50
38.9039265132864571
 51
72.8339840621488861
  0
ARC
  5
24D37
  8
0
 10
4351.943683188022078
 20
589.6434725161329879
 30
0.0
 40
0.0083129519486294
 50
326.8189551411970228
 51
35.645384830791258
  0
ARC
  5
24D38
  8
0
 10
4351.9391882796498976
 20
589.6467210715907186
 30
0.0
 40
0.0138552534320734
 50
290.4205715806928083
 51
325.748419964041716
  0
ARC
  5
24D39
  8
0
 10
4352.008470646056594
 20
589.5829232301467755
 30
0.0
 40
0.1810628381966133
 50
118.107575494750094
 51
129.1818701995686069
  0
ARC
  5
24D3A
  8
0
 10
4351.9418801133915622
 20
589.6645577268501484
 30
0.0
 40
0.0757134865482146
 50
129.1501569896207116
 51
146.6306137254080113
  0
ARC
  5
24D3B
  8
0
 10
4351.8981366562966286
 20
589.6924628172199618
 30
0.0
 40
0.023844707086361
 50
144.8144465960004936
 51
188.4203933329096969
  0
LINE
  5
24D3C
  8
0
 10
4351.8745489885986899
 20
589.6889711143951445
 30
0.0
 11
4351.8897117907990832
 21
589.6435035482951434
 31
0.0
  0
ARC
  5
24D3D
  8
0
 10
4351.9265612597846484
 20
589.6583100650352662
 30
0.0
 40
0.0397129236208605
 50
201.8907971361412024
 51
249.3775739234716866
  0
ARC
  5
24D3E
  8
0
 10
4351.9346934336836057
 20
589.6383099308336568
 30
0.0
 40
0.0159953851214584
 50
99.1562278201367064
 51
141.9272758691184038
  0
ARC
  5
24D3F
  8
0
 10
4351.9287443291095769
 20
589.643407115621244
 30
0.0
 40
0.0081760862047441
 50
144.3391238609029017
 51
209.1777623926456897
  0
ARC
  5
24D40
  8
0
 10
4351.9329458243582849
 20
589.6461766884575582
 30
0.0
 40
0.0131998657512118
 50
210.7832649693131941
 51
249.7043202467000924
  0
ARC
  5
24D41
  8
0
 10
4351.9362518819098113
 20
589.6326810163133132
 30
0.0
 40
0.02181004476773
 50
72.4528123767563983
 51
100.845337342108607
  0
ARC
  5
24D42
  8
0
 10
4351.9362705630128403
 20
589.6535783460847142
 30
0.0
 40
0.0213023532093268
 50
248.2223025903643077
 51
291.3399217418522085
  0
ARC
  5
24D43
  8
0
 10
4351.9336040450989458
 20
589.6771192574224187
 30
0.0
 40
0.0597973904775313
 50
249.4094349688041916
 51
301.7320447743878162
  0
LINE
  5
24D44
  8
0
 10
4351.9312725852523727
 20
589.6173673352532205
 30
0.0
 11
4351.9236553892978918
 21
589.5381052170952216
 31
0.0
  0
ARC
  5
24D45
  8
0
 10
4351.8885485503924428
 20
589.5426484483216427
 30
0.0
 40
0.0353995916358493
 50
302.4043889166911754
 51
352.626244472998394
  0
ARC
  5
24D46
  8
0
 10
4351.8797836655539868
 20
589.5219139391402905
 30
0.0
 40
0.0157562680458973
 50
38.9039265132864571
 51
72.8339840621488861
  0
ARC
  5
24D47
  8
0
 10
4351.8852897628457868
 20
589.5269646208367931
 30
0.0
 40
0.0083129519486294
 50
326.8189551411970228
 51
35.645384830791258
  0
ARC
  5
24D48
  8
0
 10
4351.8807948544717874
 20
589.5302131762946374
 30
0.0
 40
0.0138552534320734
 50
290.4205715806928083
 51
325.748419964041716
  0
ARC
  5
24D49
  8
0
 10
4351.9436284356115721
 20
589.455643700999758
 30
0.0
 40
0.1880800255832599
 50
105.5648385620088021
 51
130.0775066738009116
  0
LINE
  5
24D4A
  8
0
 10
4351.8148131081943575
 20
589.5690640490987562
 30
0.0
 11
4351.8311281362994123
 21
589.5257869139951481
 31
0.0
  0
ARC
  5
24D4B
  8
0
 10
4351.8633930379746744
 20
589.5391396893478486
 30
0.0
 40
0.0349187698772386
 50
202.4821355118442909
 51
247.6666297823672096
  0
ARC
  5
24D4C
  8
0
 10
4351.8763000085073145
 20
589.521802035537462
 30
0.0
 40
0.0159953851214584
 50
99.1562278201367064
 51
141.9272758691184038
  0
ARC
  5
24D4D
  8
0
 10
4351.8703509039323762
 20
589.5268992203251628
 30
0.0
 40
0.0081760862047441
 50
144.3391238609029017
 51
209.1777623926456897
  0
ARC
  5
24D4E
  8
0
 10
4351.8745523991810842
 20
589.5296687931613633
 30
0.0
 40
0.0131998657512118
 50
210.7832649693131941
 51
249.7043202467000924
  0
ARC
  5
24D4F
  8
0
 10
4351.8778584567326106
 20
589.516173121017232
 30
0.0
 40
0.02181004476773
 50
72.4528123767563983
 51
100.845337342108607
  0
ARC
  5
24D50
  8
0
 10
4351.8778771378365491
 20
589.5370704507885193
 30
0.0
 40
0.0213023532093268
 50
248.2223025903643077
 51
291.3399217418522085
  0
ARC
  5
24D51
  8
0
 10
4351.8733169607849049
 20
589.5631600705504525
 30
0.0
 40
0.0609084103777574
 50
247.6178162243573979
 51
304.1617067153679272
  0
ARC
  5
24D52
  8
0
 10
4351.8062794634270176
 20
589.5999722895186324
 30
0.0
 40
0.0414673743267618
 50
64.0634663400679329
 51
91.8587905837867851
  0
ARC
  5
24D53
  8
0
 10
4351.8191065212449757
 20
589.6283193054583762
 30
0.0
 40
0.010401136969362
 50
343.0922308431838132
 51
59.3030743522940824
  0
LINE
  5
24D54
  8
0
 10
4351.8290580602988484
 20
589.6252943226952539
 30
0.0
 11
4351.8096000481982628
 21
589.5484861076952257
 31
0.0
  0
ARC
  5
24D55
  8
0
 10
4351.7749929434394289
 20
589.5577643299061492
 30
0.0
 40
0.0358292772360101
 50
309.2243075136768766
 51
344.9918497821694814
  0
ARC
  5
24D56
  8
0
 10
4351.7646330354982638
 20
589.5409574713307848
 30
0.0
 40
0.0157562680458973
 50
38.9039265132864571
 51
72.8339840621488861
  0
ARC
  5
24D57
  8
0
 10
4351.7701391327909732
 20
589.546008153027401
 30
0.0
 40
0.0083129519486294
 50
326.8189551411970228
 51
35.645384830791258
  0
ARC
  5
24D58
  8
0
 10
4351.7656442244178834
 20
589.5492567084852453
 30
0.0
 40
0.0138552534320734
 50
290.4205715806928083
 51
325.748419964041716
  0
ARC
  5
24D59
  8
0
 10
4351.8199245878558941
 20
589.4764858112447428
 30
0.0
 40
0.1663714762512404
 50
105.015339003163902
 51
119.2121807821008019
  0
ARC
  5
24D5A
  8
0
 10
4351.776937556996927
 20
589.5467973403684709
 30
0.0
 40
0.0840837602532441
 50
117.0279524193707061
 51
141.4150306634730896
  0
ARC
  5
24D5B
  8
0
 10
4351.7270609061561117
 20
589.5872950160261325
 30
0.0
 40
0.0198462161777699
 50
143.0018974840128863
 51
184.5934310138094077
  0
LINE
  5
24D5C
  8
0
 10
4351.7072784346992194
 20
589.585705638895206
 30
0.0
 11
4351.7167073800992512
 21
589.548486116095205
 31
0.0
  0
ARC
  5
24D5D
  8
0
 10
4351.7549719779462976
 20
589.5601460474581472
 30
0.0
 40
0.0400016680624736
 50
196.9469493404860998
 51
246.328949325129912
  0
ARC
  5
24D5E
  8
0
 10
4351.761149378450682
 20
589.5408455677281836
 30
0.0
 40
0.0159953851214584
 50
99.1562278201367064
 51
141.9272758691184038
  0
ARC
  5
24D5F
  8
0
 10
4351.7552002738766532
 20
589.5459427525158844
 30
0.0
 40
0.0081760862047441
 50
144.3391238609029017
 51
209.1777623926456897
  0
ARC
  5
24D60
  8
0
 10
4351.7594017691262707
 20
589.5487123253520849
 30
0.0
 40
0.0131998657512118
 50
210.7832649693131941
 51
249.7043202467000924
  0
ARC
  5
24D61
  8
0
 10
4351.808537567856547
 20
589.5222359385139725
 30
0.0
 40
0.1192363588942996
 50
91.731660820199707
 51
105.4260007107047983
  0
ARC
  5
24D62
  8
0
 10
4351.7627078266777971
 20
589.53521665320784
 30
0.0
 40
0.02181004476773
 50
72.4528123767563983
 51
100.845337342108607
  0
ARC
  5
24D63
  8
0
 10
4351.7627265077799166
 20
589.556113982979241
 30
0.0
 40
0.0213023532093268
 50
248.2223025903643077
 51
291.3399217418522085
  0
ARC
  5
24D64
  8
0
 10
4351.7627203500123869
 20
589.5770203233405482
 30
0.0
 40
0.0585679755332794
 50
246.0142383404698023
 51
306.6119916451094127
  0
LINE
  5
24D65
  8
0
 10
4351.746927512154798
 20
589.5206217947205687
 30
0.0
 11
4351.7326412833981522
 21
589.4398879626952521
 31
0.0
  0
ARC
  5
24D66
  8
0
 10
4351.6983935494281468
 20
589.4467818967035555
 30
0.0
 40
0.0349347049254796
 50
313.0246336971068786
 51
348.618682538900714
  0
ARC
  5
24D67
  8
0
 10
4351.6886705927327057
 20
589.4280648521664716
 30
0.0
 40
0.0157562680458973
 50
38.9039265132864571
 51
72.8339840621488861
  0
ARC
  5
24D68
  8
0
 10
4351.6941766900272341
 20
589.4331155338630879
 30
0.0
 40
0.0083129519486294
 50
326.8189551411970228
 51
35.645384830791258
  0
ARC
  5
24D69
  8
0
 10
4351.6896817816523253
 20
589.4363640893209322
 30
0.0
 40
0.0138552534320734
 50
290.4205715806928083
 51
325.748419964041716
  0
ARC
  5
24D6A
  8
0
 10
4351.7398485826715842
 20
589.3520169047387753
 30
0.0
 40
0.1858754127548232
 50
107.814109740297198
 51
120.1355643689989989
  0
ARC
  5
24D6B
  8
0
 10
4351.6832464927701949
 20
589.4474687265119428
 30
0.0
 40
0.0749150031003989
 50
119.3474895376339049
 51
139.6720843866600887
  0
ARC
  5
24D6C
  8
0
 10
4351.6362793858697842
 20
589.4882670687053405
 30
0.0
 40
0.0127260543195861
 50
142.8588367314370942
 51
186.8714741244436937
  0
LINE
  5
24D6D
  8
0
 10
4351.6236447423989375
 20
589.4867444909951928
 30
0.0
 11
4351.6396262213993396
 21
589.4342759669950738
 31
0.0
  0
ARC
  5
24D6E
  8
0
 10
4351.6757849358391468
 20
589.4474356867614233
 30
0.0
 40
0.0384789663877887
 50
199.9986343653694121
 51
249.2106979472914077
  0
ARC
  5
24D6F
  8
0
 10
4351.6851869356869429
 20
589.4279529485637568
 30
0.0
 40
0.0159953851214584
 50
99.1562278201367064
 51
141.9272758691184038
  0
ARC
  5
24D70
  8
0
 10
4351.6792378311120046
 20
589.4330501333515713
 30
0.0
 40
0.0081760862047441
 50
144.3391238609029017
 51
209.1777623926456897
  0
ARC
  5
24D71
  8
0
 10
4351.6834393263598031
 20
589.4358197061878855
 30
0.0
 40
0.0131998657512118
 50
210.7832649693131941
 51
249.7043202467000924
  0
ARC
  5
24D72
  8
0
 10
4351.7383504301878929
 20
589.3634742907594273
 30
0.0
 40
0.1745214137497343
 50
95.3181105229452754
 51
108.4966115979034953
  0
ARC
  5
24D73
  8
0
 10
4351.686745383912239
 20
589.4223240340435268
 30
0.0
 40
0.02181004476773
 50
72.4528123767563983
 51
100.845337342108607
  0
ARC
  5
24D74
  8
0
 10
4351.6867640650161775
 20
589.4432213638149278
 30
0.0
 40
0.0213023532093268
 50
248.2223025903643077
 51
291.3399217418522085
  0
ARC
  5
24D75
  8
0
 10
4351.6840304304014353
 20
589.4664245475075859
 30
0.0
 40
0.059166026569804
 50
248.2723981127587933
 51
310.2131190707772816
  0
ARC
  5
24D76
  8
0
 10
4351.5999763206827993
 20
589.3447114737590482
 30
0.0
 40
0.0977939952039613
 50
82.091799445888924
 51
99.7106208821475377
  0
ARC
  5
24D77
  8
0
 10
4351.6115472882420363
 20
589.4333288100992831
 30
0.0
 40
0.0084591191732209
 50
15.5879883625940998
 51
77.130236306652094
  0
LINE
  5
24D78
  8
0
 10
4351.6196952718992179
 20
589.4356019267952433
 30
0.0
 11
4351.6075505158987653
 21
589.3486483862950536
 31
0.0
  0
ARC
  5
24D79
  8
0
 10
4351.5732224183393555
 20
589.3550173723607486
 30
0.0
 40
0.0349139265280354
 50
307.2973409296703835
 51
349.4892709148654717
  0
ARC
  5
24D7A
  8
0
 10
4351.5637378446881485
 20
589.3343629740414826
 30
0.0
 40
0.0157562680458973
 50
38.9039265132864571
 51
72.8339840621488861
  0
ARC
  5
24D7B
  8
0
 10
4351.5692439419808579
 20
589.3394136557379852
 30
0.0
 40
0.0083129519486294
 50
326.8189551411970228
 51
35.645384830791258
  0
ARC
  5
24D7C
  8
0
 10
4351.5647490336077681
 20
589.3426622111957158
 30
0.0
 40
0.0138552534320734
 50
290.4205715806928083
 51
325.748419964041716
  0
LINE
  5
24D7D
  8
0
 10
4351.5088169091222881
 20
589.3584522666411658
 30
0.0
 11
4351.5144318238990309
 21
589.3407728446951523
 31
0.0
  0
ARC
  5
24D7E
  8
0
 10
4351.5505251585782389
 20
589.3555839171158368
 30
0.0
 40
0.0390140573958352
 50
202.3110291077213105
 51
259.8383416822072718
  0
ARC
  5
24D7F
  8
0
 10
4351.5602541876423857
 20
589.3342510704386541
 30
0.0
 40
0.0159953851214584
 50
99.1562278201367064
 51
141.9272758691184038
  0
ARC
  5
24D80
  8
0
 10
4351.5543050830674474
 20
589.3393482552263549
 30
0.0
 40
0.0081760862047441
 50
144.3391238609029017
 51
209.1777623926456897
  0
ARC
  5
24D81
  8
0
 10
4351.5585065783161554
 20
589.3421178280625554
 30
0.0
 40
0.0131998657512118
 50
210.7832649693131941
 51
249.7043202467000924
  0
ARC
  5
24D82
  8
0
 10
4351.6228561121570237
 20
589.1912551639544517
 30
0.0
 40
0.2529327446523364
 50
98.9558554507675154
 51
107.9081234809398069
  0
ARC
  5
24D83
  8
0
 10
4351.5618126358685913
 20
589.3286221559183105
 30
0.0
 40
0.02181004476773
 50
72.4528123767563983
 51
100.845337342108607
  0
ARC
  5
24D84
  8
0
 10
4351.5618313169707108
 20
589.3495194856897115
 30
0.0
 40
0.0213023532093268
 50
248.2223025903643077
 51
291.3399217418522085
  0
ARC
  5
24D85
  8
0
 10
4351.5583209293699838
 20
589.3761155245631471
 30
0.0
 40
0.0607342451141635
 50
256.013684598931718
 51
306.4196771591476818
  0
ARC
  5
24D86
  8
0
 10
4351.5270223008756147
 20
589.4239614998764409
 30
0.0
 40
0.0432810090319397
 50
61.0169405441524404
 51
88.1700743413700962
  0
ARC
  5
24D87
  8
0
 10
4351.5437368222637815
 20
589.456096185049887
 30
0.0
 40
0.007135215245893
 50
346.1305311299669256
 51
53.3685656717515684
  0
LINE
  5
24D88
  8
0
 10
4351.5506640056983088
 20
589.454385797295231
 30
0.0
 11
4351.533156992358272
 21
589.3839751829576699
 31
0.0
  0
ARC
  5
24D89
  8
0
 10
4351.4985498875976191
 20
589.3932534051685934
 30
0.0
 40
0.0358292772360101
 50
309.2243075136768766
 51
344.9918497821694814
  0
ARC
  5
24D8A
  8
0
 10
4351.4881899796582729
 20
589.3764465465934563
 30
0.0
 40
0.0157562680458973
 50
38.9039265132864571
 51
72.8339840621488861
  0
ARC
  5
24D8B
  8
0
 10
4351.4936960769509824
 20
589.3814972282898452
 30
0.0
 40
0.0083129519486294
 50
326.8189551411970228
 51
35.645384830791258
  0
ARC
  5
24D8C
  8
0
 10
4351.489201168576983
 20
589.3847457837478032
 30
0.0
 40
0.0138552534320734
 50
290.4205715806928083
 51
325.748419964041716
  0
ARC
  5
24D8D
  8
0
 10
4351.5211901048824075
 20
589.3042319298785969
 30
0.0
 40
0.1623425129650528
 50
102.3893270739862942
 51
115.7820623376462947
  0
ARC
  5
24D8E
  8
0
 10
4351.4759531245063044
 20
589.3942040998449556
 30
0.0
 40
0.0616716074896408
 50
114.2949196770822056
 51
135.0970760964561066
  0
ARC
  5
24D8F
  8
0
 10
4351.4416122817920041
 20
589.4290167047881823
 30
0.0
 40
0.0127801575527949
 50
136.9643607123707909
 51
182.614259433904806
  0
LINE
  5
24D90
  8
0
 10
4351.4288454251991425
 20
589.4284337812952117
 30
0.0
 11
4351.4400211592992491
 21
589.3843190396952423
 31
0.0
  0
ARC
  5
24D91
  8
0
 10
4351.4789637772273636
 20
589.3962332860111246
 30
0.0
 40
0.0407244000113417
 50
197.0111580000805986
 51
246.1064940850889116
  0
ARC
  5
24D92
  8
0
 10
4351.4847063226106911
 20
589.3763346429905141
 30
0.0
 40
0.0159953851214584
 50
99.1562278201367064
 51
141.9272758691184038
  0
ARC
  5
24D93
  8
0
 10
4351.4787572180357529
 20
589.3814318277784423
 30
0.0
 40
0.0081760862047441
 50
144.3391238609029017
 51
209.1777623926456897
  0
ARC
  5
24D94
  8
0
 10
4351.4829587132853703
 20
589.3842014006146428
 30
0.0
 40
0.0131998657512118
 50
210.7832649693131941
 51
249.7043202467000924
  0
ARC
  5
24D95
  8
0
 10
4351.5235377203352982
 20
589.3115507378515758
 30
0.0
 40
0.1557457526256392
 50
88.2093590662499025
 51
103.8106749719272983
  0
ARC
  5
24D96
  8
0
 10
4351.4862647708359873
 20
589.3707057284703978
 30
0.0
 40
0.02181004476773
 50
72.4528123767563983
 51
100.845337342108607
  0
ARC
  5
24D97
  8
0
 10
4351.4862834519408352
 20
589.3916030582415715
 30
0.0
 40
0.0213023532093268
 50
248.2223025903643077
 51
291.3399217418522085
  0
ARC
  5
24D98
  8
0
 10
4351.4862772941723961
 20
589.4125093986032198
 30
0.0
 40
0.0585679755332794
 50
246.0142383404698023
 51
306.6119916451094127
  0
ARC
  5
24D99
  8
0
 10
4351.3897808536266893
 20
589.3432531499453262
 30
0.0
 40
0.0468224913622093
 50
65.0790832898833287
 51
86.9895992551185486
  0
ARC
  5
24D9A
  8
0
 10
4351.4063879920504405
 20
589.380866870985642
 30
0.0
 40
0.0057674065630242
 50
356.7760166592511268
 51
57.2229387734940502
  0
LINE
  5
24D9B
  8
0
 10
4351.4121462705988961
 20
589.3805425152952466
 30
0.0
 11
4351.3959822573988276
 21
589.3013139701952241
 31
0.0
  0
ARC
  5
24D9C
  8
0
 10
4351.3647237256072913
 20
589.3075001447944032
 30
0.0
 40
0.0318647856728252
 50
307.6863003052632166
 51
348.8056114420651284
  0
ARC
  5
24D9D
  8
0
 10
4351.3514546776114003
 20
589.2903900739994469
 30
0.0
 40
0.0157562680458973
 50
38.9039265132864571
 51
72.8339840621488861
  0
ARC
  5
24D9E
  8
0
 10
4351.3569607749032002
 20
589.2954407556959495
 30
0.0
 40
0.0083129519486294
 50
326.8189551411970228
 51
35.645384830791258
  0
ARC
  5
24D9F
  8
0
 10
4351.3524658665282914
 20
589.2986893111537938
 30
0.0
 40
0.0138552534320734
 50
290.4205715806928083
 51
325.748419964041716
  0
ARC
  5
24DA0
  8
0
 10
4351.3571967341440541
 20
589.2552769520367519
 30
0.0
 40
0.1308109813875038
 50
102.7525575009997993
 51
117.013864152748198
  0
ARC
  5
24DA1
  8
0
 10
4351.3138730893288084
 20
589.3395717335102972
 30
0.0
 40
0.0360365109704105
 50
116.5214755506394937
 51
136.1059023024131989
  0
ARC
  5
24DA2
  8
0
 10
4351.2929286772423438
 20
589.3601084585353647
 30
0.0
 40
0.0067105735544873
 50
138.4792261248477132
 51
186.6845007975369128
  0
LINE
  5
24DA3
  8
0
 10
4351.286263720999159
 20
589.3593273338950667
 30
0.0
 11
4351.302791148000324
 21
589.2983563256951811
 31
0.0
  0
ARC
  5
24DA4
  8
0
 10
4351.339946801397673
 20
589.3110532986646604
 30
0.0
 40
0.0392651970838931
 50
198.8665214356315118
 51
252.1558405438640023
  0
ARC
  5
24DA5
  8
0
 10
4351.3479710205638185
 20
589.2902781703967321
 30
0.0
 40
0.0159953851214584
 50
99.1562278201367064
 51
141.9272758691184038
  0
ARC
  5
24DA6
  8
0
 10
4351.3420219159879707
 20
589.2953753551844329
 30
0.0
 40
0.0081760862047441
 50
144.3391238609029017
 51
209.1777623926456897
  0
ARC
  5
24DA7
  8
0
 10
4351.3462234112394071
 20
589.2981449280207471
 30
0.0
 40
0.0131998657512118
 50
210.7832649693131941
 51
249.7043202467000924
  0
ARC
  5
24DA8
  8
0
 10
4351.385167699610065
 20
589.1639506325218463
 30
0.0
 40
0.2261709910423138
 50
88.2081259285376404
 51
104.5569493243410051
  0
ARC
  5
24DA9
  8
0
 10
4351.3495294687900241
 20
589.2846492558763885
 30
0.0
 40
0.02181004476773
 50
72.4528123767563983
 51
100.845337342108607
  0
ARC
  5
24DAA
  8
0
 10
4351.3495481498930531
 20
589.3055465856477895
 30
0.0
 40
0.0213023532093268
 50
248.2223025903643077
 51
291.3399217418522085
  0
ARC
  5
24DAB
  8
0
 10
4351.3482648185527069
 20
589.3289598053146392
 30
0.0
 40
0.0589093390863871
 50
249.7909571696482089
 51
307.594853938870699
  0
ARC
  5
24DAC
  8
0
 10
4351.2198432317281913
 20
589.3054358793689289
 30
0.0
 40
0.0268264042740553
 50
58.7899944865666768
 51
80.1200117227056268
  0
ARC
  5
24DAD
  8
0
 10
4351.2317405683534162
 20
589.3257709955091741
 30
0.0
 40
0.0032893403916998
 50
355.5051518964963861
 51
52.476971837796917
  0
LINE
  5
24DAE
  8
0
 10
4351.2350197919986385
 20
589.3255132116952382
 30
0.0
 11
4351.219668705199183
 21
589.2464261825952008
 31
0.0
  0
ARC
  5
24DAF
  8
0
 10
4351.1860340359253314
 20
589.2546123827457905
 30
0.0
 40
0.0346165401224928
 50
302.8269339443839954
 51
346.3209826829086069
  0
ARC
  5
24DB0
  8
0
 10
4351.1770545472736558
 20
589.2346676566702399
 30
0.0
 40
0.0133147071989159
 50
39.4429389895521183
 51
70.8668027310684465
  0
ARC
  5
24DB1
  8
0
 10
4351.1824825744597547
 20
589.2393962674819932
 30
0.0
 40
0.006122114576399
 50
324.585042852345623
 51
37.5406049618219626
  0
ARC
  5
24DB2
  8
0
 10
4351.1781114562772927
 20
589.2424126810830103
 30
0.0
 40
0.0114327110255101
 50
301.0329521495198719
 51
324.9595606750453953
  0
LINE
  5
24DB3
  8
0
 10
4351.1184095931139382
 20
589.2742947304221843
 30
0.0
 11
4351.1262045898993165
 21
589.2437193463952099
 31
0.0
  0
ARC
  5
24DB4
  8
0
 10
4351.1615284181152674
 20
589.2555464341318157
 30
0.0
 40
0.0372512126535699
 50
198.5115232256750915
 51
248.7438408196973114
  0
ARC
  5
24DB5
  8
0
 10
4351.1725168047742045
 20
589.2293851539996012
 30
0.0
 40
0.0191163857778244
 50
106.3358159730802015
 51
133.0843015078152973
  0
ARC
  5
24DB6
  8
0
 10
4351.16398129031586
 20
589.2388966194808972
 30
0.0
 40
0.0063447650787548
 50
135.4610937245518869
 51
218.8404341663737114
  0
ARC
  5
24DB7
  8
0
 10
4351.1692459536552633
 20
589.2437658618314344
 30
0.0
 40
0.0135080732264906
 50
220.9230006923735061
 51
250.7790572808090133
  0
ARC
  5
24DB8
  8
0
 10
4351.2018115586270142
 20
589.2004907617357503
 30
0.0
 40
0.1333093000401798
 50
80.2243486169280402
 51
89.5589365893733458
  0
ARC
  5
24DB9
  8
0
 10
4351.173489232756765
 20
589.2241291868153894
 30
0.0
 40
0.0244397602587952
 50
71.0679069511012358
 51
105.0576605127476029
  0
ARC
  5
24DBA
  8
0
 10
4351.1726225726097255
 20
589.253101959348669
 30
0.0
 40
0.0234356444744661
 50
250.4982951000527862
 51
299.0586459477380004
  0
ARC
  5
24DBB
  8
0
 10
4351.1717398214641435
 20
589.2796813971067422
 30
0.0
 40
0.0634509059597117
 50
248.0513507070112951
 51
301.4015039202117237
  0
ARC
  5
24DBC
  8
0
 10
4351.1852595856071275
 20
589.3350960207096705
 30
0.0
 40
0.0360907568226193
 50
50.8244157203479503
 51
80.3757379837540356
  0
ARC
  5
24DBD
  8
0
 10
4351.2038056985747971
 20
589.3597042497387974
 30
0.0
 40
0.0054257217549658
 50
347.1792804016072864
 51
38.3952410241400912
  0
LINE
  5
24DBE
  8
0
 10
4351.2090961525991588
 20
589.3585002759951976
 30
0.0
 11
4351.1935078659989813
 21
589.2969675628952473
 31
0.0
  0
ARC
  5
24DBF
  8
0
 10
4351.157039458458712
 20
589.3074267269477104
 30
0.0
 40
0.0379386196535588
 50
304.7622217726174085
 51
343.9970726592810024
  0
ARC
  5
24DC0
  8
0
 10
4351.1487918322472979
 20
589.2891802399336711
 30
0.0
 40
0.0157562680458973
 50
38.9039265132864571
 51
72.8339840621488861
  0
ARC
  5
24DC1
  8
0
 10
4351.1542979295390978
 20
589.2942309216301737
 30
0.0
 40
0.0083129519486294
 50
326.8189551411970228
 51
35.645384830791258
  0
ARC
  5
24DC2
  8
0
 10
4351.149803021166008
 20
589.2974794770881317
 30
0.0
 40
0.0138552534320734
 50
290.4205715806928083
 51
325.748419964041716
  0
ARC
  5
24DC3
  8
0
 10
4351.1608989903170368
 20
589.1883906006587495
 30
0.0
 40
0.1846256891154825
 50
92.0164440593879078
 51
106.2815492349211013
  0
ARC
  5
24DC4
  8
0
 10
4351.123193680435179
 20
589.3152118411863967
 30
0.0
 40
0.0523234527872923
 50
105.5830536796787982
 51
131.5004464646586939
  0
ARC
  5
24DC5
  8
0
 10
4351.0936224042179674
 20
589.3505375048905535
 30
0.0
 40
0.0063969572810049
 50
142.8627111962306913
 51
189.6605811651836007
  0
LINE
  5
24DC6
  8
0
 10
4351.0873161611989417
 20
589.3494640238951661
 30
0.0
 11
4351.1006152640993605
 21
589.2969675628952473
 31
0.0
  0
ARC
  5
24DC7
  8
0
 10
4351.1390722401929452
 20
589.3088305865001075
 30
0.0
 40
0.0402451281442373
 50
197.143697186894201
 51
244.7393892624467924
  0
ARC
  5
24DC8
  8
0
 10
4351.1453081751997161
 20
589.28906833633107
 30
0.0
 40
0.0159953851214584
 50
99.1562278201367064
 51
141.9272758691184038
  0
ARC
  5
24DC9
  8
0
 10
4351.1393590706247778
 20
589.2941655211186571
 30
0.0
 40
0.0081760862047441
 50
144.3391238609029017
 51
209.1777623926456897
  0
ARC
  5
24DCA
  8
0
 10
4351.1435605658753047
 20
589.2969350939549713
 30
0.0
 40
0.0131998657512118
 50
210.7832649693131941
 51
249.7043202467000924
  0
ARC
  5
24DCB
  8
0
 10
4351.163772181416789
 20
589.2211858226454524
 30
0.0
 40
0.152005180425968
 50
79.5687892770491345
 51
93.5339109617097506
  0
ARC
  5
24DCC
  8
0
 10
4351.1468666234268312
 20
589.2834394218107263
 30
0.0
 40
0.02181004476773
 50
72.4528123767563983
 51
100.845337342108607
  0
ARC
  5
24DCD
  8
0
 10
4351.1468853045298602
 20
589.3043367515821274
 30
0.0
 40
0.0213023532093268
 50
248.2223025903643077
 51
291.3399217418522085
  0
ARC
  5
24DCE
  8
0
 10
4351.1469111076648915
 20
589.3244132729884086
 30
0.0
 40
0.0576845416196493
 50
244.3027598633395883
 51
303.4067352660675283
  0
ARC
  5
24DCF
  8
0
 10
4351.0163429965614341
 20
589.6222844352760148
 30
0.0
 40
1.0420650978004831
 50
56.1241453299235928
 51
80.3015539049846439
  0
ARC
  5
24DD0
  8
0
 10
4351.1819275974658012
 20
589.8822743942050693
 30
0.0
 40
0.733950794093201
 50
40.4511808650448614
 51
55.543253398324822
  0
ARC
  5
24DD1
  8
0
 10
4351.3220238803323809
 20
590.0005043637158906
 30
0.0
 40
0.5506364452089823
 50
18.4434675605135183
 51
40.5475647632790412
  0
ARC
  5
24DD2
  8
0
 10
4350.9884976865550925
 20
589.5317346500738722
 30
0.0
 40
1.1165176333490849
 50
68.4390535507484685
 51
79.7880983653442257
  0
LINE
  5
24DD3
  8
0
 10
4351.411489122499006
 20
590.5865246580470966
 30
0.0
 11
4351.411489122499006
 21
590.5356741256431405
 31
0.0
  0
ARC
  5
24DD4
  8
0
 10
4351.358349724459913
 20
590.5356741256431405
 30
0.0
 40
0.05313939803907
 50
319.5836049062173174
 51
40.4163950937826968
  0
ARC
  5
24DD5
  8
0
 10
4351.389436412786381
 20
590.3808717141138231
 30
0.0
 40
0.044512694087636
 50
349.8922263916815041
 51
63.405366927487961
  0
ARC
  5
24DD6
  8
0
 10
4351.4750522193144207
 20
590.3650479886191533
 30
0.0
 40
0.0425549575741424
 50
169.1482792547755878
 51
246.2830611049114964
  0
ARC
  5
24DD7
  8
0
 10
4351.4815692290712832
 20
590.3861792264306132
 30
0.0
 40
0.0645724826069576
 50
248.5309857758412022
 51
293.0400773623297823
  0
ARC
  5
24DD8
  8
0
 10
4351.5309985817702909
 20
590.2678138968140047
 30
0.0
 40
0.0637019316928072
 50
71.5596084783140043
 51
112.2856254929830015
  0
ARC
  5
24DD9
  8
0
 10
4351.5354439349557651
 20
590.2914151736764552
 30
0.0
 40
0.0400383519684127
 50
326.9957696404184162
 51
66.9059500048502258
  0
ARC
  5
24DDA
  8
0
 10
4351.6033774226343667
 20
590.2473181122965116
 30
0.0
 40
0.0409524503282191
 50
147.02697125537901
 51
237.2445422023357082
  0
ARC
  5
24DDB
  8
0
 10
4351.6071442122529334
 20
590.2638156822547444
 30
0.0
 40
0.0571555431981752
 50
243.0267434031923131
 51
282.3220256597305138
  0
ARC
  5
24DDC
  8
0
 10
4351.6316190324523632
 20
590.1502936196718565
 30
0.0
 40
0.058975296159491
 50
66.572159633248603
 51
102.0157259200660036
  0
ARC
  5
24DDD
  8
0
 10
4351.6417126303913392
 20
590.1759994353872116
 30
0.0
 40
0.0313901283358644
 50
359.3171111161732938
 51
64.8214885784048533
  0
ARC
  5
24DDE
  8
0
 10
4351.6185626117403444
 20
590.1793237407177912
 30
0.0
 40
0.0546631757786435
 50
315.5510238295361773
 51
356.1204937448982264
  0
ARC
  5
24DDF
  8
0
 10
4351.6967713560161428
 20
590.1018717058990433
 30
0.0
 40
0.0554081453615503
 50
135.0096963377314978
 51
176.4999511592642136
  0
ARC
  5
24DE0
  8
0
 10
4351.6716736097332614
 20
590.1047008099525328
 30
0.0
 40
0.0302121199872008
 50
178.9502002673675065
 51
231.8828282007737016
  0
ARC
  5
24DE1
  8
0
 10
4351.6806284327221874
 20
590.1193750944711383
 30
0.0
 40
0.0473274942551764
 50
234.3203221893097066
 51
268.0415640843069127
  0
ARC
  5
24DE2
  8
0
 10
4351.6772605505429965
 20
590.0221546562312369
 30
0.0
 40
0.0499512702883047
 50
59.6272612939002116
 51
87.9917195895760216
  0
ARC
  5
24DE3
  8
0
 10
4351.6881136487791082
 20
590.0412042645198198
 30
0.0
 40
0.02802984318517
 50
8.4431100524426306
 51
59.0786808253206672
  0
ARC
  5
24DE4
  8
0
 10
4351.7429051861618063
 20
590.0493772491280424
 30
0.0
 40
0.0273679171049621
 50
188.525829768112601
 51
238.6202840442327044
  0
ARC
  5
24DE5
  8
0
 10
4351.7540634062552272
 20
590.072402191363949
 30
0.0
 40
0.0528926701286623
 50
241.2893853888585056
 51
281.6170411872972181
  0
ARC
  5
24DE6
  8
0
 10
4351.7499152828113438
 20
590.1113429190794477
 30
0.0
 40
0.0919486784239236
 50
279.2620050451769771
 51
292.9484849078339721
  0
ARC
  5
24DE7
  8
0
 10
4351.81930225168162
 20
589.948675364653468
 30
0.0
 40
0.084900196996108
 50
90.7913200910549136
 51
113.2661903775463941
  0
ARC
  5
24DE8
  8
0
 10
4351.8190673793178576
 20
589.9959489724928972
 30
0.0
 40
0.0376301760153952
 50
41.1155625874070907
 51
91.4278291350894534
  0
ARC
  5
24DE9
  8
0
 10
4351.7963146251722719
 20
590.0288103223518874
 30
0.0
 40
0.0652472678094097
 50
38.4102823474955386
 51
99.3035931295055292
  0
ARC
  5
24DEA
  8
0
 10
4351.7752921227329352
 20
590.1722485956929631
 30
0.0
 40
0.079740210505079
 50
246.3289862037966884
 51
277.5478860511819903
  0
ARC
  5
24DEB
  8
0
 10
4351.7615844670090155
 20
590.1429219273417175
 30
0.0
 40
0.0473839292665999
 50
195.1145135115986875
 51
247.2723973070771137
  0
ARC
  5
24DEC
  8
0
 10
4351.6781159802567345
 20
590.1232814525402546
 30
0.0
 40
0.0384207394010016
 50
10.9303338380206707
 51
50.6002024685885416
  0
ARC
  5
24DED
  8
0
 10
4351.6614068154713095
 20
590.1022524498350776
 30
0.0
 40
0.0652778296384924
 50
50.9828237338965025
 51
74.3546841003971224
  0
ARC
  5
24DEE
  8
0
 10
4351.6989394498987167
 20
590.2351509616952399
 30
0.0
 40
0.0728192186000621
 50
248.2340056764535916
 51
254.1172499161044129
  0
LINE
  5
24DEF
  8
0
 10
4351.6731005291985639
 20
590.2607524844952422
 30
0.0
 11
4351.6731005291985639
 21
590.1756253159951484
 31
0.0
  0
ARC
  5
24DF0
  8
0
 10
4351.6407105013377077
 20
590.2599554802478679
 30
0.0
 40
0.0323998321078267
 50
1.40956243629232
 51
47.7191351249534534
  0
ARC
  5
24DF1
  8
0
 10
4351.6201739612415622
 20
590.2373709695864363
 30
0.0
 40
0.0629253886291575
 50
47.7191351249534534
 51
90.1298592194586661
  0
ARC
  5
24DF2
  8
0
 10
4351.6198738407392739
 20
590.3697882809899511
 30
0.0
 40
0.0694922628818375
 50
230.2508150931105888
 51
270.1298592194586945
  0
LINE
  5
24DF3
  8
0
 10
4351.5754385375994389
 20
590.2932863732419264
 30
0.0
 11
4351.5754385375994389
 21
590.3803635077950958
 31
0.0
  0
ARC
  5
24DF4
  8
0
 10
4351.5434958962159726
 20
590.3796564084520924
 30
0.0
 40
0.0319504667877868
 50
1.2681228176090309
 51
44.1452265083156306
  0
ARC
  5
24DF5
  8
0
 10
4351.5257764388170472
 20
590.3624579170257221
 30
0.0
 40
0.0566439330871328
 50
44.145226508320313
 51
79.0456372335666799
  0
ARC
  5
24DF6
  8
0
 10
4351.5194071278910997
 20
590.3413477334846675
 30
0.0
 40
0.0786117764260762
 50
77.4115288176904812
 51
99.6952968727564439
  0
ARC
  5
24DF7
  8
0
 10
4351.4926480101667039
 20
590.4991856290506576
 30
0.0
 40
0.0814784854052249
 50
249.2192278422116942
 51
279.5516235986028732
  0
ARC
  5
24DF8
  8
0
 10
4351.4801684868962184
 20
590.4699455259661818
 30
0.0
 40
0.0497297774768495
 50
201.3111330154964946
 51
250.7096629839462878
  0
LINE
  5
24DF9
  8
0
 10
4351.433839200399234
 20
590.4719550307952431
 30
0.0
 11
4351.433839200399234
 21
590.383997795872574
 31
0.0
  0
ARC
  5
24DFA
  8
0
 10
4351.4009967458559913
 20
590.4714791478805864
 30
0.0
 40
0.0328459021027569
 50
0.8301503326775937
 51
39.2398305880913085
  0
ARC
  5
24DFB
  8
0
 10
4351.3859892980590303
 20
590.4592219898679559
 30
0.0
 40
0.0522227287764183
 50
39.2398305880913085
 51
63.4108606243556778
  0
ARC
  5
24DFC
  8
0
 10
4351.4322210170221297
 20
590.5515883261157342
 30
0.0
 40
0.05106769628881
 50
236.7686237003391057
 51
243.4108606243557062
  0
ARC
  5
24DFD
  8
0
 10
4351.4492553475656678
 20
590.4608079605280864
 30
0.0
 40
0.064639476445531
 50
141.3016725094697108
 51
178.7649760475923983
  0
ARC
  5
24DFE
  8
0
 10
4351.4302089366356086
 20
590.4612185739746337
 30
0.0
 40
0.0455886399086357
 50
178.7649760475923983
 51
242.7903681087366863
  0
ARC
  5
24DFF
  8
0
 10
4351.0163429965614341
 20
590.4436781339476283
 30
0.0
 40
1.0420650978004831
 50
279.698446095015413
 51
303.8758546700764214
  0
ARC
  5
24E00
  8
0
 10
4351.1819275974658012
 20
590.1836881750183466
 30
0.0
 40
0.733950794093201
 50
304.4567466016752064
 51
319.5488191349551244
  0
ARC
  5
24E01
  8
0
 10
4351.3220238803323809
 20
590.0654582055076389
 30
0.0
 40
0.5506364452089823
 50
319.4524352367209872
 51
341.5565324394863751
  0
ARC
  5
24E02
  8
0
 10
4351.4110790779486706
 20
590.0329812846117647
 30
0.0
 40
0.4558883819503254
 50
341.8876364153468899
 51
18.1123635846531315
  0
LINE
  5
24E03
  8
0
 10
4351.8474674601993684
 20
590.1229565896952636
 30
0.0
 11
4351.8474173822978628
 21
590.0206938199952447
 31
0.0
  0
ARC
  5
24E04
  8
0
 10
4351.3884194066877171
 20
590.0294437088181212
 30
0.0
 40
0.4590813676993797
 50
338.4752960033296745
 51
358.9079015314969183
  0
ARC
  5
24E05
  8
0
 10
4351.2642396525016011
 20
590.0903395886232374
 30
0.0
 40
0.597046552972508
 50
312.7704424070201981
 51
337.4112551759100143
  0
ARC
  5
24E06
  8
0
 10
4351.0928032422398246
 20
590.2831105042082527
 30
0.0
 40
0.8549868975605714
 50
292.1439263528779975
 51
312.4316562834422939
  0
ARC
  5
24E07
  8
0
 10
4351.4054475340926729
 20
590.122899222178944
 30
0.0
 40
0.4420199298286271
 50
0.0074361275416662
 51
6.7042358775254538
  0
ARC
  5
24E08
  8
0
 10
4351.4020295601985708
 20
590.1233327958950667
 30
0.0
 40
0.4650444675000001
 50
342.2863638953646159
 51
354.3305481907624994
  0
ARC
  5
24E09
  8
0
 10
4351.3895257233616576
 20
590.0732642399450469
 30
0.0
 40
0.4579445637878409
 50
0.5966062246891586
 51
24.084537003193379
  0
ARC
  5
24E0A
  8
0
 10
4351.7807847325293551
 20
590.1131099087010625
 30
0.0
 40
0.0470721955728475
 50
65.8651823432138031
 51
114.0244085666150937
  0
ARC
  5
24E0B
  8
0
 10
4351.773926170397317
 20
590.1284968469076375
 30
0.0
 40
0.0302258980005999
 50
114.0244085666150937
 51
148.6712374401465979
  0
ARC
  5
24E0C
  8
0
 10
4351.7639622331307692
 20
590.1353193621534956
 30
0.0
 40
0.0181788894247761
 50
150.7110222801480006
 51
215.4795388615561933
  0
ARC
  5
24E0D
  8
0
 10
4351.7738217422256639
 20
590.1425574021039893
 30
0.0
 40
0.0304092432375523
 50
215.8027149849324928
 51
243.3195096253174086
  0
ARC
  5
24E0E
  8
0
 10
4351.7806211515671748
 20
590.1565607313459623
 30
0.0
 40
0.0459750839069069
 50
243.5840414975272097
 51
303.2121564645989906
  0
ARC
  5
24E0F
  8
0
 10
4351.7897941224382521
 20
590.1310994958596439
 30
0.0
 40
0.0269852518177391
 50
23.6499812471427511
 51
67.7045680772176155
  0
ARC
  5
24E10
  8
0
 10
4351.7992845566286633
 20
590.1352556274326844
 30
0.0
 40
0.016624664441625
 50
328.8536936046074857
 51
23.6499812471427511
  0
ARC
  5
24E11
  8
0
 10
4351.787337516041589
 20
590.142475718723631
 30
0.0
 40
0.030583944402792
 50
307.1413103866000256
 51
328.8536936046074857
  0
ARC
  5
24E12
  8
0
 10
4351.7086928108674329
 20
590.1838880989607787
 30
0.0
 40
0.0470721955728475
 50
65.8651823432138031
 51
114.0244085666150937
  0
ARC
  5
24E13
  8
0
 10
4351.7018342487353948
 20
590.1992750371673537
 30
0.0
 40
0.0302258980005999
 50
114.0244085666150937
 51
148.6712374401465979
  0
ARC
  5
24E14
  8
0
 10
4351.6918703114688469
 20
590.2060975524132118
 30
0.0
 40
0.0181788894247761
 50
150.7110222801480006
 51
215.4795388615561933
  0
ARC
  5
24E15
  8
0
 10
4351.7017298205637417
 20
590.2133355923638192
 30
0.0
 40
0.0304092432375523
 50
215.8027149849324928
 51
243.3195096253174086
  0
ARC
  5
24E16
  8
0
 10
4351.7085292299052526
 20
590.2273389216056785
 30
0.0
 40
0.0459750839069069
 50
243.5840414975272097
 51
303.2121564645989906
  0
ARC
  5
24E17
  8
0
 10
4351.7177022007772393
 20
590.2018776861193601
 30
0.0
 40
0.0269852518177391
 50
23.6499812471427511
 51
67.7045680772176155
  0
ARC
  5
24E18
  8
0
 10
4351.727192634966741
 20
590.2060338176924006
 30
0.0
 40
0.016624664441625
 50
328.8536936046074857
 51
23.6499812471427511
  0
ARC
  5
24E19
  8
0
 10
4351.7152455943796667
 20
590.2132539089833472
 30
0.0
 40
0.030583944402792
 50
307.1413103866000256
 51
328.8536936046074857
  0
ARC
  5
24E1A
  8
0
 10
4351.725378901566728
 20
590.2698573005981189
 30
0.0
 40
0.0470721955728475
 50
65.8651823432138031
 51
114.0244085666150937
  0
ARC
  5
24E1B
  8
0
 10
4351.71852033943469
 20
590.2852442388044665
 30
0.0
 40
0.0302258980005999
 50
114.0244085666150937
 51
148.6712374401465979
  0
ARC
  5
24E1C
  8
0
 10
4351.7085564021699611
 20
590.2920667540504382
 30
0.0
 40
0.0181788894247761
 50
150.7110222801480006
 51
215.4795388615561933
  0
ARC
  5
24E1D
  8
0
 10
4351.7184159112648558
 20
590.2993047940010456
 30
0.0
 40
0.0304092432375523
 50
215.8027149849324928
 51
243.3195096253174086
  0
ARC
  5
24E1E
  8
0
 10
4351.7252153206045477
 20
590.3133081232430186
 30
0.0
 40
0.0459750839069069
 50
243.5840414975272097
 51
303.2121564645989906
  0
ARC
  5
24E1F
  8
0
 10
4351.734388291475625
 20
590.2878468877565865
 30
0.0
 40
0.0269852518177391
 50
23.6499812471427511
 51
67.7045680772176155
  0
ARC
  5
24E20
  8
0
 10
4351.7438787256678552
 20
590.292003019329627
 30
0.0
 40
0.016624664441625
 50
328.8536936046074857
 51
23.6499812471427511
  0
ARC
  5
24E21
  8
0
 10
4351.7319316850807809
 20
590.2992231106204599
 30
0.0
 40
0.030583944402792
 50
307.1413103866000256
 51
328.8536936046074857
  0
ARC
  5
24E22
  8
0
 10
4351.628750086942091
 20
590.3229713823047859
 30
0.0
 40
0.0470721955728475
 50
65.8651823432138031
 51
114.0244085666150937
  0
ARC
  5
24E23
  8
0
 10
4351.6218915248100529
 20
590.3383583205112473
 30
0.0
 40
0.0302258980005999
 50
114.0244085666150937
 51
148.6712374401465979
  0
ARC
  5
24E24
  8
0
 10
4351.6119275875444146
 20
590.3451808357571053
 30
0.0
 40
0.0181788894247761
 50
150.7110222801480006
 51
215.4795388615561933
  0
ARC
  5
24E25
  8
0
 10
4351.6217870966393093
 20
590.3524188757074853
 30
0.0
 40
0.0304092432375523
 50
215.8027149849324928
 51
243.3195096253174086
  0
ARC
  5
24E26
  8
0
 10
4351.6285865059799107
 20
590.3664222049496857
 30
0.0
 40
0.0459750839069069
 50
243.5840414975272097
 51
303.2121564645989906
  0
ARC
  5
24E27
  8
0
 10
4351.6377594768518975
 20
590.3409609694632536
 30
0.0
 40
0.0269852518177391
 50
23.6499812471427511
 51
67.7045680772176155
  0
ARC
  5
24E28
  8
0
 10
4351.6472499110413992
 20
590.3451171010361804
 30
0.0
 40
0.016624664441625
 50
328.8536936046074857
 51
23.6499812471427511
  0
ARC
  5
24E29
  8
0
 10
4351.6353028704543249
 20
590.3523371923272407
 30
0.0
 40
0.030583944402792
 50
307.1413103866000256
 51
328.8536936046074857
  0
ARC
  5
24E2A
  8
0
 10
4351.6116259018699566
 20
590.4089271268245511
 30
0.0
 40
0.0470721955728475
 50
65.8651823432138031
 51
114.0244085666150937
  0
ARC
  5
24E2B
  8
0
 10
4351.60476733973519
 20
590.4243140650311261
 30
0.0
 40
0.0302258980005999
 50
114.0244085666150937
 51
148.6712374401465979
  0
ARC
  5
24E2C
  8
0
 10
4351.5948034024695517
 20
590.4311365802767568
 30
0.0
 40
0.0181788894247761
 50
150.7110222801480006
 51
215.4795388615561933
  0
ARC
  5
24E2D
  8
0
 10
4351.6046629115662654
 20
590.4383746202274779
 30
0.0
 40
0.0304092432375523
 50
215.8027149849324928
 51
243.3195096253174086
  0
ARC
  5
24E2E
  8
0
 10
4351.6114623209068668
 20
590.4523779494694509
 30
0.0
 40
0.0459750839069069
 50
243.5840414975272097
 51
303.2121564645989906
  0
ARC
  5
24E2F
  8
0
 10
4351.6206352917770346
 20
590.4269167139830188
 30
0.0
 40
0.0269852518177391
 50
23.6499812471427511
 51
67.7045680772176155
  0
ARC
  5
24E30
  8
0
 10
4351.6301257259683553
 20
590.4310728455559456
 30
0.0
 40
0.016624664441625
 50
328.8536936046074857
 51
23.6499812471427511
  0
ARC
  5
24E31
  8
0
 10
4351.618178685381281
 20
590.4382929368470059
 30
0.0
 40
0.030583944402792
 50
307.1413103866000256
 51
328.8536936046074857
  0
ARC
  5
24E32
  8
0
 10
4351.4978849665358211
 20
590.4418630635351519
 30
0.0
 40
0.0470721955728475
 50
65.8651823432138031
 51
114.0244085666150937
  0
ARC
  5
24E33
  8
0
 10
4351.4910264044046926
 20
590.4572500017417269
 30
0.0
 40
0.0302258980005999
 50
114.0244085666150937
 51
148.6712374401465979
  0
ARC
  5
24E34
  8
0
 10
4351.4810624671381447
 20
590.4640725169874713
 30
0.0
 40
0.0181788894247761
 50
150.7110222801480006
 51
215.4795388615561933
  0
ARC
  5
24E35
  8
0
 10
4351.490921976233949
 20
590.471310556937965
 30
0.0
 40
0.0304092432375523
 50
215.8027149849324928
 51
243.3195096253174086
  0
ARC
  5
24E36
  8
0
 10
4351.4977213855736409
 20
590.4853138861800517
 30
0.0
 40
0.0459750839069069
 50
243.5840414975272097
 51
303.2121564645989906
  0
ARC
  5
24E37
  8
0
 10
4351.5068943564456276
 20
590.4598526506937333
 30
0.0
 40
0.0269852518177391
 50
23.6499812471427511
 51
67.7045680772176155
  0
ARC
  5
24E38
  8
0
 10
4351.5163847906351293
 20
590.4640087822666601
 30
0.0
 40
0.016624664441625
 50
328.8536936046074857
 51
23.6499812471427511
  0
ARC
  5
24E39
  8
0
 10
4351.504437750048055
 20
590.4712288735577204
 30
0.0
 40
0.030583944402792
 50
307.1413103866000256
 51
328.8536936046074857
  0
ARC
  5
24E3A
  8
0
 10
4351.447676171726016
 20
590.5209719008170168
 30
0.0
 40
0.0470721955728475
 50
80.8302054571263255
 51
114.0244085666150937
  0
ARC
  5
24E3B
  8
0
 10
4351.4408176095948875
 20
590.5363588390235918
 30
0.0
 40
0.0302258980005999
 50
114.0244085666150937
 51
148.6712374401465979
  0
ARC
  5
24E3C
  8
0
 10
4351.4308536723283396
 20
590.5431813542693362
 30
0.0
 40
0.0181788894247761
 50
150.7110222801480006
 51
215.4795388615561933
  0
ARC
  5
24E3D
  8
0
 10
4351.4407131814241438
 20
590.5504193942199436
 30
0.0
 40
0.0304092432375523
 50
215.8027149849324928
 51
243.3195096253174086
  0
ARC
  5
24E3E
  8
0
 10
4351.4475125907647453
 20
590.5644227234619166
 30
0.0
 40
0.0459750839069069
 50
243.5840414975272097
 51
303.2121564645989906
  0
ARC
  5
24E3F
  8
0
 10
4351.456685561634913
 20
590.5389614879753708
 30
0.0
 40
0.0269852518177391
 50
23.6499812471427511
 51
42.5772116175533597
  0
ARC
  5
24E40
  8
0
 10
4351.4661759958271432
 20
590.5431176195484113
 30
0.0
 40
0.016624664441625
 50
328.8536936046074857
 51
23.6499812471427511
  0
ARC
  5
24E41
  8
0
 10
4351.4542289552400689
 20
590.5503377108393579
 30
0.0
 40
0.030583944402792
 50
307.1413103866000256
 51
328.8536936046074857
  0
ARC
  5
24E42
  8
0
 10
4350.9952153792610261
 20
589.6334639171469689
 30
0.0
 40
0.7891703587896374
 50
59.7432447458178189
 51
80.1005085659428602
  0
ARC
  5
24E43
  8
0
 10
4351.1184135146068002
 20
589.8459530424961486
 30
0.0
 40
0.5435511601377769
 50
35.3194440027824115
 51
59.6744617779004187
  0
ARC
  5
24E44
  8
0
 10
4351.2803341698891018
 20
589.9589079288884932
 30
0.0
 40
0.3461332903096652
 50
324.4409734465010047
 51
35.5590265534990166
  0
ARC
  5
24E45
  8
0
 10
4351.1211180258069362
 20
590.0689111927960084
 30
0.0
 40
0.5396386636486298
 50
300.235900865791109
 51
324.7702499635241224
  0
ARC
  5
24E46
  8
0
 10
4350.9955725316676762
 20
590.2849057303463951
 30
0.0
 40
0.7894691055699247
 50
282.3755001683512091
 51
300.2141069683898991
  0
ARC
  5
24E47
  8
0
 10
4351.2897758284780139
 20
589.9673924482356142
 30
0.0
 40
0.3416916317214383
 50
331.5720394525704933
 51
26.8352976809913386
  0
ARC
  5
24E48
  8
0
 10
4351.1856806238019999
 20
589.9147296593323517
 30
0.0
 40
0.4583500260678081
 50
26.8352976809913386
 51
49.673623345577397
  0
ARC
  5
24E49
  8
0
 10
4351.0518916625242127
 20
589.7571182795476261
 30
0.0
 40
0.665088588502718
 50
49.673623345577397
 51
68.0711756737193383
  0
ARC
  5
24E4A
  8
0
 10
4350.9803132949637074
 20
589.5852425291152485
 30
0.0
 40
0.8512630071747951
 50
67.9223069831792543
 51
82.0960836363787081
  0
LINE
  5
24E4B
  8
0
 10
4351.6264674601980005
 20
590.0256326089292997
 30
0.0
 11
4351.6264674601980005
 21
589.9589079288884932
 31
0.0
  0
ARC
  5
24E4C
  8
0
 10
4350.9741083572080242
 20
590.2260945095946454
 30
0.0
 40
0.094482434355631
 50
24.3771295050517693
 51
69.5504625823812432
  0
ARC
  5
24E4D
  8
0
 10
4350.9887376344786389
 20
590.234436825010448
 30
0.0
 40
0.0777298302029422
 50
331.3149605634221757
 51
23.2267965568163213
  0
ARC
  5
24E4E
  8
0
 10
4350.9736890487956771
 20
590.2438902470961466
 30
0.0
 40
0.0954751118141064
 50
289.5450068884283041
 51
330.6728388114672725
  0
ARC
  5
24E4F
  8
0
 10
4350.9840153612149152
 20
590.2718833699991592
 30
0.0
 40
0.0826406494874802
 50
323.4174130587209106
 51
346.4183665400046266
  0
ARC
  5
24E50
  8
0
 10
4350.972100998091264
 20
590.2817598844553686
 30
0.0
 40
0.0980975926106015
 50
291.1047597138684182
 51
322.9325741962128973
  0
ARC
  5
24E51
  8
0
 10
4351.2976247135602534
 20
590.1124889581360549
 30
0.0
 40
0.1126163345857566
 50
67.2156961085953668
 51
112.7843038914046048
  0
ARC
  5
24E52
  8
0
 10
4351.2976187558379024
 20
590.1020424300967306
 30
0.0
 40
0.1223125099597756
 50
110.8862940467247
 51
133.1584039614475046
  0
ARC
  5
24E53
  8
0
 10
4351.279887350716308
 20
590.1205578476844948
 30
0.0
 40
0.0966779341404944
 50
132.9986422710591114
 51
163.8428498368932082
  0
ARC
  5
24E54
  8
0
 10
4351.2523004812455838
 20
590.1297373764506347
 30
0.0
 40
0.0676358880759886
 50
164.8088502747278028
 51
203.9421041566681083
  0
ARC
  5
24E55
  8
0
 10
4351.3112631729663917
 20
590.1467238836106617
 30
0.0
 40
0.0757741983724523
 50
34.4228483955927871
 51
66.6987321246862734
  0
ARC
  5
24E56
  8
0
 10
4351.3173946609686027
 20
590.1525334617444969
 30
0.0
 40
0.0674453143700748
 50
335.4344171068265155
 51
33.296195015219439
  0
ARC
  5
24E57
  8
0
 10
4351.279668500787011
 20
590.169311937366956
 30
0.0
 40
0.1087329486773237
 50
295.3387798037704215
 51
335.6579876098936097
  0
ARC
  5
24E58
  8
0
 10
4351.2692902072303696
 20
590.1857895134035061
 30
0.0
 40
0.1280880191682705
 50
281.169763759087175
 51
296.3801554213408735
  0
ARC
  5
24E59
  8
0
 10
4351.2709760949974225
 20
590.1681063885241656
 30
0.0
 40
0.1104274832886875
 50
249.1113415631486134
 51
282.0889862935596284
  0
ARC
  5
24E5A
  8
0
 10
4351.2584509204771166
 20
590.1357997069354724
 30
0.0
 40
0.0757784873807322
 50
206.2448635096633041
 51
249.2496405446374865
  0
ARC
  5
24E5B
  8
0
 10
4351.2523004812455838
 20
590.166028234249552
 30
0.0
 40
0.0676358880759886
 50
195.5731305162676961
 51
203.9421041566681083
  0
ARC
  5
24E5C
  8
0
 10
4351.3173946609686027
 20
590.1888243195434143
 30
0.0
 40
0.0674453143700748
 50
335.4344171068265155
 51
344.3929023287187192
  0
ARC
  5
24E5D
  8
0
 10
4351.279668500787011
 20
590.2056027951658734
 30
0.0
 40
0.1087329486773237
 50
295.3387798037704215
 51
335.6579876098936097
  0
ARC
  5
24E5E
  8
0
 10
4351.2692902072303696
 20
590.2220803712024235
 30
0.0
 40
0.1280880191682705
 50
281.169763759087175
 51
296.3801554213408735
  0
ARC
  5
24E5F
  8
0
 10
4351.2709760949974225
 20
590.204397246323083
 30
0.0
 40
0.1104274832886875
 50
249.1113415631486134
 51
282.0889862935596284
  0
ARC
  5
24E60
  8
0
 10
4351.2584509204771166
 20
590.1720905647343898
 30
0.0
 40
0.0757784873807322
 50
206.2448635096633041
 51
249.2496405446374865
  0
ARC
  5
24E61
  8
0
 10
4351.4378859460775857
 20
589.8547114584989686
 30
0.0
 40
0.133987393592515
 50
73.2451465816892409
 51
106.7548534183107023
  0
ARC
  5
24E62
  8
0
 10
4351.4441808424007831
 20
589.8338022261583546
 30
0.0
 40
0.1558236413651187
 50
106.7548534183107023
 51
126.5236014313291975
  0
ARC
  5
24E63
  8
0
 10
4351.4081439207648145
 20
589.8824613985600536
 30
0.0
 40
0.0952730445073863
 50
126.5236014313291975
 51
158.2109056366709865
  0
ARC
  5
24E64
  8
0
 10
4351.3673142929537789
 20
589.9000359862766345
 30
0.0
 40
0.0508502083090198
 50
159.521891462244696
 51
201.3843191444300089
  0
ARC
  5
24E65
  8
0
 10
4351.3751159578723673
 20
589.9079545329393568
 30
0.0
 40
0.0611699225747777
 50
205.6301211461629066
 51
248.7510724911199134
  0
ARC
  5
24E66
  8
0
 10
4351.3944370094941405
 20
589.9629413918095224
 30
0.0
 40
0.1194362751947734
 50
249.6725873483406133
 51
280.6292776523014822
  0
ARC
  5
24E67
  8
0
 10
4351.3962847476759634
 20
589.9787552490613507
 30
0.0
 40
0.1347211276519073
 50
278.6159763333009778
 51
326.2315441516016108
  0
ARC
  5
24E68
  8
0
 10
4351.4623300105540693
 20
589.9319665054499637
 30
0.0
 40
0.0538556826725367
 50
328.5562985545478227
 51
29.7656376972761194
  0
ARC
  5
24E69
  8
0
 10
4351.4558822980879995
 20
589.9213976825761847
 30
0.0
 40
0.0649747980215737
 50
35.0405389100979789
 51
71.488490675014333
  0
ARC
  5
24E6A
  8
0
 10
4351.3751159578723673
 20
589.943788836426279
 30
0.0
 40
0.0611699225747777
 50
205.0535491555189935
 51
248.7510724911199134
  0
ARC
  5
24E6B
  8
0
 10
4351.3944370094941405
 20
589.9987756952964446
 30
0.0
 40
0.1194362751947734
 50
249.6725873483406133
 51
280.6292776523014822
  0
ARC
  5
24E6C
  8
0
 10
4351.3962847476759634
 20
590.0145895525481592
 30
0.0
 40
0.1347211276519073
 50
278.6159763333009778
 51
326.2315441516016108
  0
ARC
  5
24E6D
  8
0
 10
4351.4623300105540693
 20
589.9678008089368859
 30
0.0
 40
0.0538556826725367
 50
328.5562985545478227
 51
340.5679784293944863
  0
ARC
  5
24E6E
  8
0
 10
4351.3027875425468665
 20
589.592974057025117
 30
0.0
 40
0.1582038318695496
 50
75.4871152830652505
 51
104.5128847169347068
  0
ARC
  5
24E6F
  8
0
 10
4351.3046132030740409
 20
589.5859212948387267
 30
0.0
 40
0.1654890560129132
 50
104.5128847169347068
 51
123.7785888231090041
  0
ARC
  5
24E70
  8
0
 10
4351.2519999424512207
 20
589.6645776140856015
 30
0.0
 40
0.070858343499712
 50
123.7785888231090041
 51
152.0146771726008126
  0
ARC
  5
24E71
  8
0
 10
4351.2227951917520841
 20
589.6800964604974524
 30
0.0
 40
0.0377864210069182
 50
152.0146771726008126
 51
219.3674524802640917
  0
ARC
  5
24E72
  8
0
 10
4351.2468885528296596
 20
589.707796783923186
 30
0.0
 40
0.0742366811557276
 50
224.1060949804306972
 51
257.6538226485582186
  0
ARC
  5
24E73
  8
0
 10
4351.2659062177863234
 20
589.7963685897605046
 30
0.0
 40
0.1648268455133522
 50
257.7790921066469991
 51
285.9843520749508912
  0
ARC
  5
24E74
  8
0
 10
4351.2782842146652911
 20
589.7634108337256293
 30
0.0
 40
0.129765473888364
 50
284.7375006538046023
 51
317.9420571462591738
  0
ARC
  5
24E75
  8
0
 10
4351.3425410644886142
 20
589.7021842187874654
 30
0.0
 40
0.0411131881226331
 50
321.3085787671579965
 51
36.1727736894510912
  0
ARC
  5
24E76
  8
0
 10
4351.3234848224356028
 20
589.6760641238911376
 30
0.0
 40
0.0725826177320069
 50
43.9625757849989967
 51
74.8671784784077943
  0
ARC
  5
24E77
  8
0
 10
4351.2227951917520841
 20
589.7157330801649096
 30
0.0
 40
0.0377864210069182
 50
208.1350589656626937
 51
219.3674524802640917
  0
ARC
  5
24E78
  8
0
 10
4351.2468885528296596
 20
589.7434334035906431
 30
0.0
 40
0.0742366811557276
 50
224.1060949804306972
 51
257.6538226485582186
  0
ARC
  5
24E79
  8
0
 10
4351.2659062177863234
 20
589.8320052094279617
 30
0.0
 40
0.1648268455133522
 50
257.7790921066469991
 51
285.9843520749508912
  0
ARC
  5
24E7A
  8
0
 10
4351.2782842146652911
 20
589.7990474533932002
 30
0.0
 40
0.129765473888364
 50
284.7375006538046023
 51
317.9420571462591738
  0
ARC
  5
24E7B
  8
0
 10
4351.3425410644886142
 20
589.7378208384551499
 30
0.0
 40
0.0411131881226331
 50
321.3085787671579965
 51
334.3166985994220113
  0
ARC
  5
24E7C
  8
0
 10
4350.979881148043205
 20
589.5304929665069267
 30
0.0
 40
0.1200816595785179
 50
56.8788742842610731
 51
81.2509443081549421
  0
ARC
  5
24E7D
  8
0
 10
4351.011710620085978
 20
589.5818427004734303
 30
0.0
 40
0.059699826571432
 50
33.0530254254921232
 51
55.5348245269089134
  0
ARC
  5
24E7E
  8
0
 10
4351.0353199146211409
 20
589.5980752266915488
 30
0.0
 40
0.0310663993029979
 50
328.1564360324996983
 51
31.7089756681137693
  0
ARC
  5
24E7F
  8
0
 10
4351.0138292048141011
 20
589.6114226637965885
 30
0.0
 40
0.0563647131856334
 50
294.921152487754398
 51
328.1564360324996983
  0
ARC
  5
24E80
  8
0
 10
4350.9725078442243102
 20
589.6893621052555545
 30
0.0
 40
0.1445329634962352
 50
276.7835904117077916
 51
296.7578732577701999
  0
ARC
  5
24E81
  8
0
 10
4351.0138292048141011
 20
589.647886118385145
 30
0.0
 40
0.0563647131856334
 50
294.921152487754398
 51
325.8734510645155069
  0
ARC
  5
24E82
  8
0
 10
4350.9725078442243102
 20
589.7258255598442247
 30
0.0
 40
0.1445329634962352
 50
276.7835904117077916
 51
296.7578732577701999
  0
ARC
  5
24E83
  8
0
 10
4350.9729618792844121
 20
589.8152175257124554
 30
0.0
 40
0.1597566952419819
 50
59.6499917547400571
 51
79.6464865088289429
  0
ARC
  5
24E84
  8
0
 10
4350.9972465941627888
 20
589.8566926898917018
 30
0.0
 40
0.1116948952292725
 50
36.5112524630784421
 51
59.6499917547400571
  0
ARC
  5
24E85
  8
0
 10
4351.029020636147834
 20
589.8802139025108318
 30
0.0
 40
0.0721621595896682
 50
324.220049488813288
 51
36.5112524630784421
  0
ARC
  5
24E86
  8
0
 10
4350.9969853330303522
 20
589.9033014549326026
 30
0.0
 40
0.1116500782823006
 50
294.2534399917793166
 51
324.220049488813288
  0
ARC
  5
24E87
  8
0
 10
4350.9698776579298283
 20
589.954940654781808
 30
0.0
 40
0.169902701275237
 50
277.7709608064948839
 51
295.4348505069210091
  0
ARC
  5
24E88
  8
0
 10
4351.029020636147834
 20
589.9150823553504779
 30
0.0
 40
0.0721621595896682
 50
324.220049488813288
 51
346.0191309164915197
  0
ARC
  5
24E89
  8
0
 10
4350.9969853330303522
 20
589.9381699077722487
 30
0.0
 40
0.1116500782823006
 50
294.2534399917793166
 51
324.220049488813288
  0
ARC
  5
24E8A
  8
0
 10
4350.9698776579298283
 20
589.9898091076216815
 30
0.0
 40
0.169902701275237
 50
277.7709608064948839
 51
295.4348505069210091
  0
ARC
  5
24E8B
  8
0
 10
4350.9901539626853264
 20
590.017433735782447
 30
0.0
 40
0.1351765185331033
 50
292.3666484911362886
 51
315.7737474220911054
  0
ARC
  5
24E8C
  8
0
 10
4350.9869094849682369
 20
590.0337225392919436
 30
0.0
 40
0.141685076995083
 50
292.0263821541204265
 51
312.3537342410098177
  0
ARC
  5
24E8D
  8
0
 10
4350.9733714941876315
 20
590.103832687913723
 30
0.0
 40
0.1724207103950866
 50
281.7989162447880744
 51
298.3686354088113717
  0
ARC
  5
24E8E
  8
0
 10
4350.9709732149649426
 20
590.1219438548704375
 30
0.0
 40
0.1802714878407337
 50
280.2830394475597018
 51
294.3315806209847096
  0
ARC
  5
24E8F
  8
0
 10
4351.3886572799938222
 20
589.5913429837825106
 30
0.0
 40
0.1035815450639798
 50
260.998605619087698
 51
284.7774258202181272
  0
ARC
  5
24E90
  8
0
 10
4351.3786034573349752
 20
589.5278756424806943
 30
0.0
 40
0.0393228276633763
 50
230.6531937191768975
 51
260.998605619087698
  0
ARC
  5
24E91
  8
0
 10
4351.3246645440040083
 20
589.4620848968532982
 30
0.0
 40
0.0457526011126463
 50
50.6531937191768833
 51
83.0054428951701055
  0
ARC
  5
24E92
  8
0
 10
4351.3117461070769423
 20
589.3790247210829421
 30
0.0
 40
0.1297960082054615
 50
81.8101255315598763
 51
107.3945808181837975
  0
ARC
  5
24E93
  8
0
 10
4351.238028791657598
 20
589.6118098804136025
 30
0.0
 40
0.1143838837079425
 50
256.960022129824722
 51
287.7727047048633153
  0
ARC
  5
24E94
  8
0
 10
4351.1839112538391419
 20
589.3809526226719981
 30
0.0
 40
0.1227324492461405
 50
76.6642904129094944
 51
100.2096108282303959
  0
ARC
  5
24E95
  8
0
 10
4351.1755457317221953
 20
589.4104162126340043
 30
0.0
 40
0.0923017144939506
 50
98.3404378610084677
 51
120.754778231748702
  0
ARC
  5
24E96
  8
0
 10
4351.1467006616494473
 20
589.4588912157971663
 30
0.0
 40
0.035893700886121
 50
120.754778231748702
 51
148.698881543943088
  0
ARC
  5
24E97
  8
0
 10
4350.9787698736436141
 20
589.4074294226966231
 30
0.0
 40
0.0732167275997962
 50
58.7180116726897197
 51
77.6650896549051879
  0
ARC
  5
24E98
  8
0
 10
4350.9793654540271746
 20
590.6077708560055726
 30
0.0
 40
1.154864822879655
 50
278.5217064955691058
 51
287.6871647536465275
  0
ARC
  5
24E99
  8
0
 10
4351.085054923854841
 20
589.5069921707521416
 30
0.0
 40
0.0427435491649914
 50
289.96367280618
 51
316.4442123597713135
  0
ARC
  5
24E9A
  8
0
 10
4351.0602736024829937
 20
589.5716166405476315
 30
0.0
 40
0.1119523663524451
 50
255.1073157699410956
 51
290.5920733899491779
  0
ARC
  5
24E9B
  8
0
 10
4351.0427753319600015
 20
589.5083910618916434
 30
0.0
 40
0.0463580957205256
 50
235.9037589781675877
 51
255.9241957995187136
  0
ARC
  5
24E9C
  8
0
 10
4351.6106875840250723
 20
590.220450365163515
 30
0.0
 40
0.6817798759691166
 50
332.8503162779675222
 51
27.1496837220324991
  0
ARC
  5
24E9D
  8
0
 10
4351.6346648588769312
 20
590.2516456121418287
 30
0.0
 40
0.6648155910979755
 50
346.4745817630339957
 51
26.6618632005359188
  0
ARC
  5
24E9E
  8
0
 10
4351.6293686031303878
 20
590.2857499638274703
 30
0.0
 40
0.6697286662416082
 50
351.4079200805227856
 51
359.1790744870392018
  0
ARC
  5
24E9F
  8
0
 10
4351.630133139586178
 20
590.2516582084031143
 30
0.0
 40
0.6643341402155939
 50
355.0097545291258143
 51
359.9991284649997283
  0
LINE
  5
24EA0
  8
0
 10
4352.2944672797248131
 20
590.251648103113439
 30
0.0
 11
4352.2944672797248131
 21
590.3331350937355637
 31
0.0
  0
ARC
  5
24EA1
  8
0
 10
4351.6289273906231756
 20
590.2516049957481528
 30
0.0
 40
0.6655398904968988
 50
0.0037110774614071
 51
5.3004158522458393
  0
ARC
  5
24EA2
  8
0
 10
4351.5949095514006331
 20
590.2467165065941117
 30
0.0
 40
0.6998659844111303
 50
5.441643773319063
 51
25.5647064851067114
  0
ARC
  5
24EA3
  8
0
 10
4351.3803694393209298
 20
590.1216270523500498
 30
0.0
 40
0.9475988326109193
 50
26.7899542257073087
 51
44.2923528128685788
  0
ARC
  5
24EA4
  8
0
 10
4351.4589288049128299
 20
590.1674399953869852
 30
0.0
 40
0.8596583384415998
 50
26.4215927896232188
 51
45.7632881718627402
  0
ARC
  5
24EA5
  8
0
 10
4351.1900181263554259
 20
589.887613536399499
 30
0.0
 40
1.247745086121026
 50
45.8803363354490514
 51
64.0676662837800279
  0
ARC
  5
24EA6
  8
0
 10
4351.0096566254487698
 20
589.5121604830944761
 30
0.0
 40
1.664269158810231
 50
64.1361082101604438
 51
80.8477734202452041
  0
ARC
  5
24EA7
  8
0
 10
4351.331978892267216
 20
590.0588044577852997
 30
0.0
 40
1.0036796669561461
 50
28.1005428290583588
 51
55.3995848184611006
  0
ARC
  5
24EA8
  8
0
 10
4351.0838716440921417
 20
589.6991581026512677
 30
0.0
 40
1.440603810668309
 50
55.3995848184611006
 51
68.1907627947515635
  0
ARC
  5
24EA9
  8
0
 10
4350.9848739476674382
 20
589.4229742985407938
 30
0.0
 40
1.733832384686961
 50
68.5441923166422242
 51
82.6575366641375666
  0
ARC
  5
24EAA
  8
0
 10
4351.419925678904292
 20
590.3149490347593655
 30
0.0
 40
0.8946493672895346
 50
313.6087911980905005
 51
333.039964676474824
  0
ARC
  5
24EAB
  8
0
 10
4351.157199810201746
 20
590.6028873634232923
 30
0.0
 40
1.2843730835672911
 50
306.8347370699008252
 51
313.2354476620653827
  0
ARC
  5
24EAC
  8
0
 10
4351.157199810201746
 20
590.6028873634232923
 30
0.0
 40
1.2843730835672911
 50
296.7605759583804002
 51
302.0537274051281997
  0
ARC
  5
24EAD
  8
0
 10
4351.157199810201746
 20
590.6028873634232923
 30
0.0
 40
1.2843730835672911
 50
291.7598306565228086
 51
292.6406444987442228
  0
ARC
  5
24EAE
  8
0
 10
4350.9948108493435939
 20
590.979772243640582
 30
0.0
 40
1.694640065257677
 50
291.4711695846120847
 51
292.1351424746919747
  0
ARC
  5
24EAF
  8
0
 10
4350.9948108493435939
 20
590.979772243640582
 30
0.0
 40
1.694640065257677
 50
283.9328109497046171
 51
286.4934509523436077
  0
ARC
  5
24EB0
  8
0
 10
4350.9948108493435939
 20
590.979772243640582
 30
0.0
 40
1.694640065257677
 50
277.9910389400884014
 51
280.337887906844287
  0
ARC
  5
24EB1
  8
0
 10
4351.5803487802686504
 20
590.0778914153906953
 30
0.0
 40
0.9305569749436102
 50
16.0793782003716395
 51
43.7440082087492499
  0
ARC
  5
24EB2
  8
0
 10
4351.2257486960297683
 20
589.7385067416465745
 30
0.0
 40
1.421396232251662
 50
43.7440082087492499
 51
59.1192101603502707
  0
ARC
  5
24EB3
  8
0
 10
4351.0598205622027308
 20
589.4267084982271854
 30
0.0
 40
1.774243786227272
 50
59.688413282176441
 51
74.4886835255187663
  0
ARC
  5
24EB4
  8
0
 10
4350.9754922015481498
 20
589.1324656289989434
 30
0.0
 40
2.080323047898291
 50
74.4179579881982249
 51
85.1433246954877205
  0
ARC
  5
24EB5
  8
0
 10
4351.5803487802686504
 20
590.1753097654907378
 30
0.0
 40
0.9305569749436102
 50
316.2559917912507217
 51
343.9206217996284067
  0
ARC
  5
24EB6
  8
0
 10
4351.2257486960297683
 20
590.5146944392348587
 30
0.0
 40
1.421396232251662
 50
300.8807898396498217
 51
316.2559917912507217
  0
ARC
  5
24EB7
  8
0
 10
4351.0598205622027308
 20
590.8264926826541341
 30
0.0
 40
1.774243786227272
 50
285.5113164744811911
 51
300.3115867178236158
  0
ARC
  5
24EB8
  8
0
 10
4350.9754922015481498
 20
591.1207355518824897
 30
0.0
 40
2.080323047898291
 50
274.8566753045122937
 51
285.5820420118017751
  0
ARC
  5
24EB9
  8
0
 10
4351.7276611189627147
 20
590.1266005904407166
 30
0.0
 40
0.7755399640364641
 50
344.3640965036311741
 51
15.6359034963688401
  0
ARC
  5
24EBA
  8
0
 10
4351.8559901807811912
 20
590.2455322631261652
 30
0.0
 40
0.9389771109216301
 50
342.8130913024244819
 51
17.186908697575479
  0
ARC
  5
24EBB
  8
0
 10
4351.6859685592207825
 20
590.1810376356838788
 30
0.0
 40
1.1205218118480309
 50
17.7685593661140295
 51
41.0763119495867031
  0
ARC
  5
24EBC
  8
0
 10
4351.3427261629476561
 20
589.8743110306318158
 30
0.0
 40
1.5808191183801239
 50
41.2825132873308078
 51
60.3732307543680591
  0
ARC
  5
24EBD
  8
0
 10
4351.0451831078344185
 20
589.3372300553412515
 30
0.0
 40
2.1947848617560739
 50
60.5523520578965133
 51
78.0300032034443234
  0
ARC
  5
24EBE
  8
0
 10
4351.6859685592207825
 20
590.3100268905687926
 30
0.0
 40
1.1205218118480309
 50
318.9236880504133183
 51
342.2314406338858817
  0
ARC
  5
24EBF
  8
0
 10
4351.3427261629476561
 20
590.6167534956208556
 30
0.0
 40
1.5808191183801239
 50
299.6267692456319196
 51
318.7174867126691993
  0
ARC
  5
24EC0
  8
0
 10
4351.0451831078344185
 20
591.1538344709111925
 30
0.0
 40
2.1947848617560739
 50
281.9699967965556766
 51
299.4476479421035151
  0
ARC
  5
24EC1
  8
0
 10
4351.8559901807811912
 20
590.2602017633129208
 30
0.0
 40
0.9389771109216301
 50
359.5524337141036995
 51
17.186908697575479
  0
ARC
  5
24EC2
  8
0
 10
4351.6859685592207825
 20
590.1957071358705207
 30
0.0
 40
1.1205218118480309
 50
17.7685593661140295
 51
41.0763119495867031
  0
ARC
  5
24EC3
  8
0
 10
4351.3427261629476561
 20
589.8889805308184577
 30
0.0
 40
1.5808191183801239
 50
41.2825132873308078
 51
60.3732307543680591
  0
ARC
  5
24EC4
  8
0
 10
4351.0451831078344185
 20
589.3518995555280071
 30
0.0
 40
2.1947848617560739
 50
60.5523520578965133
 51
78.0300032034443234
  0
ARC
  5
24EC5
  8
0
 10
4351.0269500750482621
 20
589.2828428389582314
 30
0.0
 40
2.3640861711822012
 50
64.845668298802039
 51
80.5749418051182147
  0
ARC
  5
24EC6
  8
0
 10
4351.253185706417753
 20
589.7646143978711279
 30
0.0
 40
1.8318396156467709
 50
48.1540806407187532
 51
64.845668298802039
  0
ARC
  5
24EC7
  8
0
 10
4351.612726113962708
 20
590.1660904391383156
 30
0.0
 40
1.292903333356481
 50
25.0078170799391408
 51
48.1540806407187532
  0
ARC
  5
24EC8
  8
0
 10
4351.8978648291968057
 20
590.3037012806430539
 30
0.0
 40
0.9763313731046362
 50
335.2368848696128225
 51
24.7631151303871917
  0
ARC
  5
24EC9
  8
0
 10
4351.4092553764412514
 20
590.4934016972312065
 30
0.0
 40
1.501956530505913
 50
344.8103565089945164
 51
15.1896434910054694
  0
ARC
  5
24ECA
  8
0
 10
4351.4257547382057965
 20
590.5032433529397622
 30
0.0
 40
1.4886764096153839
 50
338.3924326310179822
 51
344.2784136727250939
  0
ARC
  5
24ECB
  8
0
 10
4351.5945801719881274
 20
590.5436353683360267
 30
0.0
 40
1.309944305950814
 50
15.1931044575959397
 51
34.2353531168847667
  0
ARC
  5
24ECC
  8
0
 10
4351.4656790675371667
 20
590.4203858181103897
 30
0.0
 40
1.486140940895587
 50
35.3679562749093819
 51
53.3936528651436504
  0
ARC
  5
24ECD
  8
0
 10
4351.0151059601957968
 20
589.7583902829314866
 30
0.0
 40
2.2864807641865279
 50
54.2220875644761335
 51
77.9391818001127632
  0
ARC
  5
24ECE
  8
0
 10
4351.6127547550540839
 20
590.4364615831148058
 30
0.0
 40
1.2908342948033791
 50
311.386751102319522
 51
335.1867606721831976
  0
ARC
  5
24ECF
  8
0
 10
4369.0892781005277357
 20
593.7909324906532902
 30
0.0
 40
16.8724435645044117
 50
186.6328923970665983
 51
187.4323994769355011
  0
ARC
  5
24ED0
  8
0
 10
4350.3399999081793794
 20
591.6045609849585389
 30
0.0
 40
2.0038898181508351
 50
6.8060695137848111
 51
9.6565896661002206
  0
ARC
  5
24ED1
  8
0
 10
4351.2972491994551092
 20
591.754711024859148
 30
0.0
 40
1.035093468372398
 50
10.3512266757434901
 51
50.6744250730420021
  0
ARC
  5
24ED2
  8
0
 10
4351.0665413658898615
 20
591.4860864840594559
 30
0.0
 40
1.389119965701298
 50
50.3349124912187307
 51
69.977975878993405
  0
ARC
  5
24ED3
  8
0
 10
4350.9868130575869145
 20
591.9035853197401593
 30
0.0
 40
1.120225364416688
 50
68.8527382774414605
 51
79.7975765169692437
  0
ARC
  5
24ED4
  8
0
 10
4351.0466684078983235
 20
592.057895555205846
 30
0.0
 40
0.9547131784403466
 50
58.1787083103615075
 51
68.8620129002135286
  0
ARC
  5
24ED5
  8
0
 10
4351.1281616670657968
 20
592.1901419193878837
 30
0.0
 40
0.7993749314551768
 50
48.3485712262043492
 51
58.1439321133111378
  0
ARC
  5
24ED6
  8
0
 10
4351.2076337401349519
 20
592.2802775381413767
 30
0.0
 40
0.6792087164387567
 50
38.1920332198336467
 51
48.3045204063932303
  0
ARC
  5
24ED7
  8
0
 10
4351.1225811483936923
 20
592.3409250168758717
 30
0.0
 40
0.6848553236087132
 50
47.5400675646662378
 51
55.0369089831067271
  0
ARC
  5
24ED8
  8
0
 10
4351.0572543368552942
 20
592.2451368090721644
 30
0.0
 40
0.8007923919430391
 50
55.1338279620118925
 51
65.6485763951877885
  0
ARC
  5
24ED9
  8
0
 10
4350.9897256667572947
 20
592.0922336617469455
 30
0.0
 40
0.9679377394128932
 50
65.7389061827138335
 51
79.7052180281856124
  0
ARC
  5
24EDA
  8
0
 10
4351.0528274514726945
 20
592.2772557692530881
 30
0.0
 40
0.7751605720378545
 50
81.8507354362416777
 51
89.1161058032945448
  0
LINE
  5
24EDB
  8
0
 10
4351.2032843725992279
 20
593.0026963409112568
 30
0.0
 11
4351.2032843725992279
 21
593.0249228196952345
 31
0.0
  0
ARC
  5
24EDC
  8
0
 10
4351.1965365876212672
 20
593.0249228196952345
 30
0.0
 40
0.0067477849789297
 50
0.0
 51
39.7298917430135035
  0
ARC
  5
24EDD
  8
0
 10
4351.1845501288098603
 20
593.0149609015940086
 30
0.0
 40
0.0223335158582946
 50
39.7298917430135035
 51
63.6221350039483369
  0
ARC
  5
24EDE
  8
0
 10
4351.1482964242095477
 20
592.9397482390495497
 30
0.0
 40
0.1058265717767898
 50
64.1294837107067792
 51
76.6319811213242161
  0
ARC
  5
24EDF
  8
0
 10
4351.0439721637958428
 20
591.693691121567781
 30
0.0
 40
1.218766127661973
 50
58.1199287032034206
 51
73.3389025952096887
  0
ARC
  5
24EE0
  8
0
 10
4350.9739650949750285
 20
591.4701572400117584
 30
0.0
 40
1.452990260039388
 50
73.2214487440764259
 51
85.956926290178771
  0
ARC
  5
24EE1
  8
0
 10
4350.9908127720518678
 20
591.2951597852013492
 30
0.0
 40
1.5944458013662219
 50
69.7702050445706448
 51
78.1809026185600118
  0
ARC
  5
24EE2
  8
0
 10
4350.9694180518981739
 20
591.196427760285701
 30
0.0
 40
1.695466894008177
 50
78.1566181581349753
 51
86.0757306068152133
  0
LINE
  5
24EE3
  8
0
 10
4351.7158397084003809
 20
590.1305666121952527
 30
0.0
 11
4351.7158397084003809
 21
590.0453198114952329
 31
0.0
  0
LINE
  5
24EE4
  8
0
 10
4351.4614674601643856
 20
592.9364256097481984
 30
0.0
 11
4351.4614672227990013
 21
593.2752248276950695
 31
0.0
  0
ARC
  5
24EE5
  8
0
 10
4351.1925651694082262
 20
593.2745056775469266
 30
0.0
 40
0.2689030150350718
 50
0.1532311470934512
 51
17.4931785629566185
  0
ARC
  5
24EE6
  8
0
 10
4351.1357865889458481
 20
593.2511674689358188
 30
0.0
 40
0.3301118540444616
 50
18.3943081869348788
 51
45.8457765250828331
  0
ARC
  5
24EE7
  8
0
 10
4351.0138070908378722
 20
593.1137691477019871
 30
0.0
 40
0.5137259790143484
 50
46.7597214910472516
 51
75.7332259716924199
  0
LINE
  5
24EE8
  8
0
 10
4351.3724674601990046
 20
593.481289178827069
 30
0.0
 11
4351.3724674601990046
 21
594.5414806481951473
 31
0.0
  0
ARC
  5
24EE9
  8
0
 10
4350.9664674601990555
 20
592.9586891059145728
 30
0.0
 40
0.6757328471806145
 50
75.0835335826832164
 51
104.9164664173167978
  0
ARC
  5
24EEA
  8
0
 10
4350.9664674601990555
 20
586.8123319095412853
 30
0.0
 40
6.2407666976538572
 50
89.0973178309925942
 51
90.9026821690074343
  0
ARC
  5
24EEB
  8
0
 10
4350.9664674601990555
 20
591.7937839182917514
 30
0.0
 40
1.2318944750033729
 50
79.7708251141481242
 51
100.2291748858519043
  0
ARC
  5
24EEC
  8
0
 10
4350.9664674601990555
 20
591.3991656253313067
 30
0.0
 40
1.5243358380716381
 50
85.863949658475903
 51
94.1360503415241112
  0
ARC
  5
24EED
  8
0
 10
4350.9664674601990555
 20
591.0904409089476985
 30
0.0
 40
1.801412334253063
 50
86.2128097195463141
 51
93.7871902804537001
  0
ARC
  5
24EEE
  8
0
 10
4350.8190250026245849
 20
593.1310473743957346
 30
0.0
 40
0.0474937840091121
 50
180.2214316389338933
 51
202.2439767329522908
  0
ARC
  5
24EEF
  8
0
 10
4350.8445883626745854
 20
593.1441915910834268
 30
0.0
 40
0.0761711632739624
 50
204.1165186440777859
 51
230.4670680340788067
  0
ARC
  5
24EF0
  8
0
 10
4350.8859725074880771
 20
593.1931290364502729
 30
0.0
 40
0.1402586078874936
 50
230.1532780413253931
 51
247.4172623224000063
  0
ARC
  5
24EF1
  8
0
 10
4350.9292037404802613
 20
593.2867453572446266
 30
0.0
 40
0.2433308487481213
 50
246.4833107183000891
 51
254.5096211477365955
  0
LINE
  5
24EF2
  8
0
 10
4351.1614033470987124
 20
593.5000985765951782
 30
0.0
 11
4351.1614033470987124
 21
593.1308638250951617
 31
0.0
  0
ARC
  5
24EF3
  8
0
 10
4351.1139099177717071
 20
593.1310473743957346
 30
0.0
 40
0.0474937840091121
 50
337.7560232670476239
 51
359.778568361065993
  0
ARC
  5
24EF4
  8
0
 10
4351.0883465577217066
 20
593.1441915910834268
 30
0.0
 40
0.0761711632739624
 50
309.5329319659211933
 51
335.883481355922072
  0
ARC
  5
24EF5
  8
0
 10
4351.0469624129100339
 20
593.1931290364502729
 30
0.0
 40
0.1402586078874936
 50
292.58273767759988
 51
309.8467219586746069
  0
ARC
  5
24EF6
  8
0
 10
4351.0037311799178497
 20
593.2867453572446266
 30
0.0
 40
0.2433308487481213
 50
285.4903788522634045
 51
293.5166892816998825
  0
ARC
  5
24EF7
  8
0
 10
4350.9664674601990555
 20
589.5151990532284572
 30
0.0
 40
2.5344689684672641
 50
78.0126511059188346
 51
101.9873488940811939
  0
ARC
  5
24EF8
  8
0
 10
4350.8340887293370542
 20
589.8551970100080553
 30
0.0
 40
2.1625984653653201
 50
111.3779034158694969
 51
115.867748995668606
  0
ARC
  5
24EF9
  8
0
 10
4350.88923642676491
 20
589.7143167658988432
 30
0.0
 40
2.3138879617354622
 50
105.5028336327470981
 51
111.3779034158694969
  0
ARC
  5
24EFA
  8
0
 10
4350.9531260181056496
 20
589.4783039372772464
 30
0.0
 40
2.5583912368550572
 50
95.3565374725733932
 51
105.4688416603120942
  0
ARC
  5
24EFB
  8
0
 10
4351.0988461910619662
 20
589.8551970100080553
 30
0.0
 40
2.1625984653653201
 50
64.1322510043314082
 51
68.6220965841304604
  0
ARC
  5
24EFC
  8
0
 10
4351.043698493633201
 20
589.7143167658988432
 30
0.0
 40
2.3138879617354622
 50
68.6220965841304604
 51
74.4971663672528166
  0
ARC
  5
24EFD
  8
0
 10
4350.9798089022906424
 20
589.4783039372772464
 30
0.0
 40
2.5583912368550572
 50
74.5311583396878916
 51
84.6434625274266068
  0
ARC
  5
24EFE
  8
0
 10
4350.9664674601990555
 20
589.3622228465225135
 30
0.0
 40
2.675211992710437
 50
84.5910618638665284
 51
95.4089381361334716
  0
ARC
  5
24EFF
  8
0
 10
4350.9664674601990555
 20
588.9735887460125241
 30
0.0
 40
2.6790852040826829
 50
80.3819622805331448
 51
99.6180377194668409
  0
ARC
  5
24F00
  8
0
 10
4350.9664674601990555
 20
588.9973681726692121
 30
0.0
 40
2.5579353767486421
 50
77.9521777914435603
 51
102.0478222085563971
  0
ARC
  5
24F01
  8
0
 10
4350.9664674601990555
 20
588.9829254573598973
 30
0.0
 40
2.5577135875353001
 50
77.951117401517692
 51
102.0488825984822938
  0
ARC
  5
24F02
  8
0
 10
4350.9664674601990555
 20
589.0436990212702995
 30
0.0
 40
2.1695355170248969
 50
85.1043170097035642
 51
94.8956829902964643
  0
ARC
  5
24F03
  8
0
 10
4350.9664674601990555
 20
589.2875681208894321
 30
0.0
 40
1.892884507105794
 50
80.6384290142979268
 51
99.3615709857020875
  0
ARC
  5
24F04
  8
0
 10
4350.9664674601990555
 20
589.2905603378812884
 30
0.0
 40
1.8675133700139079
 50
82.6166370953757507
 51
97.3833629046242635
  0
ARC
  5
24F05
  8
0
 10
4350.9664674601990555
 20
589.4063793408539595
 30
0.0
 40
1.263351401341186
 50
79.7214541331506723
 51
100.2785458668492993
  0
ARC
  5
24F06
  8
0
 10
4350.9664674601990555
 20
589.4142364875546036
 30
0.0
 40
1.2360604972405811
 50
79.7486937401011033
 51
100.2513062598988967
  0
ARC
  5
24F07
  8
0
 10
4350.9664674601990555
 20
589.5017610355872648
 30
0.0
 40
0.935858071707875
 50
81.9592769112252455
 51
98.0407230887747545
  0
ARC
  5
24F08
  8
0
 10
4350.9664674601990555
 20
589.499573668070866
 30
0.0
 40
0.9260246239242924
 50
79.7724923499598049
 51
100.2275076500401951
  0
ARC
  5
24F09
  8
0
 10
4350.9664674601990555
 20
590.2095072059312315
 30
0.0
 40
0.1127022596640337
 50
68.856982500443408
 51
111.1430174995566063
  0
ARC
  5
24F0A
  8
0
 10
4350.9664674601990555
 20
590.2951749066799039
 30
0.0
 40
0.1126420787847012
 50
248.6789319891979062
 51
291.3210680108020938
  0
ARC
  5
24F0B
  8
0
 10
4350.9664674601990555
 20
590.2602265996509914
 30
0.0
 40
0.1132940366559345
 50
249.7772068688250044
 51
290.222793131175024
  0
ARC
  5
24F0C
  8
0
 10
4350.9664674601990555
 20
589.7863898698002458
 30
0.0
 40
0.1892860049949709
 50
79.2809089645551097
 51
100.7190910354449045
  0
ARC
  5
24F0D
  8
0
 10
4350.9664674601990555
 20
590.144625994648095
 30
0.0
 40
0.2033939951535713
 50
259.6086833559563161
 51
280.3913166440436839
  0
ARC
  5
24F0E
  8
0
 10
4350.9664674601990555
 20
590.1334786049261538
 30
0.0
 40
0.2028531611182839
 50
258.0044317408267034
 51
281.9955682591732966
  0
ARC
  5
24F0F
  8
0
 10
4350.9664674601990555
 20
590.0860461388823524
 30
0.0
 40
0.1978572320024168
 50
248.1685396490719029
 51
291.8314603509280118
  0
ARC
  5
24F10
  8
0
 10
4350.9664674601990555
 20
590.0752375544611823
 30
0.0
 40
0.1976451194691765
 50
247.659934181398711
 51
292.3400658186013743
  0
ARC
  5
24F11
  8
0
 10
4350.9664674601990555
 20
590.0349515828344238
 30
0.0
 40
0.2151089756391816
 50
262.9548782260260964
 51
277.0451217739739036
  0
ARC
  5
24F12
  8
0
 10
4350.9664674601990555
 20
589.9747052752584295
 30
0.0
 40
0.189948231463165
 50
262.015949401985722
 51
277.984050598014278
  0
ARC
  5
24F13
  8
0
 10
4350.9664674601990555
 20
589.4701015516078542
 30
0.0
 40
0.1818562645872377
 50
79.9680218273113468
 51
100.0319781726898043
  0
ARC
  5
24F14
  8
0
 10
4350.9664674601990555
 20
589.7769069222928238
 30
0.0
 40
0.1959702154975902
 50
263.2268212680202168
 51
276.7731787319797832
  0
ARC
  5
24F15
  8
0
 10
4350.9664674601990555
 20
589.7294527414684353
 30
0.0
 40
0.1850607351732076
 50
262.8254962751872768
 51
277.1745037248127232
  0
ARC
  5
24F16
  8
0
 10
4350.9664674601990555
 20
590.4148177269407824
 30
0.0
 40
0.9226003860811403
 50
257.588086119654406
 51
282.4119138803454803
  0
ARC
  5
24F17
  8
0
 10
4350.9664674601990555
 20
589.3517820228006485
 30
0.0
 40
0.1302077171077626
 50
77.6075741884254029
 51
102.3924258115745971
  0
ARC
  5
24F18
  8
0
 10
4350.9664674601990555
 20
590.6595584449986518
 30
0.0
 40
1.263327015703533
 50
259.7212535731288199
 51
280.2787464268711801
  0
ARC
  5
24F19
  8
0
 10
4350.9664724406220557
 20
591.1567094550197226
 30
0.0
 40
1.8738831264684961
 50
265.7700421467064871
 51
268.3466528206257067
  0
ARC
  5
24F1A
  8
0
 10
4350.9664724406220557
 20
591.1567094550197226
 30
0.0
 40
1.8738831264684961
 50
271.6530403967068992
 51
274.2296655944342092
  0
ARC
  5
24F1B
  8
0
 10
4350.9664674601990555
 20
589.0704460667683406
 30
0.0
 40
0.2672984094268235
 50
85.3140653714774118
 51
94.6859346285225882
  0
ARC
  5
24F1C
  8
0
 10
4350.9664674601990555
 20
589.2343055875990103
 30
0.0
 40
0.0235857366962415
 50
76.7273521821583131
 51
103.2726478178417011
  0
ARC
  5
24F1D
  8
0
 10
4350.9664674601990555
 20
589.2607992007306166
 30
0.0
 40
0.0235737358354339
 50
256.52013080743518
 51
283.4798691925647063
  0
ARC
  5
24F1E
  8
0
 10
4350.9664674601990555
 20
589.2836566033148529
 30
0.0
 40
0.0610430331879005
 50
242.5934964483693932
 51
297.4065035516305784
  0
ARC
  5
24F1F
  8
0
 10
4350.9664674601990555
 20
591.2088241893003442
 30
0.0
 40
2.1688600209051709
 50
265.1027885153096122
 51
274.8972114846902741
  0
ARC
  5
24F20
  8
0
 10
4350.9664674601990555
 20
591.4416371192363613
 30
0.0
 40
2.492715340041141
 50
257.6320334150464078
 51
282.3679665849537059
  0
ARC
  5
24F21
  8
0
 10
4350.6425660822733334
 20
590.7808512459979511
 30
0.0
 40
1.7624162458895529
 50
228.152082523927902
 51
241.7932360411053878
  0
ARC
  5
24F22
  8
0
 10
4350.9244351325996831
 20
591.2558101560048271
 30
0.0
 40
2.3143228948580248
 50
241.2014127065748994
 51
258.8214411973694951
  0
ARC
  5
24F23
  8
0
 10
4351.2903688381247775
 20
590.7808512459979511
 30
0.0
 40
1.7624162458895529
 50
298.2067639588946122
 51
311.8479174760722117
  0
ARC
  5
24F24
  8
0
 10
4351.0084997877984279
 20
591.2558101560048271
 30
0.0
 40
2.3143228948580248
 50
281.1785588026305049
 51
298.7985872934249869
  0
ARC
  5
24F25
  8
0
 10
4350.9664674601990555
 20
591.4755694699093738
 30
0.0
 40
2.5380619460643099
 50
258.8523515407796936
 51
281.1476484592203064
  0
ARC
  5
24F27
  8
0
 10
4350.1847303325148459
 20
590.1501482655222617
 30
0.0
 40
0.8259141160354019
 50
159.1370691802009105
 51
200.8629308197990042
  0
ARC
  5
24F28
  8
0
 10
4350.3574784532665944
 20
590.2159863280094214
 30
0.0
 40
1.0107831607533859
 50
200.8629308197990042
 51
224.6088117559434068
  0
ARC
  5
24F29
  8
0
 10
4350.7098036453498935
 20
590.5635330543253758
 30
0.0
 40
1.5056788749694869
 50
224.6088117559434068
 51
242.1425975093970919
  0
ARC
  5
24F2A
  8
0
 10
4350.8969670382093682
 20
590.9355504274465147
 30
0.0
 40
1.9220588857239429
 50
242.3918033819336983
 51
258.0099623910650735
  0
ARC
  5
24F2B
  8
0
 10
4350.3907125093055583
 20
590.0570917983208119
 30
0.0
 40
1.0516195339885051
 50
134.2644633754968027
 51
158.3961797532496121
  0
ARC
  5
24F2C
  8
0
 10
4350.7353764069512181
 20
589.6870684686782624
 30
0.0
 40
1.5572103153116501
 50
112.0543529980654966
 51
133.8434293712772956
  0
ARC
  5
24F2D
  8
0
 10
4350.9232427940942216
 20
589.2570757930322998
 30
0.0
 40
2.0263203647388259
 50
100.5913716836564049
 51
112.4124289155610938
  0
ARC
  5
24F2E
  8
0
 10
4351.7482045878823556
 20
590.1501482655222617
 30
0.0
 40
0.8259141160354019
 50
339.1370691802009105
 51
20.8629308197990611
  0
ARC
  5
24F2F
  8
0
 10
4351.575456467132426
 20
590.2159863280094214
 30
0.0
 40
1.0107831607533859
 50
315.3911882440564796
 51
339.1370691802009105
  0
ARC
  5
24F30
  8
0
 10
4351.223131275047308
 20
590.5635330543253758
 30
0.0
 40
1.5056788749694869
 50
297.8574024906027944
 51
315.3911882440564796
  0
ARC
  5
24F31
  8
0
 10
4351.0359678821896523
 20
590.9355504274465147
 30
0.0
 40
1.9220588857239429
 50
281.9900376089349834
 51
297.6081966180663017
  0
ARC
  5
24F32
  8
0
 10
4351.5422224110907337
 20
590.0570917983208119
 30
0.0
 40
1.0516195339885051
 50
21.6038202467503204
 51
45.7355366245031405
  0
ARC
  5
24F33
  8
0
 10
4351.1975585134468929
 20
589.6870684686782624
 30
0.0
 40
1.5572103153116501
 50
46.1565706287226973
 51
67.9456470019344891
  0
ARC
  5
24F34
  8
0
 10
4351.0096921263038894
 20
589.2570757930322998
 30
0.0
 40
2.0263203647388259
 50
67.5875710844389204
 51
79.4086283163435667
  0
ARC
  5
24F35
  8
0
 10
4350.9664674601990555
 20
589.0326326575767553
 30
0.0
 40
2.2548848469184781
 50
79.3772511260919487
 51
100.6227488739079945
  0
ARC
  5
24F36
  8
0
 10
4350.9664674601990555
 20
591.2396504295029445
 30
0.0
 40
2.233967869912219
 50
257.88659870115589
 51
282.11340129884411
  0
LINE
  5
24F37
  8
0
 10
4350.7715315732993986
 20
593.5000985765951782
 30
0.0
 11
4351.1614033470987124
 21
593.5000985765951782
 31
0.0
  0
ARC
  5
24F38
  8
0
 10
4350.9664674601990555
 20
593.1925071332360631
 30
0.0
 40
0.3641599868591352
 50
57.6355462110572319
 51
122.3644537889426971
  0
ARC
  5
24F39
  8
0
 10
4350.9664674601990555
 20
594.5414806481951473
 30
0.0
 40
0.5441489995
 50
318.2553174427744125
 51
221.7446825572257012
  0
VIEWPORT
  5
7BC8
 67
     1
  8
0
 10
8.4975296442687753
 20
4.5
 30
0.0
 40
16.9950592885375507
 41
9.0
 68
     1
 69
     1
1001
ACAD
1000
MVIEW
1002
{
1070
    16
1010
0.0
1020
0.0
1030
0.0
1010
0.0
1020
0.0
1030
1.0
1040
0.0
1040
9.0
1040
8.4975296442687753
1040
4.5
1040
50.0
1040
0.0
1040
0.0
1070
     0
1070
   100
1070
     1
1070
     1
1070
     0
1070
     0
1070
     0
1070
     0
1040
0.0
1040
0.0
1040
0.0
1040
1.0
1040
1.0
1040
0.0
1040
0.0
1070
     0
1002
{
1002
}
1002
}
  0
ENDSEC
  0
EOF
