  0
SECTION
  2
HEADER
  9
$ACADVER
  1
AC1009
  9
$INSBASE
 10
381.6476824506244157
 20
29.7776012651676503
 30
0.0
  9
$EXTMIN
 10
379.6754720100249756
 20
27.4470631611057883
 30
-0.0000000349181948
  9
$EXTMAX
 10
383.4353219028595845
 20
30.3905170737877306
 30
0.0000000814935746
  9
$LIMMIN
 10
0.0
 20
0.0
  9
$LIMMAX
 10
22.0
 20
17.0
  9
$ORTHOMODE
 70
     0
  9
$REGENMODE
 70
     1
  9
$FILLMODE
 70
     1
  9
$QTEXTMODE
 70
     0
  9
$MIRRTEXT
 70
     0
  9
$DRAGMODE
 70
     2
  9
$LTSCALE
 40
1.2099999999999991
  9
$OSMODE
 70
     7
  9
$ATTMODE
 70
     1
  9
$TEXTSIZE
 40
0.2
  9
$TRACEWID
 40
0.05
  9
$TEXTSTYLE
  7
STANDARD
  9
$CLAYER
  8
0
  9
$CELTYPE
  6
BYLAYER
  9
$CECOLOR
 62
   256
  9
$DIMSCALE
 40
1.0
  9
$DIMASZ
 40
0.1875
  9
$DIMEXO
 40
0.0625
  9
$DIMDLI
 40
0.38
  9
$DIMRND
 40
0.0
  9
$DIMDLE
 40
0.0
  9
$DIMEXE
 40
0.125
  9
$DIMTP
 40
1.5
  9
$DIMTM
 40
1.5
  9
$DIMTXT
 40
1.5
  9
$DIMCEN
 40
0.09
  9
$DIMTSZ
 40
0.0
  9
$DIMTOL
 70
     0
  9
$DIMLIM
 70
     0
  9
$DIMTIH
 70
     1
  9
$DIMTOH
 70
     1
  9
$DIMSE1
 70
     0
  9
$DIMSE2
 70
     0
  9
$DIMTAD
 70
     0
  9
$DIMZIN
 70
     4
  9
$DIMBLK
  1

  9
$DIMASO
 70
     1
  9
$DIMSHO
 70
     1
  9
$DIMPOST
  1

  9
$DIMAPOST
  1

  9
$DIMALT
 70
     0
  9
$DIMALTD
 70
     2
  9
$DIMALTF
 40
25.3999999999999986
  9
$DIMLFAC
 40
1.0
  9
$DIMTOFL
 70
     0
  9
$DIMTVP
 40
0.0
  9
$DIMTIX
 70
     0
  9
$DIMSOXD
 70
     0
  9
$DIMSAH
 70
     0
  9
$DIMBLK1
  1

  9
$DIMBLK2
  1

  9
$DIMSTYLE
  2
STANDARD
  9
$DIMCLRD
 70
     0
  9
$DIMCLRE
 70
     0
  9
$DIMCLRT
 70
     0
  9
$DIMTFAC
 40
1.0
  9
$DIMGAP
 40
0.09
  9
$LUNITS
 70
     2
  9
$LUPREC
 70
     4
  9
$SKETCHINC
 40
0.1
  9
$FILLETRAD
 40
0.0
  9
$AUNITS
 70
     0
  9
$AUPREC
 70
     0
  9
$MENU
  1
.
  9
$ELEVATION
 40
0.0
  9
$PELEVATION
 40
0.0
  9
$THICKNESS
 40
0.0
  9
$LIMCHECK
 70
     0
  9
$BLIPMODE
 70
     0
  9
$CHAMFERA
 40
0.0
  9
$CHAMFERB
 40
0.0
  9
$SKPOLY
 70
     0
  9
$TDCREATE
 40
2457827.4934837957844138
  9
$TDUPDATE
 40
2459485.5664930557832122
  9
$TDINDWG
 40
0.4380922454
  9
$TDUSRTIMER
 40
0.4380922454
  9
$USRTIMER
 70
     1
  9
$ANGBASE
 50
0.0
  9
$ANGDIR
 70
     0
  9
$PDMODE
 70
     0
  9
$PDSIZE
 40
0.3125
  9
$PLINEWID
 40
0.0
  9
$COORDS
 70
     1
  9
$SPLFRAME
 70
     0
  9
$SPLINETYPE
 70
     6
  9
$SPLINESEGS
 70
     8
  9
$ATTDIA
 70
     1
  9
$ATTREQ
 70
     1
  9
$HANDLING
 70
     1
  9
$HANDSEED
  5
7547
  9
$SURFTAB1
 70
     6
  9
$SURFTAB2
 70
     6
  9
$SURFTYPE
 70
     6
  9
$SURFU
 70
     6
  9
$SURFV
 70
     6
  9
$UCSNAME
  2

  9
$UCSORG
 10
0.0
 20
0.0
 30
0.0
  9
$UCSXDIR
 10
1.0
 20
0.0
 30
0.0
  9
$UCSYDIR
 10
0.0
 20
1.0
 30
0.0
  9
$PUCSNAME
  2

  9
$PUCSORG
 10
0.0
 20
0.0
 30
0.0
  9
$PUCSXDIR
 10
1.0
 20
0.0
 30
0.0
  9
$PUCSYDIR
 10
0.0
 20
1.0
 30
0.0
  9
$USERI1
 70
     0
  9
$USERI2
 70
     0
  9
$USERI3
 70
     0
  9
$USERI4
 70
     0
  9
$USERI5
 70
     0
  9
$USERR1
 40
0.0
  9
$USERR2
 40
0.0
  9
$USERR3
 40
0.0
  9
$USERR4
 40
0.0
  9
$USERR5
 40
0.0
  9
$WORLDVIEW
 70
     1
  9
$SHADEDGE
 70
     3
  9
$SHADEDIF
 70
    70
  9
$TILEMODE
 70
     1
  9
$MAXACTVP
 70
    48
  9
$PLIMCHECK
 70
     0
  9
$PEXTMIN
 10
1.0000000000000000E+20
 20
1.0000000000000000E+20
 30
1.0000000000000000E+20
  9
$PEXTMAX
 10
-1.0000000000000000E+20
 20
-1.0000000000000000E+20
 30
-1.0000000000000000E+20
  9
$PLIMMIN
 10
0.0
 20
0.0
  9
$PLIMMAX
 10
12.0
 20
9.0
  9
$UNITMODE
 70
     0
  9
$VISRETAIN
 70
     1
  9
$PLINEGEN
 70
     0
  9
$PSLTSCALE
 70
     1
  0
ENDSEC
  0
SECTION
  2
TABLES
  0
TABLE
  2
VPORT
 70
     1
  0
VPORT
  2
*ACTIVE
 70
     0
 10
0.0
 20
0.0
 11
1.0
 21
1.0
 12
170.5764693441375925
 22
21.7163409318862008
 13
0.0
 23
0.0
 14
1.0
 24
1.0
 15
0.0
 25
0.0
 16
-0.0000000000000284
 26
0.0
 36
157.2215818301446859
 17
210.9789276123046875
 27
7.2024491855605604
 37
0.0
 40
2.9640405982935811
 41
2.2118055555555549
 42
50.0
 43
0.0
 44
0.0
 50
0.0
 51
0.0
 71
     0
 72
   100
 73
     1
 74
     1
 75
     0
 76
     0
 77
     0
 78
     0
  0
ENDTAB
  0
TABLE
  2
LTYPE
 70
     2
  0
LTYPE
  2
CONTINUOUS
 70
     0
  3
Solid line
 72
    65
 73
     0
 40
0.0
  0
LTYPE
  2
PHANTOM2
 70
     0
  3
___ _ _ ___ _ _ ___ _ _ ___ _ _
 72
    65
 73
     6
 40
1.25
 49
0.625
 49
-0.125
 49
0.125
 49
-0.125
 49
0.125
 49
-0.125
  0
ENDTAB
  0
TABLE
  2
LAYER
 70
     2
  0
LAYER
  2
0
 70
     0
 62
     7
  6
CONTINUOUS
  0
LAYER
  2
DEFPOINTS
 70
     0
 62
     7
  6
CONTINUOUS
  0
ENDTAB
  0
TABLE
  2
STYLE
 70
     1
  0
STYLE
  2
STANDARD
 70
     0
 40
0.0
 41
0.8
 50
0.0
 71
     0
 42
0.2
  3
txt
  4

  0
ENDTAB
  0
TABLE
  2
VIEW
 70
     0
  0
ENDTAB
  0
TABLE
  2
UCS
 70
     0
  0
ENDTAB
  0
TABLE
  2
APPID
 70
     9
  0
APPID
  2
ACAD
 70
     0
  0
APPID
  2
ACAD_MLEADERVER
 70
     0
  0
APPID
  2
ACAD_EXEMPT_FROM_CAD_STANDARDS
 70
     0
  0
APPID
  2
ACAD_NAV_VCDISPLAY
 70
     0
  0
APPID
  2
ACADANNOMONITORALERTICONDI
 70
     0
  0
APPID
  2
ACAD_DSTYLE_DIMJAG
 70
     0
  0
APPID
  2
ACAD_DSTYLE_DIMTALN
 70
     0
  0
APPID
  2
ACDBATTR
 70
     0
  0
APPID
  2
DCO15
 70
     0
  0
ENDTAB
  0
TABLE
  2
DIMSTYLE
 70
     1
  0
DIMSTYLE
  2
STANDARD
 70
     0
  3

  4

  5

  6

  7

 40
1.0
 41
0.1875
 42
0.0625
 43
0.38
 44
0.125
 45
0.0
 46
0.0
 47
1.5
 48
1.5
140
1.5
141
0.09
142
0.0
143
25.3999999999999986
144
1.0
145
0.0
146
1.0
147
0.09
 71
     0
 72
     0
 73
     1
 74
     1
 75
     0
 76
     0
 77
     0
 78
     4
170
     0
171
     2
172
     0
173
     0
174
     0
175
     0
176
     0
177
     0
178
     0
  0
ENDTAB
  0
ENDSEC
  0
SECTION
  2
BLOCKS
  0
BLOCK
  8
0
  2
$MODEL_SPACE
 70
     0
 10
0.0
 20
0.0
 30
0.0
  3
$MODEL_SPACE
  1

  0
ENDBLK
  5
21
  8
0
  0
BLOCK
 67
     1
  8
0
  2
$PAPER_SPACE
 70
     0
 10
0.0
 20
0.0
 30
0.0
  3
$PAPER_SPACE
  1

  0
ENDBLK
  5
1D
 67
     1
  8
0
  0
BLOCK
  8
0
  2
_FILLED
 70
     0
 10
0.0
 20
0.0
 30
0.0
  3
_FILLED
  1

  0
SOLID
  5
729E
  8
0
  6
BYBLOCK
 62
     0
 10
0.0
 20
0.0
 30
0.0
 11
-1.0
 21
0.1666666667
 31
0.0
 12
-1.0
 22
-0.1666666667
 32
0.0
 13
-1.0
 23
-0.1666666667
 33
0.0
  0
ENDBLK
  5
729F
  8
0
  6
BYBLOCK
 62
     0
  0
ENDSEC
  0
SECTION
  2
ENTITIES
  0
ATTDEF
  5
4EF9
  8
DEFPOINTS
 10
381.6476900247791946
 20
29.7809422203492495
 30
0.0
 40
0.001
  1
P21425-MB
  3

  2
MODELNUMBER
 70
     0
1001
ACDBATTR
1070
     0
1070
     1
  0
ATTDEF
  5
4EFA
  8
DEFPOINTS
 10
381.6476900247791946
 20
29.7792755536825702
 30
0.0
 40
0.001
  1

  3

  2
TRADENAME
 70
     0
1001
ACDBATTR
1070
     0
1070
     1
  0
ATTDEF
  5
4EFB
  8
DEFPOINTS
 10
381.6476900247791946
 20
29.7776088870158908
 30
0.0
 40
0.001
  1
HANDSHOWER
  3

  2
PRODUCT
 70
     0
1001
ACDBATTR
1070
     0
1070
     1
  0
LINE
  5
7374
  8
0
 10
381.0912475210336083
 20
29.5256161755676487
 30
0.0
 11
379.9281449535243951
 21
29.5256161755676487
 31
0.0
  0
LINE
  5
7375
  8
0
 10
382.204117380215223
 20
29.5256161755676487
 30
0.0
 11
382.5242146162664199
 21
29.5256161755676487
 31
0.0
  0
LINE
  5
7376
  8
0
 10
381.0912475210336083
 20
30.0295863547676412
 30
0.0
 11
379.9281449535243951
 21
30.0295863547676412
 31
0.0
  0
LINE
  5
7377
  8
0
 10
382.204117380215223
 20
30.0295863547676412
 30
0.0
 11
382.5242146162664199
 21
30.0295863547676412
 31
0.0
  0
LINE
  5
7378
  8
0
 10
382.6405837067243851
 20
29.3234280368676501
 30
0.0
 11
383.1633811946244919
 21
29.3234280368676501
 31
0.0
  0
LINE
  5
7379
  8
0
 10
383.1633811946244919
 20
29.3234280368676501
 30
0.0
 11
383.4247799385244093
 21
29.7776012651676503
 31
0.0
  0
LINE
  5
737A
  8
0
 10
382.6405837067243851
 20
29.3234280368676501
 30
0.0
 11
382.3791849628245245
 21
29.7776012651676503
 31
0.0
  0
LINE
  5
737B
  8
0
 10
382.6405837067243851
 20
30.2317744934676504
 30
0.0
 11
383.1633811946244919
 21
30.2317744934676504
 31
0.0
  0
LINE
  5
737C
  8
0
 10
383.1633811946244919
 20
30.2317744934676504
 30
0.0
 11
383.4247799385244093
 21
29.7776012651676503
 31
0.0
  0
LINE
  5
737D
  8
0
 10
382.6405837067243851
 20
30.2317744934676504
 30
0.0
 11
382.3791849628245245
 21
29.7776012651676503
 31
0.0
  0
LINE
  5
737E
  8
0
 10
380.2764016713776982
 20
27.4994910289676504
 30
0.0
 11
383.0189632298710194
 21
27.4994910289676504
 31
0.0
  0
LINE
  5
737F
  8
0
 10
383.0731126746205177
 20
27.5694910289676507
 30
0.0
 11
380.2222522266284273
 21
27.5694910289676507
 31
0.0
  0
LINE
  5
7380
  8
0
 10
380.596954861011227
 20
28.2291228246676411
 30
0.0
 11
382.6984100402376043
 21
28.2291228246676518
 31
0.0
  0
LINE
  5
7381
  8
0
 10
380.6927677496244087
 20
28.3538772485676489
 30
0.0
 11
382.6025971516244226
 21
28.3538772485676489
 31
0.0
  0
LINE
  5
7382
  8
0
 10
382.1324043340716798
 20
28.7724910289676501
 30
0.0
 11
381.1629605671772083
 21
28.7724910289676501
 31
0.0
  0
LINE
  5
7383
  8
0
 10
381.2560289074950788
 20
28.9114595329676405
 30
0.0
 11
382.0393359937536957
 21
28.9114595329676405
 31
0.0
  0
LINE
  5
7384
  8
0
 10
381.2166588286244178
 20
28.7724910289676501
 30
0.0
 11
381.2166588286244178
 21
28.8720894540969404
 31
0.0
  0
ARC
  5
7385
  8
0
 10
380.2222578269763744
 20
27.5544910275243993
 30
0.0
 40
0.0150000024887146
 50
90.0213917506345354
 51
158.802993025808604
  0
ARC
  5
7386
  8
0
 10
380.3234965784222936
 20
27.5143874674466886
 30
0.0
 40
0.1238921774123713
 50
158.4400612096652026
 51
165.3355820148128998
  0
ARC
  5
7387
  8
0
 10
380.2646999798237744
 20
27.5299484666437202
 30
0.0
 40
0.0630717171414601
 50
165.489396158747013
 51
178.1775073066685877
  0
ARC
  5
7388
  8
0
 10
380.2264752156327745
 20
27.5309643164126392
 30
0.0
 40
0.024834789655904
 50
177.7153222388515132
 51
226.5807557263154024
  0
ARC
  5
7389
  8
0
 10
380.231815263225883
 20
27.5386543571497384
 30
0.0
 40
0.0341198047995278
 50
228.9439607991205889
 51
250.2965405854774019
  0
ARC
  5
738A
  8
0
 10
380.2514277293246892
 20
27.5918820466058499
 30
0.0
 40
0.090844886051951
 50
249.9696269903035954
 51
262.9981635618000269
  0
ARC
  5
738B
  8
0
 10
380.2786157483511147
 20
27.8286895847683802
 30
0.0
 40
0.3292060012790265
 50
263.3256878244978907
 51
269.6146539797016999
  0
ARC
  5
738C
  8
0
 10
380.2363299191338228
 20
27.5844910289844414
 30
0.0
 40
0.015000000016796
 50
152.9043746027082022
 51
269.9999999640373858
  0
ARC
  5
738D
  8
0
 10
379.7422145645556952
 20
27.8372950269431811
 30
0.0
 40
0.5400313909997781
 50
332.9043746027081738
 51
352.9555381676071875
  0
ARC
  5
738E
  8
0
 10
381.0090431467179997
 20
27.7025010199277801
 30
0.0
 40
0.7340827961401323
 50
151.3385452801936992
 51
174.6406469594463999
  0
ARC
  5
738F
  8
0
 10
380.6733941225126046
 20
27.8859701132625197
 30
0.0
 40
0.351563285972193
 50
102.5579382384348008
 51
151.3385452801936992
  0
ARC
  5
7390
  8
0
 10
380.5875122633127035
 20
28.26734376718683
 30
0.0
 40
0.0393700787214334
 50
283.8772143294452235
 51
354.0000000121381163
  0
LINE
  5
7391
  8
0
 10
380.6266666686244093
 20
28.2632284733676507
 30
0.0
 11
380.62892423552438
 21
28.2847077871676511
 31
0.0
  0
ARC
  5
7392
  8
0
 10
380.7072330463914795
 20
28.2764771993081894
 30
0.0
 40
0.0787401577082867
 50
100.5858892357016998
 51
173.999999870671104
  0
ARC
  5
7393
  8
0
 10
380.5441353180677879
 20
29.1726253249872585
 30
0.0
 40
0.8321298049891257
 50
280.2892074807647873
 51
302.8378833327669781
  0
ARC
  5
7394
  8
0
 10
380.7890707363612819
 20
28.7615192054562989
 30
0.0
 40
0.3543098242938806
 50
305.6092721640052901
 51
358.7235919231133039
  0
ARC
  5
7395
  8
0
 10
381.1629605671772083
 20
28.7528059896746484
 30
0.0
 40
0.0196850392929964
 50
89.9999995713186252
 51
177.6104894391216078
  0
ARC
  5
7396
  8
0
 10
381.2560289074950788
 20
28.8720894540969404
 30
0.0
 40
0.0393700788707072
 50
89.9999999573640679
 51
179.9999998970953072
  0
ARC
  5
7397
  8
0
 10
380.9163039299471052
 20
27.78491681678139
 30
0.0
 40
0.2886546019979787
 50
261.4261135233530808
 51
268.1410363936645922
  0
ARC
  5
7398
  8
0
 10
380.908170096578317
 20
27.5299544266190104
 30
0.0
 40
0.0335628380664526
 50
267.8998879968876281
 51
280.7201773881023996
  0
ARC
  5
7399
  8
0
 10
380.9098836830373784
 20
27.5209029997250596
 30
0.0
 40
0.0243506338042035
 50
280.7201773880991027
 51
298.4396971837718979
  0
LINE
  5
739A
  8
0
 10
380.9720196947951081
 20
27.4994910289676504
 30
0.0
 11
380.9720629403951193
 21
27.4972381312676504
 31
0.0
  0
ARC
  5
739B
  8
0
 10
380.9921345354571258
 20
27.4976420459649908
 30
0.0
 40
0.0200756587791506
 50
181.152847302870299
 51
251.0989770894422861
  0
ARC
  5
739C
  8
0
 10
380.9990528038704269
 20
27.5224679085271617
 30
0.0
 40
0.045828412042105
 50
252.9705403549370999
 51
260.610462906631426
  0
ARC
  5
739D
  8
0
 10
381.1832788043976734
 20
28.7604995202945588
 30
0.0
 40
1.297486131420271
 50
261.5034803054047075
 51
264.1700842715342787
  0
ARC
  5
739E
  8
0
 10
381.0691028352165972
 20
27.61728068113419
 30
0.0
 40
0.1486044026448003
 50
263.1915384048672877
 51
268.1081490336063098
  0
ARC
  5
739F
  8
0
 10
381.0648429458448163
 20
27.4883144046515113
 30
0.0
 40
0.01956779106783
 50
268.1081490335997728
 51
292.5630793696723231
  0
ARC
  5
73A0
  8
0
 10
381.0772059387492163
 20
27.8960602423683888
 30
0.0
 40
0.4261576612812064
 50
260.6729003547902153
 51
265.5137267088484236
  0
ARC
  5
73A1
  8
0
 10
380.9751084378985979
 20
27.0531966992893196
 30
0.0
 40
0.4236296523886992
 50
80.6584478698635934
 51
85.5281791937792661
  0
LINE
  5
73A2
  8
0
 10
381.009647094185425
 20
27.4964040787676502
 30
0.0
 11
381.0095439783501092
 21
27.4994502862279901
 31
0.0
  0
ARC
  5
73A3
  8
0
 10
381.030094070646328
 20
27.4971860669826285
 30
0.0
 40
0.0204619244442053
 50
182.1901917380494069
 51
245.6957002457002091
  0
ARC
  5
73A4
  8
0
 10
381.0417506339526881
 20
27.5285440133751891
 30
0.0
 40
0.0538867113489935
 50
248.1237726439730125
 51
259.4041469633464203
  0
ARC
  5
73A5
  8
0
 10
381.1181810250943727
 20
27.9750008727931494
 30
0.0
 40
0.5068328123722591
 50
260.1918166831521262
 51
266.474356902129216
  0
ARC
  5
73A6
  8
0
 10
381.0954366394414023
 20
27.5622968760100306
 30
0.0
 40
0.0935495761085988
 50
264.8339542236353168
 51
275.6573694732421131
  0
ARC
  5
73A7
  8
0
 10
381.1018462868718188
 20
27.4896834829105785
 30
0.0
 40
0.020672720938841
 50
277.8190218978219264
 51
342.0845943034406105
  0
ARC
  5
73A8
  8
0
 10
381.0795811302160132
 20
27.6204534288773189
 30
0.0
 40
0.1490104584325516
 50
256.9887939261394081
 51
270.8644557150217906
  0
ARC
  5
73A9
  8
0
 10
381.0485484967986167
 20
27.32879113599164
 30
0.0
 40
0.1464991252208375
 50
76.8692635355395026
 51
90.9839861056231456
  0
LINE
  5
73AA
  8
0
 10
381.1168644137515003
 20
27.4994910289676504
 30
0.0
 11
381.1171505998515272
 21
27.4948357002676502
 31
0.0
  0
ARC
  5
73AB
  8
0
 10
381.1378667906878945
 20
27.4961092270676701
 30
0.0
 40
0.020755298920493
 50
183.5178281598130923
 51
249.1691862127981096
  0
ARC
  5
73AC
  8
0
 10
381.1685821546369084
 20
27.5976557072561803
 30
0.0
 40
0.1268031299025986
 50
252.516244000594213
 51
263.2254675681913909
  0
ARC
  5
73AD
  8
0
 10
381.2007909000266181
 20
27.84099602988044
 30
0.0
 40
0.372258327087326
 50
262.7208061216580859
 51
269.4123917394986734
  0
ARC
  5
73AE
  8
0
 10
381.2008866023438145
 20
27.5191641720901394
 30
0.0
 40
0.0505585754354196
 50
265.5606725051557078
 51
288.5089963467862049
  0
ARC
  5
73AF
  8
0
 10
381.2108981659202982
 20
27.4892583684758414
 30
0.0
 40
0.0190214783105782
 50
288.5089963467862049
 51
349.9797721528552188
  0
LINE
  5
73B0
  8
0
 10
381.2296294979514073
 20
27.4859487102676496
 30
0.0
 11
381.2321598621027761
 21
27.4973127155830284
 31
0.0
  0
ARC
  5
73B1
  8
0
 10
381.2201739013075894
 20
27.4753790458982508
 30
0.0
 40
0.0200446915409962
 50
199.744713327618399
 51
255.6242798424918021
  0
ARC
  5
73B2
  8
0
 10
381.2287516969897183
 20
27.5215719841969104
 30
0.0
 40
0.0669954922702602
 50
258.3273827342483742
 51
264.2098653692830794
  0
ARC
  5
73B3
  8
0
 10
381.3610167862033791
 20
28.7672761508391694
 30
0.0
 40
1.3197010231105151
 50
263.9529550749704185
 51
266.4996650400718181
  0
ARC
  5
73B4
  8
0
 10
381.2916752415875976
 20
27.5492291725444005
 30
0.0
 40
0.0998259641641491
 50
263.5396518540122202
 51
270.5084991358328921
  0
ARC
  5
73B5
  8
0
 10
381.2930224641298764
 20
27.4695087103017883
 30
0.0
 40
0.0201068624472884
 50
268.6854371457412753
 51
347.2677178364144766
  0
ARC
  5
73B6
  8
0
 10
381.3106997813696921
 20
28.1308747949733515
 30
0.0
 40
0.6809363730009379
 50
263.7925327113969729
 51
266.7989442551256047
  0
ARC
  5
73B7
  8
0
 10
381.207928665538418
 20
26.8819829783011706
 30
0.0
 40
0.5726898086978033
 50
83.5083204500653693
 51
87.0831565164580184
  0
LINE
  5
73B8
  8
0
 10
381.3126349093083149
 20
27.4650772419676485
 30
0.0
 11
381.3139431494392966
 21
27.4709140792663185
 31
0.0
  0
LINE
  5
73B9
  8
0
 10
381.3831250734215246
 20
27.4731089519006417
 30
0.0
 11
381.3831709229760918
 21
27.4725836822676506
 31
0.0
  0
ARC
  5
73BA
  8
0
 10
381.403539062808818
 20
27.4743615694336007
 30
0.0
 40
0.0204455863946781
 50
184.9885703536442918
 51
255.5510849264140063
  0
ARC
  5
73BB
  8
0
 10
381.4187487370159033
 20
27.5333900813209809
 30
0.0
 40
0.0814021234118278
 50
255.5510849264140063
 51
263.5875260997103169
  0
ARC
  5
73BC
  8
0
 10
381.4648761311651128
 20
27.9438184081202685
 30
0.0
 40
0.4944144088589512
 50
263.5875260997103169
 51
269.7957828847311248
  0
ARC
  5
73BD
  8
0
 10
381.4651456395459945
 20
27.5196158311147592
 30
0.0
 40
0.0702380826470537
 50
268.3424148424321061
 51
282.9947355331772201
  0
ARC
  5
73BE
  8
0
 10
381.4312663948227282
 20
27.3135786160830207
 30
0.0
 40
0.1402416250464222
 50
79.6025377317237712
 51
94.3494897465006233
  0
ARC
  5
73BF
  8
0
 10
381.4460755098007212
 20
27.593907861892049
 30
0.0
 40
0.1427771570234271
 50
259.734189071059177
 51
274.2178384071709729
  0
ARC
  5
73C0
  8
0
 10
381.2526839586458891
 20
27.7311188623521012
 30
0.0
 40
0.2347052466518591
 50
260.7115163792116164
 51
270.1201748712265953
  0
ARC
  5
73C1
  8
0
 10
381.2539924668150775
 20
27.618730096703711
 30
0.0
 40
0.1223186880868726
 50
269.6176652050882012
 51
282.8841340755261058
  0
LINE
  5
73C2
  8
0
 10
381.2809149335377015
 20
27.4994110192648407
 30
0.0
 11
381.2815758148408918
 21
27.4927262415676488
 31
0.0
  0
ARC
  5
73C3
  8
0
 10
381.3024044856229011
 20
27.4947854393022588
 30
0.0
 40
0.0209302131343752
 50
185.6461206242327933
 51
245.3451497514714106
  0
ARC
  5
73C4
  8
0
 10
381.3200465004729836
 20
27.54202665426698
 30
0.0
 40
0.0713188151123633
 50
248.2972554204231983
 51
262.6561027296967836
  0
ARC
  5
73C5
  8
0
 10
381.3491790367643262
 20
27.7633471483212801
 30
0.0
 40
0.294548243302326
 50
262.5387342208036898
 51
273.2717486340666255
  0
ARC
  5
73C6
  8
0
 10
381.3624188232890901
 20
27.5268125286599208
 30
0.0
 40
0.0576442245900242
 50
273.5512896298300802
 51
289.7795872903482177
  0
ARC
  5
73C7
  8
0
 10
381.3741248958378947
 20
27.4915056096956398
 30
0.0
 40
0.0204802396119692
 50
292.389335879005273
 51
350.1078747857463895
  0
LINE
  5
73C8
  8
0
 10
381.394300654640972
 20
27.4879872334676492
 30
0.0
 11
381.3964246115410219
 21
27.4994910289676504
 31
0.0
  0
LINE
  5
73C9
  8
0
 10
382.0787060726244135
 20
28.7724910289676501
 30
0.0
 11
382.0787060726244135
 21
28.8720894540969404
 31
0.0
  0
ARC
  5
73CA
  8
0
 10
383.5531503366930792
 20
27.8372950269431811
 30
0.0
 40
0.5400313909997781
 50
187.0444618323926136
 51
207.0956253972915135
  0
ARC
  5
73CB
  8
0
 10
382.2863217545307748
 20
27.7025010199277801
 30
0.0
 40
0.7340827961401323
 50
5.3593530405533381
 51
28.6614547198063185
  0
ARC
  5
73CC
  8
0
 10
382.6219707787362267
 20
27.8859701132625197
 30
0.0
 40
0.351563285972193
 50
28.6614547198063185
 51
77.4420617615651707
  0
ARC
  5
73CD
  8
0
 10
382.7078526379361278
 20
28.26734376718683
 30
0.0
 40
0.0393700787214334
 50
185.9999999878617132
 51
256.1227856705547765
  0
LINE
  5
73CE
  8
0
 10
382.668698232624422
 20
28.2632284733676507
 30
0.0
 11
382.6664406657243944
 21
28.2847077871676511
 31
0.0
  0
ARC
  5
73CF
  8
0
 10
382.5881318548574086
 20
28.2764771993081894
 30
0.0
 40
0.0787401577082867
 50
6.0000001293288463
 51
79.4141107642950885
  0
ARC
  5
73D0
  8
0
 10
382.7512295831811002
 20
29.1726253249872585
 30
0.0
 40
0.8321298049891257
 50
237.1621166672329934
 51
259.7107925192352127
  0
ARC
  5
73D1
  8
0
 10
382.5062941648876063
 20
28.7615192054562989
 30
0.0
 40
0.3543098242938806
 50
181.2764080768866108
 51
234.3907278359945963
  0
ARC
  5
73D2
  8
0
 10
382.1324043340716798
 20
28.7528059896746484
 30
0.0
 40
0.0196850392929964
 50
2.38951056087837
 51
90.0000004286813748
  0
ARC
  5
73D3
  8
0
 10
382.0393359937536957
 20
28.8720894540969404
 30
0.0
 40
0.0393700788707072
 50
0.0000001029046331
 51
90.0000000426326494
  0
LINE
  5
73D4
  8
0
 10
381.9429580411743927
 20
28.9114595329676405
 30
0.0
 11
381.9429580411743927
 21
29.7776012651676503
 31
0.0
  0
LINE
  5
73D5
  8
0
 10
381.3524068600743817
 20
29.7776012651676503
 30
0.0
 11
381.3524068600743817
 21
28.9114595329676405
 31
0.0
  0
ARC
  5
73D6
  8
0
 10
381.6476824506244157
 20
29.7776012651676503
 30
0.0
 40
0.2952755905500002
 50
0.0
 51
180.0
  0
ARC
  5
73D7
  8
0
 10
381.6476824506244157
 20
29.7776012651676503
 30
0.0
 40
0.3681102363000015
 50
323.334853598237089
 51
216.665146401762911
  0
ARC
  5
73D8
  8
0
 10
381.6476824506244157
 20
29.7776012651676503
 30
0.0
 40
0.3937007874000002
 50
318.5903778907289734
 51
221.4096221092709129
  0
ARC
  5
73D9
  8
0
 10
381.6476824506244157
 20
29.7776012651676503
 30
0.0
 40
0.4869184999999998
 50
307.3308675186481764
 51
232.6691324813517099
  0
ARC
  5
73DA
  8
0
 10
381.6476824506244157
 20
29.7776012651676503
 30
0.0
 40
0.5179184999999995
 50
304.7585800477856992
 51
235.2414199522141018
  0
ARC
  5
73DB
  8
0
 10
381.6476824506244157
 20
29.7776012651676503
 30
0.0
 40
0.5726288363999981
 50
301.0408570296759194
 51
238.959142970324308
  0
ARC
  5
73DC
  8
0
 10
381.6476824506244157
 20
29.7776012651676503
 30
0.0
 40
0.6108324780571737
 50
298.9076089837299151
 51
241.0923910162701134
  0
ARC
  5
73DD
  8
0
 10
379.9281449535243951
 20
29.7776012651676503
 30
0.0
 40
0.2519850895999944
 50
90.0
 51
270.0
  0
ARC
  5
73DE
  8
0
 10
381.475568243081284
 20
27.4711707202621902
 30
0.0
 40
0.0207031222481677
 50
285.0368961626531927
 51
349.1579647608896835
  0
LINE
  5
73DF
  8
0
 10
381.4959018045244079
 20
27.4672764231676503
 30
0.0
 11
381.4973422518103234
 21
27.4751432699580995
 31
0.0
  0
ARC
  5
73E0
  8
0
 10
381.3426685148209003
 20
27.5591009978104111
 30
0.0
 40
0.0879011027564019
 50
254.3686766980005984
 51
277.8984233017056908
  0
ARC
  5
73E1
  8
0
 10
381.331897180955707
 20
27.3997261505813086
 30
0.0
 40
0.0758323061464014
 50
72.4625628316118195
 51
99.8045371680923807
  0
ARC
  5
73E2
  8
0
 10
381.1825653263468894
 20
27.5896305316304513
 30
0.0
 40
0.1181662804845682
 50
255.8555754780367977
 51
273.3779631579852207
  0
ARC
  5
73E3
  8
0
 10
381.1611065839895787
 20
27.36190939218368
 30
0.0
 40
0.1133801971808807
 50
75.4826425258990668
 51
93.7508961101237475
  0
LINE
  5
73E4
  8
0
 10
380.8414519927243873
 20
27.4994910289676504
 30
0.0
 11
380.8585850692243753
 21
27.4966783168676407
 31
0.0
  0
ARC
  5
73E5
  8
0
 10
380.8618250692002221
 20
27.5164141325044511
 30
0.0
 40
0.0200000004673232
 50
260.676997813524622
 51
302.2040865684189157
  0
ARC
  5
73E6
  8
0
 10
381.053374943291999
 20
27.8045624118981607
 30
0.0
 40
0.3082443230924285
 50
261.7720002446416743
 51
268.5696754641932102
  0
ARC
  5
73E7
  8
0
 10
381.0467854055810903
 20
27.540654286557519
 30
0.0
 40
0.0442539432903398
 50
268.5696754641932102
 51
291.5401960007097273
  0
LINE
  5
73E8
  8
0
 10
381.4830533297222246
 20
27.4985605055295395
 30
0.0
 11
381.4836301261610743
 21
27.4927262415676488
 31
0.0
  0
ARC
  5
73E9
  8
0
 10
381.5044587969430268
 20
27.4947854393022588
 30
0.0
 40
0.0209302131343752
 50
185.6461206242327933
 51
245.3451497514714106
  0
ARC
  5
73EA
  8
0
 10
381.5221008117932229
 20
27.54202665426698
 30
0.0
 40
0.0713188151123633
 50
248.2972554204231983
 51
262.6561027296967836
  0
ARC
  5
73EB
  8
0
 10
381.5512333480845086
 20
27.7633471483212801
 30
0.0
 40
0.294548243302326
 50
262.5387342208036898
 51
273.2717486340666255
  0
ARC
  5
73EC
  8
0
 10
381.5644731346092726
 20
27.5268125286599208
 30
0.0
 40
0.0576442245900242
 50
273.5512896298300802
 51
289.7795872903482177
  0
ARC
  5
73ED
  8
0
 10
381.5761792071580203
 20
27.4915056096956398
 30
0.0
 40
0.0204802396119692
 50
292.389335879005273
 51
350.1078747857463895
  0
LINE
  5
73EE
  8
0
 10
381.5963549659610976
 20
27.4879872334676492
 30
0.0
 11
381.5984789228610907
 21
27.4994910289676504
 31
0.0
  0
ARC
  5
73EF
  8
0
 10
381.5447228261410828
 20
27.5591009978104111
 30
0.0
 40
0.0879011027564019
 50
254.3686766980005984
 51
277.8984233017056908
  0
ARC
  5
73F0
  8
0
 10
381.5339514922757758
 20
27.3997261505813086
 30
0.0
 40
0.0758323061464014
 50
72.4625628316118195
 51
99.8045371680923807
  0
ARC
  5
73F1
  8
0
 10
381.514726085805421
 20
27.7311188623521012
 30
0.0
 40
0.2347052466518591
 50
260.7115163792116164
 51
270.1201748712265953
  0
ARC
  5
73F2
  8
0
 10
381.5160345939746094
 20
27.618730096703711
 30
0.0
 40
0.1223186880868726
 50
269.6176652050882012
 51
282.8841340755261058
  0
LINE
  5
73F3
  8
0
 10
381.8127564635095723
 20
27.4982045264144901
 30
0.0
 11
381.8122148604537074
 21
27.4927262415676488
 31
0.0
  0
ARC
  5
73F4
  8
0
 10
381.7913861896718117
 20
27.4947854393022588
 30
0.0
 40
0.0209302131343752
 50
294.6548502485284757
 51
354.3538793757670078
  0
ARC
  5
73F5
  8
0
 10
381.7737441748216725
 20
27.54202665426698
 30
0.0
 40
0.0713188151123633
 50
277.3438972703031027
 51
291.702744579576688
  0
ARC
  5
73F6
  8
0
 10
381.7446116385303867
 20
27.7633471483212801
 30
0.0
 40
0.294548243302326
 50
266.7282513659333176
 51
277.4612657791961965
  0
ARC
  5
73F7
  8
0
 10
381.731371852005509
 20
27.5268125286599208
 30
0.0
 40
0.0576442245900242
 50
250.2204127096518107
 51
266.4487103701699198
  0
ARC
  5
73F8
  8
0
 10
381.7196657794568182
 20
27.4915056096956398
 30
0.0
 40
0.0204802396119692
 50
189.8921252142534968
 51
247.6106641209916006
  0
LINE
  5
73F9
  8
0
 10
381.699490020653684
 20
27.4879872334676492
 30
0.0
 11
381.6973660637536909
 21
27.4994910289676504
 31
0.0
  0
ARC
  5
73FA
  8
0
 10
381.7511221604738125
 20
27.5591009978104111
 30
0.0
 40
0.0879011027564019
 50
262.1015766982943092
 51
285.6313233019993731
  0
ARC
  5
73FB
  8
0
 10
381.7618934943390059
 20
27.3997261505813086
 30
0.0
 40
0.0758323061464014
 50
80.1954628319076051
 51
107.5374371683881947
  0
LINE
  5
73FC
  8
0
 10
382.1786255076066254
 20
27.4964040787676502
 30
0.0
 11
382.178730002606585
 21
27.4994910289676611
 31
0.0
  0
ARC
  5
73FD
  8
0
 10
382.1581785311457224
 20
27.4971860669826285
 30
0.0
 40
0.0204619244442053
 50
294.3042997542996773
 51
357.8098082619504794
  0
ARC
  5
73FE
  8
0
 10
382.0700915766975072
 20
27.9750008727931494
 30
0.0
 40
0.5068328123722591
 50
273.525643097870784
 51
279.808183316847817
  0
ARC
  5
73FF
  8
0
 10
382.0928359623505912
 20
27.5622968760100306
 30
0.0
 40
0.0935495761085988
 50
264.3426305267577732
 51
275.1660457763646264
  0
ARC
  5
7400
  8
0
 10
382.0867369007081038
 20
27.4903848415269003
 30
0.0
 40
0.0214108647012138
 50
194.2235857381537869
 51
261.6128985610030213
  0
ARC
  5
7401
  8
0
 10
382.1086914715759804
 20
27.6204534288773189
 30
0.0
 40
0.1490104584325516
 50
269.1355442849782094
 51
283.0112060738605919
  0
ARC
  5
7402
  8
0
 10
382.1397241049933768
 20
27.32879113599164
 30
0.0
 40
0.1464991252208375
 50
89.0160138943768544
 51
103.1307364644604974
  0
LINE
  5
7403
  8
0
 10
382.014072328037912
 20
27.4994910289676611
 30
0.0
 11
382.0134035366860985
 21
27.4927262415676488
 31
0.0
  0
ARC
  5
7404
  8
0
 10
381.9925748659042029
 20
27.4947854393022588
 30
0.0
 40
0.0209302131343752
 50
294.6548502485284757
 51
354.3538793757670078
  0
ARC
  5
7405
  8
0
 10
381.9749328510541204
 20
27.54202665426698
 30
0.0
 40
0.0713188151123633
 50
277.3438972703031027
 51
291.702744579576688
  0
ARC
  5
7406
  8
0
 10
381.9458003147627778
 20
27.7633471483212801
 30
0.0
 40
0.294548243302326
 50
266.7282513659333176
 51
277.4612657791961965
  0
ARC
  5
7407
  8
0
 10
381.9325605282379001
 20
27.5268125286599208
 30
0.0
 40
0.0576442245900242
 50
250.2204127096518107
 51
266.4487103701699198
  0
ARC
  5
7408
  8
0
 10
381.9208544556892093
 20
27.4915056096956398
 30
0.0
 40
0.0204802396119692
 50
189.8921252142534968
 51
247.6106641209916006
  0
LINE
  5
7409
  8
0
 10
381.9006786968860752
 20
27.4879872334676492
 30
0.0
 11
381.898554739986082
 21
27.4994910289676504
 31
0.0
  0
ARC
  5
740A
  8
0
 10
381.95231083670609
 20
27.5591009978104111
 30
0.0
 40
0.0879011027564019
 50
262.1015766982943092
 51
285.6313233019993731
  0
ARC
  5
740B
  8
0
 10
381.963082170571397
 20
27.3997261505813086
 30
0.0
 40
0.0758323061464014
 50
80.1954628319076051
 51
107.5374371683881947
  0
ARC
  5
740C
  8
0
 10
381.7555070708015137
 20
27.4732408545627997
 30
0.0
 40
0.0210732149243725
 50
280.4254582465151202
 51
352.5807224312645758
  0
ARC
  5
740D
  8
0
 10
381.7160252593338896
 20
27.7543125627389813
 30
0.0
 40
0.3048867260488997
 50
263.369393757906721
 51
278.1638266421340973
  0
ARC
  5
740E
  8
0
 10
381.6840198958253723
 20
27.4719131208361986
 30
0.0
 40
0.0206967237067006
 50
188.7137697350669896
 51
261.1077621535262097
  0
LINE
  5
740F
  8
0
 10
381.6635620639244166
 20
27.4687776007676412
 30
0.0
 11
381.6587827090244218
 21
27.4994910289676504
 31
0.0
  0
LINE
  5
7410
  8
0
 10
382.024765396312489
 20
27.4974879707265991
 30
0.0
 11
382.0228916088244091
 21
27.4731622760676508
 31
0.0
  0
ARC
  5
7411
  8
0
 10
382.0026820461615102
 20
27.4747190014228302
 30
0.0
 40
0.0202694306002095
 50
288.4733091150791893
 51
355.5952531261983722
  0
ARC
  5
7412
  8
0
 10
381.9410781687694225
 20
27.8402070412651312
 30
0.0
 40
0.3906810836067253
 50
268.4033186397265922
 51
280.0276179328997159
  0
ARC
  5
7413
  8
0
 10
381.9308086584902071
 20
27.4707194873631302
 30
0.0
 40
0.0210508645114033
 50
192.77534313131261
 51
268.3222580275962059
  0
LINE
  5
7414
  8
0
 10
381.9102789164243745
 20
27.4660645343676393
 30
0.0
 11
381.9083892882889018
 21
27.4752556922729099
 31
0.0
  0
ARC
  5
7415
  8
0
 10
382.0374560652396099
 20
27.5694020523800916
 30
0.0
 40
0.0730560814160302
 50
253.1269246440375014
 51
272.4752051699758795
  0
ARC
  5
7416
  8
0
 10
382.0391429122868772
 20
27.7608589978551485
 30
0.0
 40
0.2644489417469099
 50
270.3181096682404245
 51
278.7545373601876122
  0
LINE
  5
7417
  8
0
 10
382.0630351251696197
 20
27.4974915644951601
 30
0.0
 11
382.0659824013243906
 21
27.48512405426764
 31
0.0
  0
ARC
  5
7418
  8
0
 10
382.1462829162866228
 20
27.5293649065313986
 30
0.0
 40
0.0547376285245044
 50
280.6838095666477102
 51
291.7882708258890148
  0
ARC
  5
7419
  8
0
 10
382.0272594902244236
 20
27.4694071397676609
 30
0.0
 40
0.0200000000000204
 50
219.6461422316610026
 51
274.7035350920698988
  0
LINE
  5
741A
  8
0
 10
382.0288994902243758
 20
27.4494744931676387
 30
0.0
 11
382.1018814111243955
 21
27.4554792326676491
 31
0.0
  0
ARC
  5
741B
  8
0
 10
382.1002414111242729
 20
27.4754118792512116
 30
0.0
 40
0.0199999999956416
 50
274.7035350932396796
 51
346.0699065012595952
  0
LINE
  5
741C
  8
0
 10
382.3230853916243746
 20
27.4994910289676504
 30
0.0
 11
382.3230482107243802
 21
27.4973447445676413
 31
0.0
  0
ARC
  5
741D
  8
0
 10
382.303051211143611
 20
27.4976911601879195
 30
0.0
 40
0.0199999999003822
 50
277.0075420424523145
 51
359.0075427164583743
  0
LINE
  5
741E
  8
0
 10
382.305491211024389
 20
27.4778405582676406
 30
0.0
 11
382.2328096903244159
 21
27.4689066775676487
 31
0.0
  0
ARC
  5
741F
  8
0
 10
382.230369690323073
 20
27.4887572796252684
 30
0.0
 40
0.0200000000514173
 50
244.2877605918214101
 51
277.007542337299185
  0
LINE
  5
7420
  8
0
 10
382.2858077381691828
 20
27.499447073578871
 30
0.0
 11
382.2857452080244229
 21
27.4969214373676394
 31
0.0
  0
ARC
  5
7421
  8
0
 10
382.265606196128374
 20
27.4974200425601616
 30
0.0
 40
0.0201451832278407
 50
295.0853058751742992
 51
358.5817507636123196
  0
ARC
  5
7422
  8
0
 10
382.2562905198623184
 20
27.5233640596652194
 30
0.0
 40
0.0476605705343266
 50
279.804234019626108
 51
292.0033822027855877
  0
ARC
  5
7423
  8
0
 10
382.1522756180448255
 20
28.1583625444322116
 30
0.0
 40
0.6911199609082653
 50
274.0003388389433781
 51
279.3372194169825775
  0
ARC
  5
7424
  8
0
 10
382.1963630162215964
 20
27.5352437376058887
 30
0.0
 40
0.0664456109812074
 50
264.981186584626812
 51
273.5607890469614176
  0
ARC
  5
7425
  8
0
 10
382.1932701975935061
 20
27.4891608616126
 30
0.0
 40
0.0202911213952025
 50
195.2016953303019022
 51
262.2962887309963094
  0
ARC
  5
7426
  8
0
 10
382.2562251604481958
 20
27.2609004657717584
 30
0.0
 40
0.2146386489857188
 50
91.7816766614329964
 51
101.4021295295487022
  0
ARC
  5
7427
  8
0
 10
382.2068204674371827
 20
27.6884218956164716
 30
0.0
 40
0.2172308368501919
 50
271.8392092975309993
 51
281.3445968934493067
  0
ARC
  5
7428
  8
0
 10
382.2494768552811024
 20
27.5457366322298611
 30
0.0
 40
0.049322935793269
 50
249.653735283560593
 51
270.2407814659406995
  0
ARC
  5
7429
  8
0
 10
382.2439611928992917
 20
27.7812168563179895
 30
0.0
 40
0.2848602180295965
 50
271.1511689969698864
 51
278.5074091429189025
  0
ARC
  5
742A
  8
0
 10
382.3852625475194031
 20
27.5194578092773909
 30
0.0
 40
0.023060637996599
 50
239.9785500903037985
 51
272.1976084206896758
  0
ARC
  5
742B
  8
0
 10
382.366803642667378
 20
27.8331720006550185
 30
0.0
 40
0.3373129424378036
 50
273.2874264569392722
 51
278.4155548369316762
  0
ARC
  5
742C
  8
0
 10
382.4335398319541923
 20
27.5164141315419286
 30
0.0
 40
0.0199999995490148
 50
237.7959124344980921
 51
279.3230031827927746
  0
LINE
  5
742D
  8
0
 10
382.4367798321243868
 20
27.4966783168676407
 30
0.0
 11
382.4539129085243871
 21
27.4994910289676504
 31
0.0
  0
ARC
  5
742E
  8
0
 10
381.7811147057207108
 20
27.6291429317344317
 30
0.0
 40
0.1327633906511114
 50
257.5710518232945105
 51
271.3079427201769249
  0
ARC
  5
742F
  8
0
 10
381.7856546892238043
 20
27.7017970806422014
 30
0.0
 40
0.2053884960420065
 50
269.5788914907117828
 51
279.9389807644330972
  0
ARC
  5
7430
  8
0
 10
381.9569434529275895
 20
27.6224601574668007
 30
0.0
 40
0.1712765026826259
 50
267.5769948505957814
 51
279.6415292960547845
  0
ARC
  5
7431
  8
0
 10
381.9782284739897023
 20
27.2850149122271013
 30
0.0
 40
0.1687504112881347
 50
87.4863527244462347
 51
99.7321714222045017
  0
ARC
  5
7432
  8
0
 10
381.647682450624302
 20
32.9337185880966814
 30
0.0
 40
5.4500000000290392
 50
269.4484873011588775
 51
270.1424722072525242
  0
ARC
  5
7433
  8
0
 10
381.7217811918907842
 20
27.3431184128806812
 30
0.0
 40
0.110824399898407
 50
81.4736570005729419
 51
100.1655405161233006
  0
ARC
  5
7434
  8
0
 10
381.7186395763857263
 20
27.5627246894194613
 30
0.0
 40
0.1117344126351616
 50
261.5504482476937937
 51
280.0887492690018803
  0
ARC
  5
7435
  8
0
 10
381.6476824506262915
 20
32.9337185880230265
 30
0.0
 40
5.4499999999553461
 50
271.7114469381863273
 51
272.6576069354106835
  0
CIRCLE
  5
7436
  8
0
 10
382.9019824506244163
 20
29.7761839423676484
 30
0.0
 40
0.2756904025185802
  0
CIRCLE
  5
7437
  8
0
 10
382.9270986539244177
 20
29.7764394402676515
 30
0.0
 40
0.2502409041000011
  0
ARC
  5
7439
  8
0
 10
383.0731070742724
 20
27.5544910275243886
 30
0.0
 40
0.0150000024887217
 50
21.1970069742146592
 51
89.9786082493556876
  0
ARC
  5
743A
  8
0
 10
382.9718683228265945
 20
27.5143874674466886
 30
0.0
 40
0.1238921774123713
 50
14.6644179851870593
 51
21.559938790334769
  0
ARC
  5
743B
  8
0
 10
383.0306649214250001
 20
27.5299484666437202
 30
0.0
 40
0.0630717171414601
 50
1.8224926933313941
 51
14.5106038412529603
  0
ARC
  5
743C
  8
0
 10
383.0688896856161136
 20
27.5309643164126392
 30
0.0
 40
0.024834789655904
 50
313.419244273684626
 51
2.2846777611485281
  0
ARC
  5
743D
  8
0
 10
383.0635496380228915
 20
27.5386543571497384
 30
0.0
 40
0.0341198047995278
 50
289.7034594145226265
 51
311.0560392008792974
  0
ARC
  5
743E
  8
0
 10
383.0439371719240853
 20
27.5918820466058499
 30
0.0
 40
0.090844886051951
 50
277.0018364381999731
 51
290.0303730096964046
  0
ARC
  5
743F
  8
0
 10
383.0167491528977166
 20
27.8286895847683802
 30
0.0
 40
0.3292060012790265
 50
270.3853460202984138
 51
276.6743121755021093
  0
ARC
  5
7440
  8
0
 10
383.0590349821150085
 20
27.5844910289844414
 30
0.0
 40
0.015000000016796
 50
270.0000000359626142
 51
27.0956253972917409
  0
CIRCLE
  5
7441
  8
0
 10
382.9019818799657742
 20
29.7776012651676396
 30
0.0
 40
0.4488184932546982
  0
ENDSEC
  0
EOF
