  0
SECTION
  2
HEADER
  9
$ACADVER
  1
AC1009
  9
$INSBASE
 10
363.5583731297182908
 20
29.7401059156671188
 30
0.0
  9
$EXTMIN
 10
361.5652005928462245
 20
6.2158693817413271
 30
-0.0000000000112498
  9
$EXTMAX
 10
365.3560098721865756
 20
38.6028278332675185
 30
0.0000000000002956
  9
$LIMMIN
 10
0.0
 20
0.0
  9
$LIMMAX
 10
22.0
 20
17.0
  9
$ORTHOMODE
 70
     0
  9
$REGENMODE
 70
     1
  9
$FILLMODE
 70
     1
  9
$QTEXTMODE
 70
     0
  9
$MIRRTEXT
 70
     0
  9
$DRAGMODE
 70
     2
  9
$LTSCALE
 40
1.2099999999999991
  9
$OSMODE
 70
     7
  9
$ATTMODE
 70
     1
  9
$TEXTSIZE
 40
0.2
  9
$TRACEWID
 40
0.05
  9
$TEXTSTYLE
  7
STANDARD
  9
$CLAYER
  8
0
  9
$CELTYPE
  6
BYLAYER
  9
$CECOLOR
 62
   256
  9
$DIMSCALE
 40
1.0
  9
$DIMASZ
 40
0.1875
  9
$DIMEXO
 40
0.0625
  9
$DIMDLI
 40
0.38
  9
$DIMRND
 40
0.0
  9
$DIMDLE
 40
0.0
  9
$DIMEXE
 40
0.125
  9
$DIMTP
 40
1.5
  9
$DIMTM
 40
1.5
  9
$DIMTXT
 40
1.5
  9
$DIMCEN
 40
0.09
  9
$DIMTSZ
 40
0.0
  9
$DIMTOL
 70
     0
  9
$DIMLIM
 70
     0
  9
$DIMTIH
 70
     1
  9
$DIMTOH
 70
     1
  9
$DIMSE1
 70
     0
  9
$DIMSE2
 70
     0
  9
$DIMTAD
 70
     0
  9
$DIMZIN
 70
     4
  9
$DIMBLK
  1

  9
$DIMASO
 70
     1
  9
$DIMSHO
 70
     1
  9
$DIMPOST
  1

  9
$DIMAPOST
  1

  9
$DIMALT
 70
     0
  9
$DIMALTD
 70
     2
  9
$DIMALTF
 40
25.3999999999999986
  9
$DIMLFAC
 40
1.0
  9
$DIMTOFL
 70
     0
  9
$DIMTVP
 40
0.0
  9
$DIMTIX
 70
     0
  9
$DIMSOXD
 70
     0
  9
$DIMSAH
 70
     0
  9
$DIMBLK1
  1

  9
$DIMBLK2
  1

  9
$DIMSTYLE
  2
STANDARD
  9
$DIMCLRD
 70
     0
  9
$DIMCLRE
 70
     0
  9
$DIMCLRT
 70
     0
  9
$DIMTFAC
 40
1.0
  9
$DIMGAP
 40
0.09
  9
$LUNITS
 70
     2
  9
$LUPREC
 70
     4
  9
$SKETCHINC
 40
0.1
  9
$FILLETRAD
 40
0.0
  9
$AUNITS
 70
     0
  9
$AUPREC
 70
     0
  9
$MENU
  1
.
  9
$ELEVATION
 40
0.0
  9
$PELEVATION
 40
0.0
  9
$THICKNESS
 40
0.0
  9
$LIMCHECK
 70
     0
  9
$BLIPMODE
 70
     0
  9
$CHAMFERA
 40
0.0
  9
$CHAMFERB
 40
0.0
  9
$SKPOLY
 70
     0
  9
$TDCREATE
 40
2457827.4934837957844138
  9
$TDUPDATE
 40
2459485.5666203699074686
  9
$TDINDWG
 40
0.4372704861
  9
$TDUSRTIMER
 40
0.4372704861
  9
$USRTIMER
 70
     1
  9
$ANGBASE
 50
0.0
  9
$ANGDIR
 70
     0
  9
$PDMODE
 70
     0
  9
$PDSIZE
 40
0.3125
  9
$PLINEWID
 40
0.0
  9
$COORDS
 70
     1
  9
$SPLFRAME
 70
     0
  9
$SPLINETYPE
 70
     6
  9
$SPLINESEGS
 70
     8
  9
$ATTDIA
 70
     1
  9
$ATTREQ
 70
     1
  9
$HANDLING
 70
     1
  9
$HANDSEED
  5
7358
  9
$SURFTAB1
 70
     6
  9
$SURFTAB2
 70
     6
  9
$SURFTYPE
 70
     6
  9
$SURFU
 70
     6
  9
$SURFV
 70
     6
  9
$UCSNAME
  2

  9
$UCSORG
 10
0.0
 20
0.0
 30
0.0
  9
$UCSXDIR
 10
1.0
 20
0.0
 30
0.0
  9
$UCSYDIR
 10
0.0
 20
1.0
 30
0.0
  9
$PUCSNAME
  2

  9
$PUCSORG
 10
0.0
 20
0.0
 30
0.0
  9
$PUCSXDIR
 10
1.0
 20
0.0
 30
0.0
  9
$PUCSYDIR
 10
0.0
 20
1.0
 30
0.0
  9
$USERI1
 70
     0
  9
$USERI2
 70
     0
  9
$USERI3
 70
     0
  9
$USERI4
 70
     0
  9
$USERI5
 70
     0
  9
$USERR1
 40
0.0
  9
$USERR2
 40
0.0
  9
$USERR3
 40
0.0
  9
$USERR4
 40
0.0
  9
$USERR5
 40
0.0
  9
$WORLDVIEW
 70
     1
  9
$SHADEDGE
 70
     3
  9
$SHADEDIF
 70
    70
  9
$TILEMODE
 70
     1
  9
$MAXACTVP
 70
    48
  9
$PLIMCHECK
 70
     0
  9
$PEXTMIN
 10
1.0000000000000000E+20
 20
1.0000000000000000E+20
 30
1.0000000000000000E+20
  9
$PEXTMAX
 10
-1.0000000000000000E+20
 20
-1.0000000000000000E+20
 30
-1.0000000000000000E+20
  9
$PLIMMIN
 10
0.0
 20
0.0
  9
$PLIMMAX
 10
12.0
 20
9.0
  9
$UNITMODE
 70
     0
  9
$VISRETAIN
 70
     1
  9
$PLINEGEN
 70
     0
  9
$PSLTSCALE
 70
     1
  0
ENDSEC
  0
SECTION
  2
TABLES
  0
TABLE
  2
VPORT
 70
     1
  0
VPORT
  2
*ACTIVE
 70
     0
 10
0.0
 20
0.0
 11
1.0
 21
1.0
 12
152.4816776202117126
 22
15.20689942194387
 13
0.0
 23
0.0
 14
1.0
 24
1.0
 15
0.0
 25
0.0
 16
-0.0000000000000284
 26
0.0
 36
157.2215818301446859
 17
210.9789276123046875
 27
7.2024491855605604
 37
0.0
 40
32.6314376319949133
 41
2.2118055555555549
 42
50.0
 43
0.0
 44
0.0
 50
0.0
 51
0.0
 71
     0
 72
   100
 73
     1
 74
     1
 75
     0
 76
     0
 77
     0
 78
     0
  0
ENDTAB
  0
TABLE
  2
LTYPE
 70
     2
  0
LTYPE
  2
CONTINUOUS
 70
     0
  3
Solid line
 72
    65
 73
     0
 40
0.0
  0
LTYPE
  2
PHANTOM2
 70
     0
  3
___ _ _ ___ _ _ ___ _ _ ___ _ _
 72
    65
 73
     6
 40
1.25
 49
0.625
 49
-0.125
 49
0.125
 49
-0.125
 49
0.125
 49
-0.125
  0
ENDTAB
  0
TABLE
  2
LAYER
 70
     2
  0
LAYER
  2
0
 70
     0
 62
     7
  6
CONTINUOUS
  0
LAYER
  2
DEFPOINTS
 70
     0
 62
     7
  6
CONTINUOUS
  0
ENDTAB
  0
TABLE
  2
STYLE
 70
     1
  0
STYLE
  2
STANDARD
 70
     0
 40
0.0
 41
0.8
 50
0.0
 71
     0
 42
0.2
  3
txt
  4

  0
ENDTAB
  0
TABLE
  2
VIEW
 70
     0
  0
ENDTAB
  0
TABLE
  2
UCS
 70
     0
  0
ENDTAB
  0
TABLE
  2
APPID
 70
     9
  0
APPID
  2
ACAD
 70
     0
  0
APPID
  2
ACAD_MLEADERVER
 70
     0
  0
APPID
  2
ACAD_EXEMPT_FROM_CAD_STANDARDS
 70
     0
  0
APPID
  2
ACAD_NAV_VCDISPLAY
 70
     0
  0
APPID
  2
ACADANNOMONITORALERTICONDI
 70
     0
  0
APPID
  2
ACAD_DSTYLE_DIMJAG
 70
     0
  0
APPID
  2
ACAD_DSTYLE_DIMTALN
 70
     0
  0
APPID
  2
ACDBATTR
 70
     0
  0
APPID
  2
DCO15
 70
     0
  0
ENDTAB
  0
TABLE
  2
DIMSTYLE
 70
     1
  0
DIMSTYLE
  2
STANDARD
 70
     0
  3

  4

  5

  6

  7

 40
1.0
 41
0.1875
 42
0.0625
 43
0.38
 44
0.125
 45
0.0
 46
0.0
 47
1.5
 48
1.5
140
1.5
141
0.09
142
0.0
143
25.3999999999999986
144
1.0
145
0.0
146
1.0
147
0.09
 71
     0
 72
     0
 73
     1
 74
     1
 75
     0
 76
     0
 77
     0
 78
     4
170
     0
171
     2
172
     0
173
     0
174
     0
175
     0
176
     0
177
     0
178
     0
  0
ENDTAB
  0
ENDSEC
  0
SECTION
  2
BLOCKS
  0
BLOCK
  8
0
  2
$MODEL_SPACE
 70
     0
 10
0.0
 20
0.0
 30
0.0
  3
$MODEL_SPACE
  1

  0
ENDBLK
  5
21
  8
0
  0
BLOCK
 67
     1
  8
0
  2
$PAPER_SPACE
 70
     0
 10
0.0
 20
0.0
 30
0.0
  3
$PAPER_SPACE
  1

  0
ENDBLK
  5
1D
 67
     1
  8
0
  0
ENDSEC
  0
SECTION
  2
ENTITIES
  0
ATTDEF
  5
4EF9
  8
DEFPOINTS
 10
363.5583780871360204
 20
29.7434535112236915
 30
0.0
 40
0.001
  1
P21425-MB
  3

  2
MODELNUMBER
 70
     0
1001
ACDBATTR
1070
     0
1070
     1
  0
ATTDEF
  5
4EFA
  8
DEFPOINTS
 10
363.5583780871360204
 20
29.7417868445570086
 30
0.0
 40
0.001
  1

  3

  2
TRADENAME
 70
     0
1001
ACDBATTR
1070
     0
1070
     1
  0
ATTDEF
  5
4EFB
  8
DEFPOINTS
 10
363.5583780871360204
 20
29.7401201778903292
 30
0.0
 40
0.001
  1
HANDSHOWER
  3

  2
PRODUCT
 70
     0
1001
ACDBATTR
1070
     0
1070
     1
  0
CIRCLE
  5
718A
  8
0
 10
363.5583731297182908
 20
37.1555492972671217
 30
0.0
 40
1.446042024647562
  0
CIRCLE
  5
718B
  8
0
 10
363.9760811297683176
 20
37.1555492972671217
 30
0.0
 40
0.0179393819499998
  0
CIRCLE
  5
718C
  8
0
 10
363.9746693736183261
 20
37.1555492972671217
 30
0.0
 40
0.0562296239000002
  0
CIRCLE
  5
718D
  8
0
 10
363.9683731297183158
 20
37.1555492972671217
 30
0.0
 40
0.069
  0
CIRCLE
  5
718E
  8
0
 10
363.878356022003004
 20
37.4240468241662114
 30
0.0
 40
0.0179393819499998
  0
CIRCLE
  5
718F
  8
0
 10
363.8772745540492224
 20
37.4231393648050883
 30
0.0
 40
0.0562296239000002
  0
CIRCLE
  5
7190
  8
0
 10
363.8724513513971033
 20
37.4190922172385996
 30
0.0
 40
0.069
  0
CIRCLE
  5
7191
  8
0
 10
363.6309073627239172
 20
37.5669113742115925
 30
0.0
 40
0.0179393819499998
  0
CIRCLE
  5
7192
  8
0
 10
363.6306622138411058
 20
37.5655210658097118
 30
0.0
 40
0.0562296239000002
  0
CIRCLE
  5
7193
  8
0
 10
363.6295688825617276
 20
37.559320476002128
 30
0.0
 40
0.069
  0
CIRCLE
  5
7194
  8
0
 10
363.3495191296933058
 20
37.5172950366744118
 30
0.0
 40
0.0179393819499998
  0
CIRCLE
  5
7195
  8
0
 10
363.3502250077683016
 20
37.5160724199845674
 30
0.0
 40
0.0562296239000002
  0
CIRCLE
  5
7196
  8
0
 10
363.3533731297183067
 20
37.5106197128187375
 30
0.0
 40
0.069
  0
CIRCLE
  5
7197
  8
0
 10
363.1658560044281217
 20
37.2984138473125029
 30
0.0
 40
0.0179393819499998
  0
CIRCLE
  5
7198
  8
0
 10
363.167182621264601
 20
37.2979309982717382
 30
0.0
 40
0.0562296239000002
  0
CIRCLE
  5
7199
  8
0
 10
363.1730991551960983
 20
37.295777556030643
 30
0.0
 40
0.069
  0
CIRCLE
  5
719A
  8
0
 10
363.1658560044281217
 20
37.0126847472217406
 30
0.0
 40
0.0179393819499998
  0
CIRCLE
  5
719B
  8
0
 10
363.167182621264601
 20
37.0131675962625124
 30
0.0
 40
0.0562296239000002
  0
CIRCLE
  5
719C
  8
0
 10
363.1730991551960983
 20
37.0153210385036004
 30
0.0
 40
0.069
  0
CIRCLE
  5
719D
  8
0
 10
363.3495191296933058
 20
36.7938035578598317
 30
0.0
 40
0.0179393819499998
  0
CIRCLE
  5
719E
  8
0
 10
363.3502250077683016
 20
36.7950261745496832
 30
0.0
 40
0.0562296239000002
  0
CIRCLE
  5
719F
  8
0
 10
363.3533731297183067
 20
36.8004788817155131
 30
0.0
 40
0.069
  0
CIRCLE
  5
71A0
  8
0
 10
363.6309073627239172
 20
36.744187220322658
 30
0.0
 40
0.0179393819499998
  0
CIRCLE
  5
71A1
  8
0
 10
363.6306622138411058
 20
36.7455775287245388
 30
0.0
 40
0.0562296239000002
  0
CIRCLE
  5
71A2
  8
0
 10
363.6295688825617276
 20
36.7517781185321226
 30
0.0
 40
0.069
  0
CIRCLE
  5
71A3
  8
0
 10
363.878356022003004
 20
36.8870517703680392
 30
0.0
 40
0.0179393819499998
  0
CIRCLE
  5
71A4
  8
0
 10
363.8772745540492224
 20
36.8879592297291623
 30
0.0
 40
0.0562296239000002
  0
CIRCLE
  5
71A5
  8
0
 10
363.8734879364798189
 20
36.8911365790970009
 30
0.0
 40
0.0646730970474616
  0
CIRCLE
  5
71A6
  8
0
 10
364.1798411297182838
 20
37.1555492972671217
 30
0.0
 40
0.0178655417999996
  0
CIRCLE
  5
71A7
  8
0
 10
364.1777407121182932
 20
37.1555492972671217
 30
0.0
 40
0.0559981777000003
  0
CIRCLE
  5
71A8
  8
0
 10
364.1733731297182999
 20
37.1555492972671217
 30
0.0
 40
0.069
  0
CIRCLE
  5
71A9
  8
0
 10
364.3836011297682944
 20
37.1555492972671217
 30
0.0
 40
0.0177622336500001
  0
CIRCLE
  5
71AA
  8
0
 10
364.3808144734103962
 20
37.1555492971954706
 30
0.0
 40
0.0556767888920851
  0
CIRCLE
  5
71AB
  8
0
 10
364.3733731297182885
 20
37.1555492972671217
 30
0.0
 40
0.0689999999999991
  0
CIRCLE
  5
71AC
  8
0
 10
364.1423620233729253
 20
37.3681038716994394
 30
0.0
 40
0.0178655417999996
  0
CIRCLE
  5
71AD
  8
0
 10
364.1403882764536206
 20
37.3673854865708392
 30
0.0
 40
0.0559981777000003
  0
CIRCLE
  5
71AE
  8
0
 10
364.1362840915015795
 20
37.3658916854124072
 30
0.0
 40
0.069
  0
CIRCLE
  5
71AF
  8
0
 10
364.3338337918311822
 20
37.4377938961205814
 30
0.0
 40
0.0177622336500001
  0
CIRCLE
  5
71B0
  8
0
 10
364.3312151914395258
 20
37.4368408034463016
 30
0.0
 40
0.0556767888920851
  0
CIRCLE
  5
71B1
  8
0
 10
364.3242226156588117
 20
37.4342957140775425
 30
0.0
 40
0.0689999999999991
  0
CIRCLE
  5
71B2
  8
0
 10
364.0344452376946265
 20
37.5550212274837918
 30
0.0
 40
0.0178655417999996
  0
CIRCLE
  5
71B3
  8
0
 10
364.0328362244638924
 20
37.5536711050753524
 30
0.0
 40
0.0559981777000003
  0
CIRCLE
  5
71B4
  8
0
 10
364.0294904622364811
 20
37.550863677224342
 30
0.0
 40
0.069
  0
CIRCLE
  5
71B5
  8
0
 10
364.1905344534628171
 20
37.6859956308656621
 30
0.0
 40
0.0177622336500001
  0
CIRCLE
  5
71B6
  8
0
 10
364.1883997508909943
 20
37.6842044026314511
 30
0.0
 40
0.0556767888920851
  0
CIRCLE
  5
71B7
  8
0
 10
364.1826993508602754
 20
37.6794211991616592
 30
0.0
 40
0.0689999999999991
  0
CIRCLE
  5
71B8
  8
0
 10
363.8691071297183157
 20
37.693756372906229
 30
0.0
 40
0.0178655417999996
  0
CIRCLE
  5
71B9
  8
0
 10
363.8680569209183204
 20
37.6919373579060704
 30
0.0
 40
0.0559981777000003
  0
CIRCLE
  5
71BA
  8
0
 10
363.8658731297182953
 20
37.6881549205945632
 30
0.0
 40
0.069
  0
CIRCLE
  5
71BB
  8
0
 10
363.970987129743321
 20
37.8702177092246473
 30
0.0
 40
0.0177622336500001
  0
CIRCLE
  5
71BC
  8
0
 10
363.9695938016263881
 20
37.8678043939912499
 30
0.0
 40
0.0556767888920851
  0
CIRCLE
  5
71BD
  8
0
 10
363.9658731297183181
 20
37.8613600013514429
 30
0.0
 40
0.0689999999999991
  0
CIRCLE
  5
71BE
  8
0
 10
363.6662899153967032
 20
37.7675758019161094
 30
0.0
 40
0.0178655417999996
  0
CIRCLE
  5
71BF
  8
0
 10
363.665925181708019
 20
37.7655072943790699
 30
0.0
 40
0.0559981777000003
  0
CIRCLE
  5
71C0
  8
0
 10
363.6651667589835029
 20
37.7612060653696275
 30
0.0
 40
0.069
  0
CIRCLE
  5
71C1
  8
0
 10
363.7016724680867128
 20
37.9682402297191217
 30
0.0
 40
0.0177622336500001
  0
CIRCLE
  5
71C2
  8
0
 10
363.7011885703590224
 20
37.9654959089204169
 30
0.0
 40
0.0556767888920851
  0
CIRCLE
  5
71C3
  8
0
 10
363.6998963945168839
 20
37.9581676159720729
 30
0.0
 40
0.0689999999999991
  0
CIRCLE
  5
71C4
  8
0
 10
363.450456344039992
 20
37.7675758019161094
 30
0.0
 40
0.0178655417999996
  0
CIRCLE
  5
71C5
  8
0
 10
363.4508210777286195
 20
37.7655072943790699
 30
0.0
 40
0.0559981777000003
  0
CIRCLE
  5
71C6
  8
0
 10
363.4515795004530787
 20
37.7612060653696275
 30
0.0
 40
0.069
  0
CIRCLE
  5
71C7
  8
0
 10
363.4150737913499256
 20
37.9682402297191217
 30
0.0
 40
0.0177622336500001
  0
CIRCLE
  5
71C8
  8
0
 10
363.4155576892188151
 20
37.9654959089453214
 30
0.0
 40
0.0556767888920851
  0
CIRCLE
  5
71C9
  8
0
 10
363.4168498649198114
 20
37.9581676159720729
 30
0.0
 40
0.0689999999999991
  0
CIRCLE
  5
71CA
  8
0
 10
363.2476391297183227
 20
37.693756372906229
 30
0.0
 40
0.0178655417999996
  0
CIRCLE
  5
71CB
  8
0
 10
363.248689338518318
 20
37.6919373579060704
 30
0.0
 40
0.0559981777000003
  0
CIRCLE
  5
71CC
  8
0
 10
363.2508731297182862
 20
37.6881549205945632
 30
0.0
 40
0.069
  0
CIRCLE
  5
71CD
  8
0
 10
363.1457591296933174
 20
37.8702177092246473
 30
0.0
 40
0.0177622336500001
  0
CIRCLE
  5
71CE
  8
0
 10
363.1471524579342827
 20
37.8678043940629081
 30
0.0
 40
0.0556767888920851
  0
CIRCLE
  5
71CF
  8
0
 10
363.1508731297183203
 20
37.8613600013514429
 30
0.0
 40
0.0689999999999991
  0
CIRCLE
  5
71D0
  8
0
 10
363.0823010217421256
 20
37.5550212274837918
 30
0.0
 40
0.0178655417999996
  0
CIRCLE
  5
71D1
  8
0
 10
363.0839100349728028
 20
37.5536711050753524
 30
0.0
 40
0.0559981777000003
  0
CIRCLE
  5
71D2
  8
0
 10
363.0872557972002141
 20
37.550863677224342
 30
0.0
 40
0.069
  0
CIRCLE
  5
71D3
  8
0
 10
362.9262118059738214
 20
37.6859956308656621
 30
0.0
 40
0.0177622336500001
  0
CIRCLE
  5
71D4
  8
0
 10
362.9283465086376737
 20
37.6842044027412513
 30
0.0
 40
0.0556767888920851
  0
CIRCLE
  5
71D5
  8
0
 10
362.9340469085764198
 20
37.6794211991616592
 30
0.0
 40
0.0689999999999991
  0
CIRCLE
  5
71D6
  8
0
 10
362.9743842360637132
 20
37.3681038716994394
 30
0.0
 40
0.0178655417999996
  0
CIRCLE
  5
71D7
  8
0
 10
362.9763579829830178
 20
37.3673854865708392
 30
0.0
 40
0.0559981777000003
  0
CIRCLE
  5
71D8
  8
0
 10
362.9804621679350021
 20
37.3658916854124072
 30
0.0
 40
0.069
  0
CIRCLE
  5
71D9
  8
0
 10
362.7829124676053993
 20
37.4377938961205814
 30
0.0
 40
0.0177622336500001
  0
CIRCLE
  5
71DA
  8
0
 10
362.7855310680461116
 20
37.4368408035809921
 30
0.0
 40
0.0556767888920851
  0
CIRCLE
  5
71DB
  8
0
 10
362.7925236437778267
 20
37.4342957140775425
 30
0.0
 40
0.0689999999999991
  0
CIRCLE
  5
71DC
  8
0
 10
362.9369051297182978
 20
37.1555492972671217
 30
0.0
 40
0.0178655417999996
  0
CIRCLE
  5
71DD
  8
0
 10
362.9390055473182883
 20
37.1555492972671217
 30
0.0
 40
0.0559981777000003
  0
CIRCLE
  5
71DE
  8
0
 10
362.9433731297182817
 20
37.1555492972671217
 30
0.0
 40
0.069
  0
CIRCLE
  5
71DF
  8
0
 10
362.7331451296682872
 20
37.1555492972671217
 30
0.0
 40
0.0177622336500001
  0
CIRCLE
  5
71E0
  8
0
 10
362.7359317860261854
 20
37.15554929733878
 30
0.0
 40
0.0556767888920851
  0
CIRCLE
  5
71E1
  8
0
 10
362.7433731297182931
 20
37.1555492972671217
 30
0.0
 40
0.0689999999999991
  0
CIRCLE
  5
71E2
  8
0
 10
362.9743842360637132
 20
36.9429947228348112
 30
0.0
 40
0.0178655417999996
  0
CIRCLE
  5
71E3
  8
0
 10
362.9763579829830178
 20
36.9437131079633971
 30
0.0
 40
0.0559981777000003
  0
CIRCLE
  5
71E4
  8
0
 10
362.9804621679350021
 20
36.9452069091218434
 30
0.0
 40
0.069
  0
CIRCLE
  5
71E5
  8
0
 10
362.7829124676053993
 20
36.8733046984136621
 30
0.0
 40
0.0177622336500001
  0
CIRCLE
  5
71E6
  8
0
 10
362.7855310679971126
 20
36.8742577910879419
 30
0.0
 40
0.0556767888920851
  0
CIRCLE
  5
71E7
  8
0
 10
362.7925236437778267
 20
36.876802880456701
 30
0.0
 40
0.0689999999999991
  0
CIRCLE
  5
71E8
  8
0
 10
363.0823010217421256
 20
36.7560773670504517
 30
0.0
 40
0.0178655417999996
  0
CIRCLE
  5
71E9
  8
0
 10
363.0839100349728028
 20
36.757427489458891
 30
0.0
 40
0.0559981777000003
  0
CIRCLE
  5
71EA
  8
0
 10
363.0872557972002141
 20
36.7602349173099014
 30
0.0
 40
0.069
  0
CIRCLE
  5
71EB
  8
0
 10
362.9262118059738214
 20
36.6251029636685814
 30
0.0
 40
0.0177622336500001
  0
CIRCLE
  5
71EC
  8
0
 10
362.9283465085455873
 20
36.6268941919027924
 30
0.0
 40
0.0556767888920851
  0
CIRCLE
  5
71ED
  8
0
 10
362.9340469085764198
 20
36.6316773953725914
 30
0.0
 40
0.0689999999999991
  0
CIRCLE
  5
71EE
  8
0
 10
363.2476391297183227
 20
36.6173422216280073
 30
0.0
 40
0.0178655417999996
  0
CIRCLE
  5
71EF
  8
0
 10
363.248689338518318
 20
36.6191612366281731
 30
0.0
 40
0.0559981777000003
  0
CIRCLE
  5
71F0
  8
0
 10
363.2508731297182862
 20
36.6229436739396874
 30
0.0
 40
0.069
  0
CIRCLE
  5
71F1
  8
0
 10
363.1457591296933174
 20
36.4408808853096033
 30
0.0
 40
0.0177622336500001
  0
CIRCLE
  5
71F2
  8
0
 10
363.1471524578101935
 20
36.4432942005430007
 30
0.0
 40
0.0556767888920851
  0
CIRCLE
  5
71F3
  8
0
 10
363.1508731297183203
 20
36.4497385931828006
 30
0.0
 40
0.0689999999999991
  0
CIRCLE
  5
71F4
  8
0
 10
363.450456344039992
 20
36.543522792618127
 30
0.0
 40
0.0178655417999996
  0
CIRCLE
  5
71F5
  8
0
 10
363.4508210777286195
 20
36.5455913001551735
 30
0.0
 40
0.0559981777000003
  0
CIRCLE
  5
71F6
  8
0
 10
363.4515795004530787
 20
36.5498925291646088
 30
0.0
 40
0.069
  0
CIRCLE
  5
71F7
  8
0
 10
363.4150737913499256
 20
36.3428583648151218
 30
0.0
 40
0.0177622336500001
  0
CIRCLE
  5
71F8
  8
0
 10
363.4155576890776729
 20
36.3456026856138266
 30
0.0
 40
0.0556767888920851
  0
CIRCLE
  5
71F9
  8
0
 10
363.4168498649198114
 20
36.3529309785621706
 30
0.0
 40
0.0689999999999991
  0
CIRCLE
  5
71FA
  8
0
 10
363.6662899153967032
 20
36.543522792618127
 30
0.0
 40
0.0178655417999996
  0
CIRCLE
  5
71FB
  8
0
 10
363.665925181708019
 20
36.5455913001551735
 30
0.0
 40
0.0559981777000003
  0
CIRCLE
  5
71FC
  8
0
 10
363.6651667589835029
 20
36.5498925291646088
 30
0.0
 40
0.069
  0
CIRCLE
  5
71FD
  8
0
 10
363.7016724680867128
 20
36.3428583648151218
 30
0.0
 40
0.0177622336500001
  0
CIRCLE
  5
71FE
  8
0
 10
363.7011885702178233
 20
36.3456026855889291
 30
0.0
 40
0.0556767888920851
  0
CIRCLE
  5
71FF
  8
0
 10
363.6998963945168839
 20
36.3529309785621706
 30
0.0
 40
0.0689999999999991
  0
CIRCLE
  5
7200
  8
0
 10
363.8691071297183157
 20
36.6173422216280073
 30
0.0
 40
0.0178655417999996
  0
CIRCLE
  5
7201
  8
0
 10
363.8680569209183204
 20
36.6191612366281731
 30
0.0
 40
0.0559981777000003
  0
CIRCLE
  5
7202
  8
0
 10
363.8658731297182953
 20
36.6229436739396874
 30
0.0
 40
0.069
  0
CIRCLE
  5
7203
  8
0
 10
363.970987129743321
 20
36.4408808853096033
 30
0.0
 40
0.0177622336500001
  0
CIRCLE
  5
7204
  8
0
 10
363.9695938015022989
 20
36.4432942004713425
 30
0.0
 40
0.0556767888920851
  0
CIRCLE
  5
7205
  8
0
 10
363.9658731297183181
 20
36.4497385931828006
 30
0.0
 40
0.0689999999999991
  0
CIRCLE
  5
7206
  8
0
 10
364.0344452376946265
 20
36.7560773670504517
 30
0.0
 40
0.0178655417999996
  0
CIRCLE
  5
7207
  8
0
 10
364.0328362244638924
 20
36.757427489458891
 30
0.0
 40
0.0559981777000003
  0
CIRCLE
  5
7208
  8
0
 10
364.0294904622364811
 20
36.7602349173099014
 30
0.0
 40
0.069
  0
CIRCLE
  5
7209
  8
0
 10
364.1905344534628171
 20
36.6251029636685814
 30
0.0
 40
0.0177622336500001
  0
CIRCLE
  5
720A
  8
0
 10
364.1883997507989079
 20
36.6268941917929993
 30
0.0
 40
0.0556767888920851
  0
CIRCLE
  5
720B
  8
0
 10
364.1826993508602754
 20
36.6316773953725914
 30
0.0
 40
0.0689999999999991
  0
CIRCLE
  5
720C
  8
0
 10
364.1423620233729253
 20
36.9429947228348112
 30
0.0
 40
0.0178655417999996
  0
CIRCLE
  5
720D
  8
0
 10
364.1403882764536206
 20
36.9437131079633971
 30
0.0
 40
0.0559981777000003
  0
CIRCLE
  5
720E
  8
0
 10
364.1362840915015795
 20
36.9452069091218434
 30
0.0
 40
0.069
  0
CIRCLE
  5
720F
  8
0
 10
364.3338337918311822
 20
36.8733046984136621
 30
0.0
 40
0.0177622336500001
  0
CIRCLE
  5
7210
  8
0
 10
364.3312151913905268
 20
36.8742577909532585
 30
0.0
 40
0.0556767888920851
  0
CIRCLE
  5
7211
  8
0
 10
364.3242226156588117
 20
36.876802880456701
 30
0.0
 40
0.0689999999999991
  0
CIRCLE
  5
7212
  8
0
 10
363.5583731297182908
 20
37.1555492972671217
 30
0.0
 40
1.0452755906
  0
CIRCLE
  5
7213
  8
0
 10
363.5583731297182908
 20
37.1555492972671217
 30
0.0
 40
1.030999999999999
  0
CIRCLE
  5
7214
  8
0
 10
363.5583731297182908
 20
37.1555492972671217
 30
0.0
 40
1.226588980899999
  0
ARC
  5
7215
  8
0
 10
362.6970734872181765
 20
35.560696432131202
 30
0.0
 40
0.5631118621796827
 50
347.681410160933126
 51
19.4318833921724305
  0
ARC
  5
7216
  8
0
 10
362.8416629064764152
 20
35.5145662361481271
 30
0.0
 40
0.4122549861701444
 50
306.5381276996200199
 51
349.6581650765334075
  0
ARC
  5
7217
  8
0
 10
363.1009821887957969
 20
35.1572736773733681
 30
0.0
 40
0.0295275590774604
 50
118.0391258012944036
 51
180.0000000121191022
  0
LINE
  5
7218
  8
0
 10
363.0714546297182892
 20
35.1572736773671224
 30
0.0
 11
363.0714546297182892
 21
35.1144004895671173
 31
0.0
  0
LINE
  5
7219
  8
0
 10
364.0762916297182983
 20
35.1144004895671173
 30
0.0
 11
363.0404546297182833
 21
35.1144004895671173
 31
0.0
  0
LINE
  5
721A
  8
0
 10
364.0762916297182983
 20
34.9764004895671192
 30
0.0
 11
363.0404546297182833
 21
34.9764004895671192
 31
0.0
  0
ARC
  5
721B
  8
0
 10
363.0566104350680803
 20
35.0454004895671218
 30
0.0
 40
0.0708661417497802
 50
103.1779610737818018
 51
256.8220389262182266
  0
ARC
  5
721C
  8
0
 10
366.6126045588164857
 20
34.0213146466365615
 30
0.0
 40
3.6536186559235029
 50
164.8463643787011961
 51
178.3249905631425065
  0
ARC
  5
721D
  8
0
 10
376.0109966695030721
 20
33.5453171169396427
 30
0.0
 40
13.0634560178419292
 50
177.443041881779294
 51
182.556958118220507
  0
ARC
  5
721E
  8
0
 10
391.2931492977093058
 20
34.1014293577080707
 30
0.0
 40
28.3554836930255689
 50
182.3019203849457881
 51
184.5898537471153134
  0
ARC
  5
721F
  8
0
 10
342.8797159635242906
 20
30.2265158367381588
 30
0.0
 40
20.2127741832448713
 50
1.468786539345255
 51
4.5567662504719788
  0
LINE
  5
7220
  8
0
 10
364.039412806118321
 20
30.7446167270671182
 30
0.0
 11
363.077333453418305
 21
30.7446167270671182
 31
0.0
  0
LINE
  5
7221
  8
0
 10
364.0586665324182718
 20
30.6111987131671199
 30
0.0
 11
363.0580797271182973
 21
30.6111987131671199
 31
0.0
  0
ARC
  5
7222
  8
0
 10
363.0817392354380218
 20
30.6758826509269511
 30
0.0
 40
0.0688751343958509
 50
93.6675817552271752
 51
249.908946047653501
  0
ARC
  5
7223
  8
0
 10
363.0512916972559196
 20
30.5927210666722296
 30
0.0
 40
0.0196850392278608
 50
17.4997495498253812
 51
69.8284641509610822
  0
ARC
  5
7224
  8
0
 10
362.3010176749397147
 20
30.32262927789575
 30
0.0
 40
0.8170783109090715
 50
337.7597497791567207
 51
19.7430481212610083
  0
ARC
  5
7225
  8
0
 10
363.0392612132566228
 20
30.0212314260902886
 30
0.0
 40
0.0196850393164475
 50
283.1967189985198843
 51
336.4694025254315761
  0
ARC
  5
7226
  8
0
 10
363.0527432085362989
 20
29.9637358369608506
 30
0.0
 40
0.0393700787180011
 50
103.1967191679388947
 51
179.999999990874386
  0
LINE
  5
7227
  8
0
 10
363.0133731297182749
 20
29.9637358369608506
 30
0.0
 11
363.0133731297182749
 21
29.933351094496409
 31
0.0
  0
ARC
  5
7228
  8
0
 10
362.9936880904890018
 20
29.933351094496409
 30
0.0
 40
0.0196850392292936
 50
269.9999997942005052
 51
0.0000004968720537
  0
LINE
  5
7229
  8
0
 10
362.9930581691182852
 20
29.9136660552671216
 30
0.0
 11
364.1236880903182964
 21
29.9136660552671216
 31
0.0
  0
LINE
  5
722A
  8
0
 10
363.0437552117862765
 20
30.0020662297671201
 30
0.0
 11
364.0729910476504187
 21
30.0020662297671201
 31
0.0
  0
ARC
  5
722B
  8
0
 10
362.9930581691182852
 20
29.8939810158671193
 30
0.0
 40
0.0196850394000041
 50
90.0000000000097771
 51
179.9999999999895977
  0
LINE
  5
722C
  8
0
 10
362.9733731297183112
 20
29.8939810158671193
 30
0.0
 11
362.9733731297183112
 21
29.8157909550269906
 31
0.0
  0
ARC
  5
722D
  8
0
 10
362.9930581689927749
 20
29.8157909550269906
 30
0.0
 40
0.019685039274485
 50
179.999999883197404
 51
250.9192747236016885
  0
ARC
  5
722E
  8
0
 10
362.9801880905878875
 20
29.7785839105937207
 30
0.0
 40
0.0196850391304169
 50
359.9999993404649103
 51
70.9192745301682521
  0
LINE
  5
722F
  8
0
 10
362.9998731297183099
 20
29.7785839105937207
 30
0.0
 11
362.9998731297183099
 21
29.7696334747671294
 31
0.0
  0
ARC
  5
7230
  8
0
 10
363.0294006888183276
 20
29.7696334747671294
 30
0.0
 40
0.0295275591000044
 50
180.0000000000069065
 51
269.9999999999902229
  0
LINE
  5
7231
  8
0
 10
363.0294006888183276
 20
29.7401059156671188
 30
0.0
 11
364.0873455706183108
 21
29.7401059156671188
 31
0.0
  0
LINE
  5
7232
  8
0
 10
363.1058891675007771
 20
29.7130059156671216
 30
0.0
 11
364.0190030509045869
 21
29.7130059156671216
 31
0.0
  0
LINE
  5
7233
  8
0
 10
363.1916216409182994
 20
29.7204228605007401
 30
0.0
 11
363.1916216409182994
 21
29.7130059156671216
 31
0.0
  0
ARC
  5
7234
  8
0
 10
363.171936601618313
 20
29.7204208762671094
 30
0.0
 40
0.019685039400005
 50
0.0057753611602481
 51
89.9999999999934914
  0
ARC
  5
7235
  8
0
 10
363.1058969970096086
 20
29.7051318974231116
 30
0.0
 40
0.0078740221366345
 50
90.0569718846504941
 51
181.9999799510374885
  0
LINE
  5
7236
  8
0
 10
363.0980277714182876
 20
29.7048571007671214
 30
0.0
 11
363.1194751731183032
 21
29.0906838723671193
 31
0.0
  0
LINE
  5
7237
  8
0
 10
363.127344392245675
 20
29.0830846558671183
 30
0.0
 11
363.9970057158309942
 21
29.0830846558671183
 31
0.0
  0
LINE
  5
7238
  8
0
 10
363.1705778541182781
 20
29.0752106400671195
 30
0.0
 11
363.1705778541182781
 21
29.0597845339997285
 31
0.0
  0
LINE
  5
7239
  8
0
 10
363.1705778541182781
 20
29.0597845339997285
 30
0.0
 11
363.9461684053183035
 21
29.0597845339997285
 31
0.0
  0
LINE
  5
723A
  8
0
 10
363.1306365933644997
 20
29.0043444983671215
 30
0.0
 11
363.9861096660720818
 21
29.0043444983671215
 31
0.0
  0
ARC
  5
723B
  8
0
 10
363.127344392245675
 20
29.0909586716350184
 30
0.0
 40
0.0078740157679072
 50
182.0000005866930906
 51
270.0000056216134112
  0
ARC
  5
723C
  8
0
 10
363.1627038384182811
 20
29.0752106400671195
 30
0.0
 40
0.0078740157000006
 50
0.0
 51
90.0
  0
ARC
  5
723D
  8
0
 10
363.1843519721571738
 20
29.0275714521737207
 30
0.0
 40
0.0350343969332913
 50
113.1512575746013027
 51
221.5272133437331092
  0
ARC
  5
723E
  8
0
 10
363.1306439984913936
 20
28.9964704802268116
 30
0.0
 40
0.0078740216223933
 50
90.0538838477095425
 51
181.9999808367074934
  0
LINE
  5
723F
  8
0
 10
363.122774773418314
 20
28.9961956834671213
 30
0.0
 11
363.1321140446182767
 21
28.7287539471671209
 31
0.0
  0
LINE
  5
7240
  8
0
 10
363.1321140446182767
 20
28.7287539471671209
 30
0.0
 11
363.9846322148183049
 21
28.7287539471671209
 31
0.0
  0
LINE
  5
7241
  8
0
 10
363.1843573817183142
 20
28.5319035534671208
 30
0.0
 11
363.9323888777183242
 21
28.5319035534671208
 31
0.0
  0
LINE
  5
7242
  8
0
 10
363.1843573817183142
 20
28.5319035534671208
 30
0.0
 11
363.1843573817183142
 21
28.7287539471671209
 31
0.0
  0
LINE
  5
7243
  8
0
 10
363.3068058604682733
 20
28.5319035534671208
 30
0.0
 11
363.3068058604682733
 21
15.3389373125842603
 31
0.0
  0
LINE
  5
7244
  8
0
 10
363.8070576199683046
 20
28.5319035534671208
 30
0.0
 11
363.8070576199683046
 21
15.3380667589449402
 31
0.0
  0
LINE
  5
7245
  8
0
 10
365.2614910523143976
 20
25.5386954307671203
 30
0.0
 11
364.3638540658050147
 21
25.5386954307671203
 31
0.0
  0
LINE
  5
7246
  8
0
 10
365.2614921929364868
 20
24.9875143283671193
 30
0.0
 11
364.3638552074149857
 21
24.9875143283671193
 31
0.0
  0
ARC
  5
7247
  8
0
 10
364.8127074637599208
 20
25.2630932388013782
 30
0.0
 40
0.5267123893283884
 50
148.4494997376386891
 51
173.0407011894452864
  0
ARC
  5
7248
  8
0
 10
364.8127059929885831
 20
25.2631184260899389
 30
0.0
 40
0.5267111603067351
 50
186.9595239771362003
 51
211.5508256214071139
  0
ARC
  5
7249
  8
0
 10
364.8126402740778076
 20
25.263091336083189
 30
0.0
 40
0.5267111524641618
 50
6.9595237482490981
 51
31.5508257573251214
  0
ARC
  5
724A
  8
0
 10
364.8126388185817177
 20
25.26311651405193
 30
0.0
 40
0.5267123659303803
 50
328.4494989765861988
 51
353.0407015670751889
  0
ARC
  5
724B
  8
0
 10
364.8126731297182914
 20
25.2631048795671198
 30
0.0
 40
0.2690736790999999
 50
13.7175679512466804
 51
166.2824319589581137
  0
ARC
  5
724C
  8
0
 10
364.8126731297182914
 20
25.2631048795671198
 30
0.0
 40
0.2690736790999999
 50
193.7175680410418011
 51
346.2824320487533214
  0
ARC
  5
724D
  8
0
 10
364.4205692975435227
 20
25.4613285166232792
 30
0.0
 40
0.0708523760690557
 50
59.7517344185431796
 51
120.2482655814571046
  0
ARC
  5
724E
  8
0
 10
364.449465158378473
 20
25.4121815691590989
 30
0.0
 40
0.1278643936474295
 50
120.3396969631643003
 51
146.8020857638155121
  0
ARC
  5
724F
  8
0
 10
364.65797795151218
 20
25.2887792563844194
 30
0.0
 40
0.3700721716074329
 50
148.4909061830641122
 51
167.0633557473292115
  0
ARC
  5
7250
  8
0
 10
364.3916734367085155
 20
25.4121815691590989
 30
0.0
 40
0.1278643936474295
 50
33.1979142361845234
 51
59.6603030368356784
  0
ARC
  5
7251
  8
0
 10
364.182999127303674
 20
25.2886974350474993
 30
0.0
 40
0.3702526363646302
 50
5.9241610337550874
 51
31.5068257551376085
  0
ARC
  5
7252
  8
0
 10
364.4205692975435227
 20
25.0649010840436794
 30
0.0
 40
0.0708523760690557
 50
239.7517344185428954
 51
300.248265581456792
  0
ARC
  5
7253
  8
0
 10
364.449465158378473
 20
25.1140480315078598
 30
0.0
 40
0.1278643936474295
 50
213.1979142361844879
 51
239.660303036835586
  0
ARC
  5
7254
  8
0
 10
364.65797795151218
 20
25.2374503442825393
 30
0.0
 40
0.3700721716074329
 50
192.9033887644652054
 51
211.5090938169358878
  0
ARC
  5
7255
  8
0
 10
364.3916734367085155
 20
25.1140480315078598
 30
0.0
 40
0.1278643936474295
 50
300.3396969631642719
 51
326.8020857638155121
  0
ARC
  5
7256
  8
0
 10
364.1829615063530241
 20
25.2375497974967082
 30
0.0
 40
0.3702939256066831
 50
328.493890363327921
 51
354.0706724599514814
  0
ARC
  5
7257
  8
0
 10
365.2047769619990731
 20
25.4613285166232792
 30
0.0
 40
0.0708523760690557
 50
59.7517344185428811
 51
120.2482655814568062
  0
ARC
  5
7258
  8
0
 10
365.1758811011641228
 20
25.4121815691590989
 30
0.0
 40
0.1278643936474295
 50
33.1979142361845234
 51
59.6603030368356784
  0
ARC
  5
7259
  8
0
 10
364.9673683080304158
 20
25.2887792563844194
 30
0.0
 40
0.3700721716074329
 50
12.9381925335836403
 51
31.5090938169359305
  0
ARC
  5
725A
  8
0
 10
365.233672822834194
 20
25.4121815691590989
 30
0.0
 40
0.1278643936474295
 50
120.3396969631643003
 51
146.8020857638155121
  0
ARC
  5
725B
  8
0
 10
365.4423471322389219
 20
25.2886974350474993
 30
0.0
 40
0.3702526363646302
 50
148.4931742448625016
 51
174.0758389662449019
  0
ARC
  5
725C
  8
0
 10
365.2047769619990731
 20
25.0649010840436794
 30
0.0
 40
0.0708523760690557
 50
239.751734418543208
 51
300.2482655814570762
  0
ARC
  5
725D
  8
0
 10
365.1758811011641228
 20
25.1140480315078598
 30
0.0
 40
0.1278643936474295
 50
300.3396969631644993
 51
326.8020857638155121
  0
ARC
  5
725E
  8
0
 10
364.9673683080304158
 20
25.2374503442825393
 30
0.0
 40
0.3700721716074329
 50
328.4909061830639985
 51
347.0966112355349082
  0
ARC
  5
725F
  8
0
 10
365.233672822834194
 20
25.1140480315078598
 30
0.0
 40
0.1278643936474295
 50
213.1979142361844879
 51
239.660303036835586
  0
ARC
  5
7260
  8
0
 10
365.4423847531895717
 20
25.2375497974967082
 30
0.0
 40
0.3702939256066831
 50
185.9293275400484902
 51
211.5061096366721074
  0
LINE
  5
7261
  8
0
 10
364.5386905313183092
 20
24.9875143283671193
 30
0.0
 11
364.5386905313183092
 21
24.3841717948671217
 31
0.0
  0
LINE
  5
7262
  8
0
 10
364.5386905313183092
 20
24.3841717948671217
 30
0.0
 11
365.1371157282183049
 21
24.3841717948671217
 31
0.0
  0
LINE
  5
7263
  8
0
 10
365.1371157282183049
 20
24.3841717948671217
 30
0.0
 11
365.1371157282183049
 21
24.9875143283671193
 31
0.0
  0
LINE
  5
7264
  8
0
 10
364.5878135983182915
 20
24.3841717948671217
 30
0.0
 11
364.5878135983182915
 21
7.9685183603238441
 31
0.0
  0
LINE
  5
7265
  8
0
 10
365.0880653578183228
 20
24.3841717948671217
 30
0.0
 11
365.0880653578183228
 21
7.9685183603238441
 31
0.0
  0
ARC
  5
7266
  8
0
 10
364.419672772218405
 20
35.560696432131202
 30
0.0
 40
0.5631118621796827
 50
160.5681166078275908
 51
192.3185898390667887
  0
ARC
  5
7267
  8
0
 10
364.2750833529602232
 20
35.5145662361481271
 30
0.0
 40
0.4122549861701444
 50
190.3418349234663083
 51
233.4618723003800085
  0
ARC
  5
7268
  8
0
 10
364.0157640706408984
 20
35.1572736773733681
 30
0.0
 40
0.0295275590774604
 50
359.9999999878806989
 51
61.9608741987055893
  0
LINE
  5
7269
  8
0
 10
364.0452916297182924
 20
35.1572736773671224
 30
0.0
 11
364.0452916297182924
 21
35.1144004895671173
 31
0.0
  0
ARC
  5
726A
  8
0
 10
364.0601358243685013
 20
35.0454004895671218
 30
0.0
 40
0.0708661417497802
 50
283.1779610737817734
 51
76.8220389262181982
  0
ARC
  5
726B
  8
0
 10
360.5041417006202096
 20
34.0213146466365615
 30
0.0
 40
3.6536186559235029
 50
1.6750094368575059
 51
15.1536356212988199
  0
ARC
  5
726C
  8
0
 10
351.1057495899336232
 20
33.5453171169396427
 30
0.0
 40
13.0634560178419292
 50
357.4430418817793225
 51
2.5569581182206842
  0
ARC
  5
726D
  8
0
 10
335.8235969617272758
 20
34.1014293577080707
 30
0.0
 40
28.3554836930255689
 50
355.4101462528846014
 51
357.6980796150539277
  0
ARC
  5
726E
  8
0
 10
384.237030295912291
 20
30.2265158367381588
 30
0.0
 40
20.2127741832448713
 50
175.443233749527991
 51
178.5312134606546977
  0
ARC
  5
726F
  8
0
 10
364.0350070239986735
 20
30.6758826509269511
 30
0.0
 40
0.0688751343958509
 50
290.091053952346499
 51
86.3324182447728106
  0
ARC
  5
7270
  8
0
 10
364.0654545621807188
 20
30.5927210666722296
 30
0.0
 40
0.0196850392278608
 50
110.1715358490389036
 51
162.5002504501746046
  0
ARC
  5
7271
  8
0
 10
364.8157285844969806
 20
30.32262927789575
 30
0.0
 40
0.8170783109090715
 50
160.2569518787389882
 51
202.2402502208431088
  0
ARC
  5
7272
  8
0
 10
364.0774850461800156
 20
30.0212314260902886
 30
0.0
 40
0.0196850393164475
 50
203.5305974745683955
 51
256.8032810014801157
  0
ARC
  5
7273
  8
0
 10
364.0640030509002827
 20
29.9637358369608506
 30
0.0
 40
0.0393700787180011
 50
0.0000000091255966
 51
76.8032808320610201
  0
LINE
  5
7274
  8
0
 10
364.1033731297183067
 20
29.9637358369608506
 30
0.0
 11
364.1033731297183067
 21
29.933351094496409
 31
0.0
  0
ARC
  5
7275
  8
0
 10
364.1230581689475798
 20
29.933351094496409
 30
0.0
 40
0.0196850392292936
 50
179.9999995031278957
 51
270.0000002057994948
  0
ARC
  5
7276
  8
0
 10
364.1236880903182964
 20
29.8939810158671193
 30
0.0
 40
0.0196850394000041
 50
0.0000000000103813
 51
89.9999999999902229
  0
LINE
  5
7277
  8
0
 10
364.1433731297183272
 20
29.8939810158671193
 30
0.0
 11
364.1433731297183272
 21
29.8157909550269906
 31
0.0
  0
ARC
  5
7278
  8
0
 10
364.1236880904438067
 20
29.8157909550269906
 30
0.0
 40
0.019685039274485
 50
289.0807252763983115
 51
0.0000001168025883
  0
ARC
  5
7279
  8
0
 10
364.1365581688488078
 20
29.7785839105937207
 30
0.0
 40
0.0196850391304169
 50
109.0807254698317053
 51
180.0000006595348907
  0
LINE
  5
727A
  8
0
 10
364.1168731297182717
 20
29.7785839105937207
 30
0.0
 11
364.1168731297182717
 21
29.7696334747671294
 31
0.0
  0
ARC
  5
727B
  8
0
 10
364.0873455706183108
 20
29.7696334747671294
 30
0.0
 40
0.0295275591000044
 50
270.0000000000097771
 51
359.9999999999931219
  0
LINE
  5
727C
  8
0
 10
363.9251246185183959
 20
29.7204228605007401
 30
0.0
 11
363.9251246185183959
 21
29.7130059156671216
 31
0.0
  0
ARC
  5
727D
  8
0
 10
363.9448096578183254
 20
29.7204208762671094
 30
0.0
 40
0.019685039400005
 50
90.0000000000065086
 51
179.9942246388399099
  0
ARC
  5
727E
  8
0
 10
364.0108492624270866
 20
29.7051318974231116
 30
0.0
 40
0.0078740221366345
 50
358.0000200489624262
 51
89.9430281153495059
  0
LINE
  5
727F
  8
0
 10
364.018718488018294
 20
29.7048571007671214
 30
0.0
 11
363.997271086318392
 21
29.0906838723671193
 31
0.0
  0
LINE
  5
7280
  8
0
 10
363.9461684053183035
 20
29.0752106400671195
 30
0.0
 11
363.9461684053183035
 21
29.0597845339997285
 31
0.0
  0
ARC
  5
7281
  8
0
 10
363.9894018671907929
 20
29.0909586716350184
 30
0.0
 40
0.0078740157679072
 50
269.9999943783865888
 51
357.9999994133066821
  0
ARC
  5
7282
  8
0
 10
363.9540424210183005
 20
29.0752106400671195
 30
0.0
 40
0.0078740157000006
 50
90.0
 51
180.0
  0
ARC
  5
7283
  8
0
 10
363.9323942872794078
 20
29.0275714521737207
 30
0.0
 40
0.0350343969332913
 50
318.4727866562666918
 51
66.8487424253986546
  0
ARC
  5
7284
  8
0
 10
363.9861022609451879
 20
28.9964704802268116
 30
0.0
 40
0.0078740216223933
 50
358.0000191632923929
 51
89.9461161522904433
  0
LINE
  5
7285
  8
0
 10
363.9939714860183244
 20
28.9961956834671213
 30
0.0
 11
363.9846322148183049
 21
28.7287539471671209
 31
0.0
  0
LINE
  5
7286
  8
0
 10
363.9323888777183242
 20
28.5319035534671208
 30
0.0
 11
363.9323888777183242
 21
28.7287539471671209
 31
0.0
  0
LINE
  5
7287
  8
0
 10
362.986623129984082
 20
29.7971874326671191
 30
0.0
 11
364.1301231294526133
 21
29.7971874326671191
 31
0.0
  0
ARC
  5
7288
  8
0
 10
363.3374579504182975
 20
7.9685183603238476
 30
0.0
 40
1.7506074074
 50
172.5622117466072041
 51
0.0
  0
ARC
  5
7289
  8
0
 10
363.3374579504182975
 20
7.9685183603238476
 30
0.0
 40
1.2503556479
 50
172.2404337542473911
 51
0.0
  0
ARC
  5
728A
  8
0
 10
371.8677430934130257
 20
7.1694570717981421
 30
0.0
 40
10.3172726206732097
 50
154.9828857285399124
 51
174.2945987536893995
  0
ARC
  5
728B
  8
0
 10
371.8677430934130257
 20
7.1694570717981421
 30
0.0
 40
9.8170208611732122
 50
154.9377709776348127
 51
174.3419024012378031
  0
ARC
  5
728C
  8
0
 10
353.5577771778973784
 20
15.3732983744032605
 30
0.0
 40
9.7490892362394508
 50
336.7986840205030035
 51
359.79805827496142
  0
ARC
  5
728D
  8
0
 10
353.5577771778973784
 20
15.3732983744032605
 30
0.0
 40
10.2493409957394501
 50
336.7532625824362071
 51
359.8030481328100905
  0
LINE
  5
728E
  8
0
 10
364.289875641918286
 20
25.3269119440671204
 30
0.0
 11
364.289875641918286
 21
25.1992978150671192
 31
0.0
  0
LINE
  5
728F
  8
0
 10
364.5512743858183171
 20
25.3269119440671204
 30
0.0
 11
364.5512743858183171
 21
25.1992978150671192
 31
0.0
  0
LINE
  5
7290
  8
0
 10
365.0740718737183101
 20
25.3269119440671204
 30
0.0
 11
365.0740718737183101
 21
25.1992978150671192
 31
0.0
  0
LINE
  5
7291
  8
0
 10
365.3354706176182845
 20
25.3269119440671204
 30
0.0
 11
365.3354706176182845
 21
25.1992978150671192
 31
0.0
  0
LINE
  5
7293
  8
0
 10
363.0871020393183244
 20
35.1833354922671191
 30
0.0
 11
364.029644220118314
 21
35.1833354922671191
 31
0.0
  0
ENDSEC
  0
EOF
