  0
SECTION
  2
HEADER
  9
$ACADVER
  1
AC1009
  9
$INSBASE
 10
4289.7274988740909976
 20
100.505922298486098
 30
0.0
  9
$EXTMIN
 10
4281.2526332119368817
 20
95.2580051041312288
 30
0.0
  9
$EXTMAX
 10
4289.7392314169383098
 20
101.5059223025120048
 30
0.0
  9
$LIMMIN
 10
0.0
 20
0.0
  9
$LIMMAX
 10
11.6929133858000007
 20
8.2677165353999982
  9
$ORTHOMODE
 70
     0
  9
$REGENMODE
 70
     1
  9
$FILLMODE
 70
     1
  9
$QTEXTMODE
 70
     0
  9
$MIRRTEXT
 70
     0
  9
$DRAGMODE
 70
     2
  9
$LTSCALE
 40
0.6431102362
  9
$OSMODE
 70
  4095
  9
$ATTMODE
 70
     1
  9
$TEXTSIZE
 40
0.2
  9
$TRACEWID
 40
0.05
  9
$TEXTSTYLE
  7
STANDARD
  9
$CLAYER
  8
0
  9
$CELTYPE
  6
BYLAYER
  9
$CECOLOR
 62
   256
  9
$DIMSCALE
 40
1.0
  9
$DIMASZ
 40
0.1875
  9
$DIMEXO
 40
0.0625
  9
$DIMDLI
 40
0.4443307087
  9
$DIMRND
 40
0.0
  9
$DIMDLE
 40
0.0
  9
$DIMEXE
 40
0.125
  9
$DIMTP
 40
0.01
  9
$DIMTM
 40
0.01
  9
$DIMTXT
 40
2.0
  9
$DIMCEN
 40
0.1052362205
  9
$DIMTSZ
 40
0.0
  9
$DIMTOL
 70
     1
  9
$DIMLIM
 70
     0
  9
$DIMTIH
 70
     1
  9
$DIMTOH
 70
     1
  9
$DIMSE1
 70
     0
  9
$DIMSE2
 70
     0
  9
$DIMTAD
 70
     0
  9
$DIMZIN
 70
     0
  9
$DIMBLK
  1

  9
$DIMASO
 70
     1
  9
$DIMSHO
 70
     1
  9
$DIMPOST
  1
\X
  9
$DIMAPOST
  1

  9
$DIMALT
 70
     1
  9
$DIMALTD
 70
     2
  9
$DIMALTF
 40
25.3999999999999986
  9
$DIMLFAC
 40
1.0
  9
$DIMTOFL
 70
     0
  9
$DIMTVP
 40
0.0
  9
$DIMTIX
 70
     0
  9
$DIMSOXD
 70
     0
  9
$DIMSAH
 70
     0
  9
$DIMBLK1
  1

  9
$DIMBLK2
  1

  9
$DIMSTYLE
  2
STANDARD
  9
$DIMCLRD
 70
     0
  9
$DIMCLRE
 70
     0
  9
$DIMCLRT
 70
     0
  9
$DIMTFAC
 40
1.0
  9
$DIMGAP
 40
0.09
  9
$LUNITS
 70
     2
  9
$LUPREC
 70
     4
  9
$SKETCHINC
 40
0.1
  9
$FILLETRAD
 40
0.0
  9
$AUNITS
 70
     0
  9
$AUPREC
 70
     0
  9
$MENU
  1
.
  9
$ELEVATION
 40
0.0
  9
$PELEVATION
 40
0.0
  9
$THICKNESS
 40
0.0
  9
$LIMCHECK
 70
     0
  9
$BLIPMODE
 70
     0
  9
$CHAMFERA
 40
0.0
  9
$CHAMFERB
 40
0.0
  9
$SKPOLY
 70
     0
  9
$TDCREATE
 40
2458060.468368056230247
  9
$TDUPDATE
 40
2459546.4789467598311603
  9
$TDINDWG
 40
0.3602153935
  9
$TDUSRTIMER
 40
0.3602153935
  9
$USRTIMER
 70
     1
  9
$ANGBASE
 50
0.0
  9
$ANGDIR
 70
     0
  9
$PDMODE
 70
     0
  9
$PDSIZE
 40
0.3125
  9
$PLINEWID
 40
0.0
  9
$COORDS
 70
     1
  9
$SPLFRAME
 70
     0
  9
$SPLINETYPE
 70
     6
  9
$SPLINESEGS
 70
     8
  9
$ATTDIA
 70
     1
  9
$ATTREQ
 70
     1
  9
$HANDLING
 70
     1
  9
$HANDSEED
  5
B586
  9
$SURFTAB1
 70
     6
  9
$SURFTAB2
 70
     6
  9
$SURFTYPE
 70
     6
  9
$SURFU
 70
     6
  9
$SURFV
 70
     6
  9
$UCSNAME
  2

  9
$UCSORG
 10
0.0
 20
0.0
 30
0.0
  9
$UCSXDIR
 10
1.0
 20
0.0
 30
0.0
  9
$UCSYDIR
 10
0.0
 20
1.0
 30
0.0
  9
$PUCSNAME
  2

  9
$PUCSORG
 10
0.0
 20
0.0
 30
0.0
  9
$PUCSXDIR
 10
1.0
 20
0.0
 30
0.0
  9
$PUCSYDIR
 10
0.0
 20
1.0
 30
0.0
  9
$USERI1
 70
     0
  9
$USERI2
 70
     0
  9
$USERI3
 70
     0
  9
$USERI4
 70
     0
  9
$USERI5
 70
     0
  9
$USERR1
 40
0.0
  9
$USERR2
 40
0.0
  9
$USERR3
 40
0.0
  9
$USERR4
 40
0.0
  9
$USERR5
 40
0.0
  9
$WORLDVIEW
 70
     1
  9
$SHADEDGE
 70
     3
  9
$SHADEDIF
 70
    70
  9
$TILEMODE
 70
     1
  9
$MAXACTVP
 70
    64
  9
$PLIMCHECK
 70
     0
  9
$PEXTMIN
 10
1.0000000000000000E+20
 20
1.0000000000000000E+20
 30
1.0000000000000000E+20
  9
$PEXTMAX
 10
-1.0000000000000000E+20
 20
-1.0000000000000000E+20
 30
-1.0000000000000000E+20
  9
$PLIMMIN
 10
0.0
 20
0.0
  9
$PLIMMAX
 10
12.0
 20
9.0
  9
$UNITMODE
 70
     0
  9
$VISRETAIN
 70
     1
  9
$PLINEGEN
 70
     0
  9
$PSLTSCALE
 70
     1
  0
ENDSEC
  0
SECTION
  2
TABLES
  0
TABLE
  2
VPORT
 70
     1
  0
VPORT
  2
*ACTIVE
 70
     0
 10
0.0
 20
0.0
 11
1.0
 21
1.0
 12
0.0
 22
0.0
 13
0.0
 23
0.0
 14
1.0
 24
1.0
 15
0.0
 25
0.0
 16
0.0
 26
0.0
 36
29.9599650024252391
 17
4285.4958364117519523
 27
98.3819618225097656
 37
0.0
 40
10.5385992295084705
 41
2.127494456762749
 42
50.0
 43
0.0
 44
0.0
 50
0.0
 51
0.0
 71
     0
 72
   100
 73
     1
 74
     1
 75
     0
 76
     0
 77
     0
 78
     0
  0
ENDTAB
  0
TABLE
  2
LTYPE
 70
     2
  0
LTYPE
  2
CONTINUOUS
 70
     0
  3
Solid line
 72
    65
 73
     0
 40
0.0
  0
LTYPE
  2
PHANTOM2
 70
     0
  3
___ _ _ ___ _ _ ___ _ _ ___ _ _
 72
    65
 73
     6
 40
1.25
 49
0.625
 49
-0.125
 49
0.125
 49
-0.125
 49
0.125
 49
-0.125
  0
ENDTAB
  0
TABLE
  2
LAYER
 70
     2
  0
LAYER
  2
0
 70
     0
 62
   255
  6
CONTINUOUS
  0
LAYER
  2
DEFPOINTS
 70
     0
 62
     7
  6
CONTINUOUS
  0
ENDTAB
  0
TABLE
  2
STYLE
 70
     1
  0
STYLE
  2
STANDARD
 70
     0
 40
0.0
 41
0.8
 50
0.0
 71
     0
 42
0.2
  3
txt
  4

  0
ENDTAB
  0
TABLE
  2
VIEW
 70
     0
  0
ENDTAB
  0
TABLE
  2
UCS
 70
     0
  0
ENDTAB
  0
TABLE
  2
APPID
 70
    10
  0
APPID
  2
ACAD
 70
     0
  0
APPID
  2
ACAD_MLEADERVER
 70
     0
  0
APPID
  2
ACAD_EXEMPT_FROM_CAD_STANDARDS
 70
     0
  0
APPID
  2
ACAD_NAV_VCDISPLAY
 70
     0
  0
APPID
  2
ACAECLAYERSTANDARD
 70
     0
  0
APPID
  2
ACCMTRANSPARENCY
 70
     0
  0
APPID
  2
ACAD_DSTYLE_DIMJAG
 70
     0
  0
APPID
  2
ACAD_DSTYLE_DIMTALN
 70
     0
  0
APPID
  2
ACDBATTR
 70
     0
  0
APPID
  2
DCO15
 70
     0
  0
ENDTAB
  0
TABLE
  2
DIMSTYLE
 70
     1
  0
DIMSTYLE
  2
STANDARD
 70
     0
  3

  4

  5

  6

  7

 40
1.0
 41
0.1875
 42
0.0625
 43
0.38
 44
0.125
 45
0.0
 46
0.0
 47
0.01
 48
0.01
140
0.15625
141
0.09
142
0.0
143
25.3999999999999986
144
1.0
145
0.0
146
1.0
147
0.09
 71
     1
 72
     0
 73
     1
 74
     1
 75
     0
 76
     0
 77
     0
 78
     4
170
     0
171
     2
172
     0
173
     0
174
     0
175
     0
176
     0
177
     0
178
     0
  0
ENDTAB
  0
ENDSEC
  0
SECTION
  2
BLOCKS
  0
BLOCK
  8
0
  2
$MODEL_SPACE
 70
     0
 10
0.0
 20
0.0
 30
0.0
  3
$MODEL_SPACE
  1

  0
ENDBLK
  5
21
  8
0
  0
BLOCK
 67
     1
  8
0
  2
$PAPER_SPACE
 70
     0
 10
0.0
 20
0.0
 30
0.0
  3
$PAPER_SPACE
  1

  0
ENDBLK
  5
1D
 67
     1
  8
0
  0
ENDSEC
  0
SECTION
  2
ENTITIES
  0
ATTDEF
  5
9852
  8
DEFPOINTS
 10
4289.7285647502685606
 20
100.5069340435219942
 30
0.0
 40
0.001
  1
P21386-00
  3

  2
MODELNUMBER
 70
     0
1001
ACDBATTR
1070
     0
1070
     1
  0
ATTDEF
  5
9853
  8
DEFPOINTS
 10
4289.7285647502685606
 20
100.5052673768553007
 30
0.0
 40
0.001
  1
CENTRAL PARK WEST
  3

  2
TRADENAME
 70
     0
1001
ACDBATTR
1070
     0
1070
     1
  0
ATTDEF
  5
9854
  8
DEFPOINTS
 10
4289.7285647502685606
 20
100.5036007101887066
 30
0.0
 40
0.001
  1
SHOWERHEAD
  3

  2
PRODUCT
 70
     0
1001
ACDBATTR
1070
     0
1070
     1
  0
LINE
  5
B328
  8
0
 10
4289.3274988740913614
 20
101.1979715741361048
 30
0.0
 11
4289.3274988740913614
 21
99.8138730228360771
 31
0.0
  0
LINE
  5
B329
  8
0
 10
4285.3597061057662359
 20
98.790936622761194
 30
0.0
 11
4286.2283617314160438
 21
99.6595922485113164
 31
0.0
  0
ARC
  5
B32A
  8
0
 10
4287.2914752531478371
 20
98.5964787263707763
 30
0.0
 40
2.312992127889264
 50
90.0000000286606081
 51
134.999999992862513
  0
ARC
  5
B32B
  8
0
 10
4287.2883234906530561
 20
98.6123237021825076
 30
0.0
 40
1.490063870837087
 50
89.8788087135426679
 51
135.3451254142582059
  0
LINE
  5
B32C
  8
0
 10
4289.7274988740909976
 20
101.4959275468361
 30
0.0
 11
4289.7274988740909976
 21
99.5159170501360961
 31
0.0
  0
LINE
  5
B32D
  8
0
 10
4289.5994988740922054
 20
101.5059222984997973
 30
0.0
 11
4289.7174988740898698
 21
101.5059222984997973
 31
0.0
  0
LINE
  5
B32E
  8
0
 10
4289.5794988740908593
 20
101.4859275468360948
 30
0.0
 11
4289.5794988740908593
 21
99.5259170501361012
 31
0.0
  0
LINE
  5
B32F
  8
0
 10
4289.4890926537818814
 20
101.323335469792795
 30
0.0
 11
4289.4890926537818814
 21
99.688509127179401
 31
0.0
  0
LINE
  5
B330
  8
0
 10
4289.5474988740907065
 20
101.3399275468360941
 30
0.0
 11
4289.5090926536913685
 21
101.3399275468360941
 31
0.0
  0
LINE
  5
B331
  8
0
 10
4289.3274988740913614
 20
100.9094708542599932
 30
0.0
 11
4287.2914752519427566
 21
100.9094708542599932
 31
0.0
  0
LINE
  5
B332
  8
0
 10
4289.3274988740913614
 20
100.1023842397360966
 30
0.0
 11
4287.2914752519927788
 21
100.1023842397360966
 31
0.0
  0
ARC
  5
B333
  8
0
 10
4289.5994899174584134
 20
101.485931256794899
 30
0.0
 40
0.0199910437114015
 50
89.9743296405928561
 51
180.0106330107331019
  0
ARC
  5
B334
  8
0
 10
4289.7175078278869478
 20
101.4959312556199933
 30
0.0
 40
0.0099910468919937
 50
359.9787311908957008
 51
90.0513474531173443
  0
ARC
  5
B335
  8
0
 10
4289.5474988740907065
 20
101.3719275468361047
 30
0.0
 40
0.032
 50
270.0
 51
0.0000000000032569
  0
ARC
  5
B336
  8
0
 10
4289.5093821795662734
 20
101.3192285695442934
 30
0.0
 40
0.0207010020567876
 50
90.8013694922263852
 51
168.5570932727802074
  0
ARC
  5
B337
  8
0
 10
4289.3831804207602545
 20
101.3437257281455004
 30
0.0
 40
0.1078571449767127
 50
301.0569092370923272
 51
349.1027244654488868
  0
ARC
  5
B338
  8
0
 10
4289.3246071619823852
 20
101.4230267399816938
 30
0.0
 40
0.2062163967467757
 50
275.8079228208810036
 51
303.6324244996578159
  0
ARC
  5
B339
  8
0
 10
4289.3474988740908884
 20
101.1979715741361048
 30
0.0
 40
0.02
 50
95.8079228208809752
 51
180.0
  0
LINE
  5
B33A
  8
0
 10
4284.1286491630462478
 20
98.7769404173694028
 30
0.0
 11
4284.6277649329440464
 21
99.2766039960712874
 31
0.0
  0
LINE
  5
B33B
  8
0
 10
4284.6336226123921733
 20
99.339030218136088
 30
0.0
 11
4284.7084754257912209
 21
99.4138830314361144
 31
0.0
  0
ARC
  5
B33C
  8
0
 10
4284.7226175327141391
 20
99.3997408671120439
 30
0.0
 40
0.02
 50
44.8844522874515235
 51
134.9999999617465107
  0
ARC
  5
B33D
  8
0
 10
4284.6410588533572081
 20
99.3318078902043311
 30
0.0
 40
0.0103662770782981
 50
135.8360600710580002
 51
179.1639384119563942
  0
ARC
  5
B33E
  8
0
 10
4284.6202168365207399
 20
99.2839420958386967
 30
0.0
 40
0.0105271843292952
 50
315.8107842674456833
 51
2.668928527854916
  0
LINE
  5
B33F
  8
0
 10
4284.6307326017404193
 20
99.2844322915169784
 30
0.0
 11
4284.6306936798910101
 21
99.3319591498358676
 31
0.0
  0
ARC
  5
B340
  8
0
 10
4284.3479594028685824
 20
98.7326578936740447
 30
0.0
 40
0.2237362804640156
 50
168.5844804583333882
 51
202.6877801933617889
  0
ARC
  5
B341
  8
0
 10
4284.0771059116568722
 20
98.6194252925667598
 30
0.0
 40
0.069833533474275
 50
264.2253890114450883
 51
22.6877801933618102
  0
ARC
  5
B342
  8
0
 10
4284.0189021225260149
 20
98.0438830975346605
 30
0.0
 40
0.508644209685759
 50
84.2253890114450456
 51
96.623464719959145
  0
LINE
  5
B343
  8
0
 10
4283.7131672511677607
 20
98.7960962447591982
 30
0.0
 11
4284.7907243526487946
 21
97.7185391432783064
 31
0.0
  0
LINE
  5
B344
  8
0
 10
4283.1559304393840648
 20
98.2361043422433085
 30
0.0
 11
4284.2307337794172781
 21
97.161301002310168
 31
0.0
  0
LINE
  5
B345
  8
0
 10
4282.8228192857395698
 20
98.4419362753874481
 30
0.0
 11
4284.4365643831888519
 21
96.8281911778381641
 31
0.0
  0
LINE
  5
B346
  8
0
 10
4283.1736079605798295
 20
98.0911476005252325
 30
0.0
 11
4283.2372475708443744
 21
98.1547872107898911
 31
0.0
  0
LINE
  5
B347
  8
0
 10
4283.1559866931511351
 20
98.2573735026661836
 30
0.0
 11
4283.700473081365999
 21
98.796129818951286
 31
0.0
  0
ARC
  5
B348
  8
0
 10
4283.7068032901370316
 20
98.7897322837285117
 30
0.0
 40
0.009
 50
45.0000000000028706
 51
134.6969230676716052
  0
ARC
  5
B349
  8
0
 10
4283.1665370411001277
 20
98.2467109439616024
 30
0.0
 40
0.015
 50
134.6969230677115092
 51
225.0000000026552982
  0
LINE
  5
B34A
  8
0
 10
4281.2643489406937078
 20
96.9400484714335562
 30
0.0
 11
4282.766250875057267
 21
98.4419364072015242
 31
0.0
  0
ARC
  5
B34B
  8
0
 10
4282.7945350144909753
 20
98.4136520041408573
 30
0.0
 40
0.04
 50
44.9999999982226768
 51
134.9997329838176938
  0
LINE
  5
B34C
  8
0
 10
4281.2643473174002793
 20
96.8834815523183153
 30
0.0
 11
4282.8781096600232559
 21
95.2697192095952943
 31
0.0
  0
ARC
  5
B34D
  8
0
 10
4281.2926332119386643
 20
96.911764200182688
 30
0.0
 40
0.0400000000007469
 50
134.9999999941705937
 51
224.9967115871529018
  0
LINE
  5
B34E
  8
0
 10
4285.6559428348909933
 20
100.2320111450360969
 30
0.0
 11
4284.8176734112912527
 21
99.3937417214361005
 31
0.0
  0
LINE
  5
B34F
  8
0
 10
4284.8176734112912527
 20
99.3937417214361005
 30
0.0
 11
4284.8281493740905717
 21
99.3548801120360849
 31
0.0
  0
LINE
  5
B350
  8
0
 10
4284.8281493740905717
 20
99.3548801120360849
 30
0.0
 11
4284.8214023239961534
 21
99.3481342167408883
 31
0.0
  0
LINE
  5
B351
  8
0
 10
4284.8214023239961534
 20
99.3481342167408883
 30
0.0
 11
4284.7956205775908529
 21
99.3550220561063924
 31
0.0
  0
LINE
  5
B352
  8
0
 10
4284.7367881598356689
 20
99.4138544537212852
 30
0.0
 11
4285.4085111118656641
 21
98.7421315591669355
 31
0.0
  0
LINE
  5
B353
  8
0
 10
4289.5994988740922054
 20
99.505917050136091
 30
0.0
 11
4289.7174988740898698
 21
99.505917050136091
 31
0.0
  0
LINE
  5
B354
  8
0
 10
4289.5474988740907065
 20
99.6719170501361162
 30
0.0
 11
4289.5090926536913685
 21
99.6719170501361162
 31
0.0
  0
ARC
  5
B355
  8
0
 10
4289.5994988740922054
 20
99.5259170501361012
 30
0.0
 40
0.02
 50
180.0000000000154046
 51
270.0
  0
ARC
  5
B356
  8
0
 10
4289.7174988740898698
 20
99.5159170501360961
 30
0.0
 40
0.01
 50
270.0
 51
0.0000000000097707
  0
ARC
  5
B357
  8
0
 10
4289.5474988740907065
 20
99.6399170501361056
 30
0.0
 40
0.032
 50
359.9999999999968168
 51
90.0
  0
ARC
  5
B358
  8
0
 10
4289.5093821795662734
 20
99.6926160274278317
 30
0.0
 40
0.0207010020567876
 50
191.4429067272197074
 51
269.1986305077736006
  0
ARC
  5
B359
  8
0
 10
4289.3831804207602545
 20
99.6681188688266388
 30
0.0
 40
0.1078571449767127
 50
10.8972755345502499
 51
58.9430907629077296
  0
ARC
  5
B35A
  8
0
 10
4289.3246071619823852
 20
99.5888178569904454
 30
0.0
 40
0.2062163967467757
 50
56.3675755003421983
 51
84.192077179119039
  0
ARC
  5
B35B
  8
0
 10
4289.3474988740908884
 20
99.8138730228360771
 30
0.0
 40
0.02
 50
180.0
 51
264.1920771791189964
  0
LINE
  5
B35C
  8
0
 10
4284.7715685252505864
 20
98.1340210551248759
 30
0.0
 11
4285.2712321039844028
 21
98.6331368249918654
 31
0.0
  0
LINE
  5
B35D
  8
0
 10
4285.3336583260497719
 20
98.6389945044339242
 30
0.0
 11
4285.408511139354232
 21
98.7138473178293054
 31
0.0
  0
ARC
  5
B35E
  8
0
 10
4285.3943689750321937
 20
98.7279894247535879
 30
0.0
 40
0.02
 50
315.0000000347189939
 51
45.1155477090036072
  0
ARC
  5
B35F
  8
0
 10
4285.3264359981176312
 20
98.6464307454007354
 30
0.0
 40
0.0103662770782981
 50
270.8360615845070924
 51
314.1639399253983242
  0
ARC
  5
B360
  8
0
 10
4285.2785702037508599
 20
98.6255887285680046
 30
0.0
 40
0.0105271843292952
 50
87.331071468614951
 51
134.1892157290319858
  0
LINE
  5
B361
  8
0
 10
4285.2790603994308185
 20
98.6361044937865614
 30
0.0
 11
4285.326587257749452
 21
98.6360655719343669
 31
0.0
  0
ARC
  5
B362
  8
0
 10
4284.7272860015700644
 20
98.353331294950209
 30
0.0
 40
0.2237362804640157
 50
247.3122198030901018
 51
281.4155195381197245
  0
ARC
  5
B363
  8
0
 10
4284.6140534004462097
 20
98.0824778037442968
 30
0.0
 40
0.069833533474275
 50
67.3122198030900734
 51
185.7746109849919947
  0
ARC
  5
B364
  8
0
 10
4284.0385112054100318
 20
98.0242740146493929
 30
0.0
 40
0.5086442096857591
 50
353.3765352765033754
 51
5.7746109849928429
  0
LINE
  5
B365
  8
0
 10
4284.0857757083476827
 20
97.1789798527003796
 30
0.0
 11
4284.149415318616775
 21
97.2426194629611018
 31
0.0
  0
LINE
  5
B366
  8
0
 10
4284.2520016104890601
 20
97.1613585852607855
 30
0.0
 11
4284.7907579268066911
 21
97.7058449734436465
 31
0.0
  0
ARC
  5
B367
  8
0
 10
4284.7843603915853237
 20
97.712175182214196
 30
0.0
 40
0.009
 50
315.3030769287511816
 51
44.9999999964430728
  0
ARC
  5
B368
  8
0
 10
4284.2413390517840526
 20
97.171908933211725
 30
0.0
 40
0.015
 50
224.9999999937905955
 51
315.3030769287489079
  0
LINE
  5
B369
  8
0
 10
4282.9346765791387952
 20
95.2697208328851133
 30
0.0
 11
4284.4365645149991906
 21
96.7716227671561739
 31
0.0
  0
ARC
  5
B36A
  8
0
 10
4284.4082801119402575
 20
96.7999069065915734
 30
0.0
 40
0.04
 50
315.0002670126070257
 51
44.9999999982232595
  0
ARC
  5
B36B
  8
0
 10
4282.9063923078883818
 20
95.298005104131974
 30
0.0
 40
0.0400000000007431
 50
225.0032884092925087
 51
315.0000000022977815
  0
LINE
  5
B36C
  8
0
 10
4285.3910833105110214
 20
98.8223138275106265
 30
0.0
 11
4285.3495082199606259
 21
98.8335212661329336
 31
0.0
  0
LINE
  5
B36D
  8
0
 10
4285.3495082199606259
 20
98.8335212661329336
 30
0.0
 11
4285.3427623246661824
 21
98.8267742160381601
 31
0.0
  0
LINE
  5
B36E
  8
0
 10
4285.3427623246661824
 20
98.8267742160381601
 30
0.0
 11
4285.3496501640302085
 21
98.800992469633556
 31
0.0
  0
LINE
  5
B36F
  8
0
 10
4284.6409888421376309
 20
98.1469076444885076
 30
0.0
 11
4284.1415357524238061
 21
98.646360734202176
 31
0.0
  0
LINE
  5
B370
  8
0
 10
4284.8281493740905717
 20
99.3548801120360849
 30
0.0
 11
4285.3495528368657688
 21
98.8335658906742793
 31
0.0
  0
LINE
  5
B371
  8
0
 10
4281.9600750756762864
 20
96.0452358476192245
 30
0.0
 11
4281.9737372029640028
 21
96.063511135384374
 31
0.0
  0
LINE
  5
B372
  8
0
 10
4281.972744474155661
 20
96.0576004362686433
 30
0.0
 11
4281.9887315671949182
 21
96.0788808575953084
 31
0.0
  0
LINE
  5
B373
  8
0
 10
4281.9915264706560265
 20
96.0762955121957845
 30
0.0
 11
4282.0089330577975488
 21
96.0997038711172138
 31
0.0
  0
ARC
  5
B374
  8
0
 10
4282.3774109244786814
 20
96.3759039453468347
 30
0.0
 40
0.5489187309163265
 50
221.3632373323318063
 51
224.4922821213909003
  0
ARC
  5
B375
  8
0
 10
4281.9918087409359941
 20
96.038746409931349
 30
0.0
 40
0.0367493495876833
 50
195.350832309881298
 51
224.1224228371359004
  0
ARC
  5
B376
  8
0
 10
4281.9765392429253552
 20
96.0329776552018046
 30
0.0
 40
0.0205537979227442
 50
165.0901487621266028
 51
191.1079398537910947
  0
ARC
  5
B377
  8
0
 10
4281.976283234357652
 20
96.0330216394779512
 30
0.0
 40
0.0202951050357689
 50
142.9989075731988066
 51
165.0241796784576991
  0
ARC
  5
B378
  8
0
 10
4282.2105605345632284
 20
96.216368439071104
 30
0.0
 40
0.3002266740031491
 50
220.2891414289946965
 51
225.058837906343399
  0
ARC
  5
B379
  8
0
 10
4282.0296051225050178
 20
96.0653634342152571
 30
0.0
 40
0.0645747666267281
 50
204.9375020835713883
 51
221.9119338131204984
  0
ARC
  5
B37A
  8
0
 10
4281.9916337357553857
 20
96.0462498035155505
 30
0.0
 40
0.0221241695548592
 50
167.5422641487421913
 51
201.5124009074662013
  0
ARC
  5
B37B
  8
0
 10
4282.0096363409929836
 20
96.0385304547341718
 30
0.0
 40
0.0415291949642718
 50
152.6648521149184035
 51
162.4943705884865892
  0
ARC
  5
B37C
  8
0
 10
4282.164708898480967
 20
96.1719427393181547
 30
0.0
 40
0.2108561221699898
 50
218.212247643322911
 51
225.3577601553625982
  0
ARC
  5
B37D
  8
0
 10
4282.0537874377450862
 20
96.0846177567767512
 30
0.0
 40
0.069685222095417
 50
203.0820253206728978
 51
218.212247643322911
  0
ARC
  5
B37E
  8
0
 10
4282.0063146942711683
 20
96.0643865159304511
 30
0.0
 40
0.0180813028731185
 50
168.1934447252392033
 51
203.0820253206728978
  0
ARC
  5
B37F
  8
0
 10
4282.0203713172895732
 20
96.0614482559210501
 30
0.0
 40
0.0324417354077475
 50
152.7638419626001109
 51
168.1934447252384075
  0
ARC
  5
B380
  8
0
 10
4281.8550880444499853
 20
95.8609649181551049
 30
0.0
 40
0.1887624560920449
 50
44.8916153678230714
 51
48.8900104884668565
  0
ARC
  5
B381
  8
0
 10
4281.9662640877031663
 20
95.9883635637208528
 30
0.0
 40
0.0196751192344251
 50
48.8900104884657907
 51
63.2765823772604108
  0
ARC
  5
B382
  8
0
 10
4282.0432383802917684
 20
96.0526420770804208
 30
0.0
 40
0.082599026755451
 50
214.4329738572224926
 51
226.9779642950022094
  0
ARC
  5
B383
  8
0
 10
4282.0381329273095616
 20
96.0474845563346236
 30
0.0
 40
0.0567219578489614
 50
209.4741477827629126
 51
227.8437348478900901
  0
ARC
  5
B384
  8
0
 10
4281.9627562659534306
 20
95.9722682890299552
 30
0.0
 40
0.0539792835826077
 50
41.8910931168247984
 51
61.2108204649884371
  0
ARC
  5
B385
  8
0
 10
4282.0488995352134225
 20
96.0578713615489193
 30
0.0
 40
0.045354851328472
 50
205.084219629039211
 51
228.2174122090262927
  0
ARC
  5
B386
  8
0
 10
4281.9900287592581662
 20
95.9990234296720786
 30
0.0
 40
0.0434319479437912
 50
41.6186338762978281
 51
65.8147739694532703
  0
ARC
  5
B387
  8
0
 10
4282.0158494730649181
 20
96.1024632852149807
 30
0.0
 40
0.0494985981638021
 50
192.6356987090316863
 51
224.3495741959121972
  0
ARC
  5
B388
  8
0
 10
4281.9303427824406754
 20
96.0058787714060458
 30
0.0
 40
0.0934802373388302
 50
49.0646393207557807
 51
66.5456014844089196
  0
ARC
  5
B389
  8
0
 10
4282.0019073941011811
 20
96.0935420730418741
 30
0.0
 40
0.050249913129613
 50
198.1969180912826971
 51
227.9883395782252933
  0
ARC
  5
B38A
  8
0
 10
4281.8881067061711292
 20
95.9671791044117839
 30
0.0
 40
0.1288892632157285
 50
47.1350661773471273
 51
59.1653188804890391
  0
ARC
  5
B38B
  8
0
 10
4282.0540001469844356
 20
96.1327483549535486
 30
0.0
 40
0.0736600833587625
 50
201.4683095809394899
 51
220.4639128792738063
  0
ARC
  5
B38C
  8
0
 10
4281.9905795510567259
 20
96.1078068299988217
 30
0.0
 40
0.0055113368203528
 50
156.9834858063271099
 51
201.4683095809357951
  0
ARC
  5
B38D
  8
0
 10
4281.9873332725774162
 20
96.1085368332905006
 30
0.0
 40
0.0023164167504284
 50
91.7581833911007152
 51
142.0382479621466985
  0
ARC
  5
B38E
  8
0
 10
4281.9669251801569771
 20
96.0446827346900847
 30
0.0
 40
0.0692241810181064
 50
48.9488195192018622
 51
72.9153086979355294
  0
ARC
  5
B38F
  8
0
 10
4281.7305927553079528
 20
95.7389206271041076
 30
0.0
 40
0.4555737113406165
 50
44.7371233559801595
 51
51.7898183824620375
  0
LINE
  5
B390
  8
0
 10
4281.8876227496948559
 20
96.1236511063521846
 30
0.0
 11
4281.9612966590402721
 21
96.0468699114106244
 31
0.0
  0
ARC
  5
B391
  8
0
 10
4281.8764974172536313
 20
96.134187101103592
 30
0.0
 40
0.0203437296704792
 50
151.9655125921973138
 51
188.642043292311314
  0
ARC
  5
B392
  8
0
 10
4281.8808374436102895
 20
96.1348467262667157
 30
0.0
 40
0.0247335968813601
 50
188.6420432923104045
 51
220.660841051776714
  0
ARC
  5
B393
  8
0
 10
4282.1319731783396492
 20
96.3294543841571027
 30
0.0
 40
0.3424170461645456
 50
217.9810177716811097
 51
230.6629599476742953
  0
ARC
  5
B394
  8
0
 10
4281.926544780732911
 20
96.0828651294604725
 30
0.0
 40
0.0216341693678329
 50
237.5024080020394024
 51
273.9410294414676059
  0
ARC
  5
B395
  8
0
 10
4281.9264780420517127
 20
96.0814856941904623
 30
0.0
 40
0.0202632256669834
 50
274.3973738408432723
 51
305.4580413303507953
  0
LINE
  5
B396
  8
0
 10
4281.9382328731917369
 20
96.0649804750364211
 30
0.0
 11
4281.9416092173605648
 21
96.0673876945837435
 31
0.0
  0
ARC
  5
B397
  8
0
 10
4281.7890180816666543
 20
96.2230771426909968
 30
0.0
 40
0.0206110229413757
 50
140.5690323552516077
 51
209.2252656123592089
  0
ARC
  5
B398
  8
0
 10
4281.8942176844238929
 20
96.1574301173310317
 30
0.0
 40
0.03441678001779
 50
222.6020125175440967
 51
258.9526740247396219
  0
ARC
  5
B399
  8
0
 10
4281.8909145397183238
 20
96.1422364233989271
 30
0.0
 40
0.0188745832081455
 50
259.956062954772392
 51
306.7917989732267756
  0
ARC
  5
B39A
  8
0
 10
4281.8427543251928
 20
96.1963609317004256
 30
0.0
 40
0.021872141523565
 50
135.7370362085526949
 51
216.4255720384589097
  0
ARC
  5
B39B
  8
0
 10
4281.8375360976979209
 20
96.1690592285312391
 30
0.0
 40
0.0199952508967727
 50
222.0849963790138872
 51
282.1935830825751736
  0
ARC
  5
B39C
  8
0
 10
4281.8374577688719
 20
96.1694217102377849
 30
0.0
 40
0.0203660991036241
 50
282.1935830825751168
 51
302.2965909021472726
  0
ARC
  5
B39D
  8
0
 10
4281.3980200919941126
 20
95.7389546091805528
 30
0.0
 40
0.6607978962945529
 50
37.4853237719165122
 51
43.8447900780692805
  0
ARC
  5
B39E
  8
0
 10
4281.9477457531056643
 20
96.1634708323944949
 30
0.0
 40
0.0460345550814221
 50
219.6361022710783004
 51
253.8843123119019083
  0
ARC
  5
B39F
  8
0
 10
4281.8788671016345688
 20
96.1014436977415443
 30
0.0
 40
0.0588571243149816
 50
17.6050743279506889
 51
42.3438484033505915
  0
ARC
  5
B3A0
  8
0
 10
4281.6885141657667191
 20
96.3245547965787949
 30
0.0
 40
0.0198628653052971
 50
138.5853070976432093
 51
222.6813983597853905
  0
ARC
  5
B3A1
  8
0
 10
4281.7243500657796176
 20
96.3290856954490948
 30
0.0
 40
0.0321576475424465
 50
155.9135098748400026
 51
218.5103098553381074
  0
ARC
  5
B3A2
  8
0
 10
4281.7363810542829015
 20
96.2690879848554175
 30
0.0
 40
0.0200957769029881
 50
223.6648968091527934
 51
302.6271190384154011
  0
ARC
  5
B3A3
  8
0
 10
4281.6597576931526419
 20
96.3704612850458631
 30
0.0
 40
0.019173148827401
 50
218.1420927108034959
 51
304.4271295402701867
  0
ARC
  5
B3A4
  8
0
 10
4281.6139248864237743
 20
96.427701077859922
 30
0.0
 40
0.020326307376094
 50
137.4811614701860947
 51
219.3931550462957034
  0
ARC
  5
B3A5
  8
0
 10
4281.6393878846565713
 20
96.4405953889134651
 30
0.0
 40
0.0215128803747655
 50
138.3293547864149957
 51
219.5216169733822085
  0
ARC
  5
B3A6
  8
0
 10
4281.6843332420530714
 20
96.3889167848408164
 30
0.0
 40
0.0240639367765373
 50
228.1812341536148097
 51
285.5238626635378978
  0
ARC
  5
B3A7
  8
0
 10
4281.7665205776056609
 20
96.2922005241868391
 30
0.0
 40
0.039816424476963
 50
219.4869854310742028
 51
248.4517362095569979
  0
ARC
  5
B3A8
  8
0
 10
4281.758517397358446
 20
96.2719333496350771
 30
0.0
 40
0.0180263061113374
 50
248.4517362095567989
 51
306.4703274155706936
  0
ARC
  5
B3A9
  8
0
 10
4281.5620612942821026
 20
96.480146545885475
 30
0.0
 40
0.0199635227623567
 50
134.9041009491284058
 51
218.7117719809643859
  0
ARC
  5
B3AA
  8
0
 10
4281.6078749369398793
 20
96.4232913244791234
 30
0.0
 40
0.0203830203323338
 50
224.0166094329970861
 51
265.8941983538579734
  0
ARC
  5
B3AB
  8
0
 10
4281.5100159708072169
 20
96.5713616030359248
 30
0.0
 40
0.0207022638737756
 50
135.613540065694707
 51
202.8111895473624031
  0
ARC
  5
B3AC
  8
0
 10
4281.5538545582876395
 20
96.5139749088787084
 30
0.0
 40
0.0203040900140118
 50
253.6702647386696015
 51
299.8114305868318183
  0
ARC
  5
B3AD
  8
0
 10
4281.4409410182006468
 20
96.6411772186879148
 30
0.0
 40
0.019941841344057
 50
134.4188240611686069
 51
216.6683590810131932
  0
ARC
  5
B3AE
  8
0
 10
4281.4845371639221412
 20
96.5825237585903267
 30
0.0
 40
0.0202261648166796
 50
223.922557742892792
 51
288.4237275354493022
  0
ARC
  5
B3AF
  8
0
 10
4281.3831406906656412
 20
96.8013119309724033
 30
0.0
 40
0.0320000011143774
 50
189.0470474819400977
 51
214.3746983694369135
  0
ARC
  5
B3B0
  8
0
 10
4285.8549528261100932
 20
99.8603259191422694
 30
0.0
 40
5.4499950504403731
 50
214.3746983694369135
 51
215.8713793115551027
  0
ARC
  5
B3B1
  8
0
 10
4281.6650187374443703
 20
96.4919308335549033
 30
0.0
 40
0.0444710579841976
 50
185.802056593747011
 51
220.047148298510109
  0
ARC
  5
B3B2
  8
0
 10
4281.5533499476841826
 20
96.3754470960619898
 30
0.0
 40
0.1307192902422857
 50
41.8528919342949024
 51
58.9487788280216733
  0
ARC
  5
B3B3
  8
0
 10
4280.9164452956947571
 20
95.8049297686548726
 30
0.0
 40
0.9857851102800236
 50
35.8682684924072532
 51
41.8528919342949024
  0
ARC
  5
B3B4
  8
0
 10
4281.6567916516241894
 20
96.3402265355313148
 30
0.0
 40
0.0721903667718233
 50
13.3686658360063308
 51
35.8682684924072532
  0
ARC
  5
B3B5
  8
0
 10
4281.7526880694231295
 20
96.4150998126067549
 30
0.0
 40
0.0635897985703311
 50
221.0672250189288945
 51
246.1991458101128956
  0
ARC
  5
B3B6
  8
0
 10
4280.7813411172273845
 20
96.1071802403331645
 30
0.0
 40
0.8288652250024345
 50
33.8182054506169365
 51
39.0110372136345873
  0
ARC
  5
B3B7
  8
0
 10
4282.1543682668207111
 20
96.9032141555086497
 30
0.0
 40
0.7476712792374119
 50
215.6631050552344959
 51
221.3634802679455902
  0
ARC
  5
B3B8
  8
0
 10
4281.8908960004073379
 20
96.6087078415160505
 30
0.0
 40
0.3510855315754456
 50
213.5253524230647884
 51
225.6850048029201048
  0
ARC
  5
B3B9
  8
0
 10
4281.8133548409978175
 20
96.5354826168430975
 30
0.0
 40
0.2193274634681374
 50
209.6785282987214885
 51
228.5919843492094117
  0
ARC
  5
B3BA
  8
0
 10
4283.841967330227817
 20
98.1223898421864931
 30
0.0
 40
2.8251145437968108
 50
219.8770524414481997
 51
221.3701309042756122
  0
ARC
  5
B3BB
  8
0
 10
4281.9651444874943991
 20
96.5028826413236231
 30
0.0
 40
0.3290888982267044
 50
216.0837374491827063
 51
225.8185272300817132
  0
ARC
  5
B3BC
  8
0
 10
4282.0438141603772237
 20
96.406786573018195
 30
0.0
 40
0.3346022351706859
 50
215.3882105174876926
 51
228.6362550858129055
  0
ARC
  5
B3BD
  8
0
 10
4281.9718733918953149
 20
96.3653909866421543
 30
0.0
 40
0.211200126841221
 50
212.4179961007382076
 51
234.1587452201659119
  0
ARC
  5
B3BE
  8
0
 10
4281.8595095656119156
 20
96.2131927574837249
 30
0.0
 40
0.0221158818365854
 50
239.2653171825839138
 51
303.1182172666563019
  0
ARC
  5
B3BF
  8
0
 10
4281.8174356640465703
 20
96.2631683137919651
 30
0.0
 40
0.0262634660479918
 50
144.0519877321605122
 51
204.7609601077703019
  0
ARC
  5
B3C0
  8
0
 10
4281.3928526602066995
 20
95.9137152468268681
 30
0.0
 40
0.5071022653342671
 50
40.3297162927443722
 51
42.4561290216161993
  0
ARC
  5
B3C1
  8
0
 10
4281.3162449428627951
 20
95.769576410659937
 30
0.0
 40
0.6746586478223425
 50
42.8566539895025329
 51
46.9292421798102168
  0
ARC
  5
B3C2
  8
0
 10
4281.2867092149535893
 20
95.9109281787045944
 30
0.0
 40
0.6176575836720514
 50
35.1968974792998566
 51
48.0743832282286903
  0
ARC
  5
B3C3
  8
0
 10
4279.2540324356896235
 20
94.2048989320990842
 30
0.0
 40
3.2444464072934309
 50
41.2084912963058017
 51
41.6152807904443378
  0
ARC
  5
B3C4
  8
0
 10
4281.82238713372044
 20
96.308154245130666
 30
0.0
 40
0.0300575947043539
 50
173.8575276242987968
 51
229.537782841328891
  0
ARC
  5
B3C5
  8
0
 10
4281.7503281704266556
 20
96.2213269130001549
 30
0.0
 40
0.0994307611136438
 50
49.646427265836401
 51
64.9028888728455229
  0
ARC
  5
B3C6
  8
0
 10
4281.5304380397710702
 20
95.9625323037616766
 30
0.0
 40
0.4390280510475889
 50
34.2160442866530303
 51
49.646427265836401
  0
ARC
  5
B3C7
  8
0
 10
4281.8397799721133197
 20
96.1728875192606978
 30
0.0
 40
0.0649401632554675
 50
11.1347765042179496
 51
34.2160442866523624
  0
ARC
  5
B3C8
  8
0
 10
4281.9177177873725668
 20
96.2360802504625354
 30
0.0
 40
0.052609892803301
 50
223.3817838665324871
 51
254.3182701015751093
  0
ARC
  5
B3C9
  8
0
 10
4282.0482730105259179
 20
96.3374808940675109
 30
0.0
 40
0.2711650768227576
 50
214.6328037289511883
 51
228.5819931830554879
  0
ARC
  5
B3CA
  8
0
 10
4281.663544712161638
 20
96.5008868301887048
 30
0.0
 40
0.0727580505619265
 50
201.8255763224076986
 51
221.6321781890225111
  0
ARC
  5
B3CB
  8
0
 10
4281.5159446740663043
 20
96.3690095479259838
 30
0.0
 40
0.131901085431818
 50
37.8866835516297229
 51
52.6307483283302275
  0
ARC
  5
B3CC
  8
0
 10
4281.6894577699977162
 20
96.606420640842444
 30
0.0
 40
0.1536054813075189
 50
222.3032798101828007
 51
232.5874991808067023
  0
ARC
  5
B3CD
  8
0
 10
4281.5168414732606834
 20
96.4571298028182866
 30
0.0
 40
0.0838564481546693
 50
18.9882700573344607
 51
36.9866711956786816
  0
ARC
  5
B3CE
  8
0
 10
4280.8087862562997543
 20
95.9856890592582346
 30
0.0
 40
0.9343735247129806
 50
33.955350664239198
 51
41.2698618093455494
  0
ARC
  5
B3CF
  8
0
 10
4281.4476030794421604
 20
96.5490856406628239
 30
0.0
 40
0.0826380248088638
 50
39.8223642135925715
 51
56.3566934771711914
  0
ARC
  5
B3D0
  8
0
 10
4281.5747086543296973
 20
96.6461354740973633
 30
0.0
 40
0.086090572966415
 50
199.1585209610722984
 51
215.837458987587695
  0
ARC
  5
B3D1
  8
0
 10
4281.762866011486949
 20
96.718525394913641
 30
0.0
 40
0.3130999080199559
 50
209.7130424712314891
 51
223.2629475537505925
  0
ARC
  5
B3D2
  8
0
 10
4281.5651565611424303
 20
96.5324546830063213
 30
0.0
 40
0.0416015901879705
 50
223.2629475537511894
 51
245.8643858934262028
  0
ARC
  5
B3D3
  8
0
 10
4281.7918506680698556
 20
96.1021547738170341
 30
0.0
 40
0.0828758948090093
 50
30.0929521072407695
 51
55.1676658801085722
  0
ARC
  5
B3D4
  8
0
 10
4281.914237292992766
 20
96.2148145874395198
 30
0.0
 40
0.0873188714778148
 50
210.7404611042018132
 51
234.5201568831278109
  0
ARC
  5
B3D5
  8
0
 10
4281.7817832815717338
 20
96.1908466900251824
 30
0.0
 40
0.0551130951930795
 50
22.3645762480931509
 51
60.1251261233759706
  0
ARC
  5
B3D6
  8
0
 10
4281.8721252343284505
 20
96.2700600950635135
 30
0.0
 40
0.0703035041969266
 50
206.5498499770851879
 51
235.939852394398514
  0
ARC
  5
B3D7
  8
0
 10
4281.6423900690488153
 20
96.2224086481411973
 30
0.0
 40
0.1033538381204609
 50
30.7966184852827105
 51
50.8532465550783925
  0
ARC
  5
B3D8
  8
0
 10
4281.7984669137722449
 20
96.3572491322969427
 30
0.0
 40
0.1060209326781367
 50
211.0514025127828006
 51
230.5984625275719964
  0
ARC
  5
B3D9
  8
0
 10
4281.5864148442342412
 20
96.3516533828795048
 30
0.0
 40
0.0791508482397792
 50
26.2094859043478685
 51
52.4956987963364412
  0
ARC
  5
B3DA
  8
0
 10
4281.7056175171619543
 20
96.4494024964456855
 30
0.0
 40
0.0791521089801448
 50
206.2096989994448109
 51
232.4954857012739922
  0
ARC
  5
B3DB
  8
0
 10
4281.4969508673393648
 20
96.2852182770073739
 30
0.0
 40
0.1618027715999967
 50
32.8582785419691916
 51
45.6103282482909478
  0
ARC
  5
B3DC
  8
0
 10
4281.7395003955880384
 20
96.4832787730823611
 30
0.0
 40
0.153396627820303
 50
212.5073001938079074
 51
225.9613065964196039
  0
ARC
  5
B3DD
  8
0
 10
4281.4242448511995462
 20
96.4602031517144809
 30
0.0
 40
0.1169858295171943
 50
28.6725008711931295
 51
46.3735828149030667
  0
ARC
  5
B3DE
  8
0
 10
4281.6112848757584288
 20
96.6038435549676251
 30
0.0
 40
0.1215784282043554
 50
209.0093606698484905
 51
226.0367230162740952
  0
LINE
  5
B3DF
  8
0
 10
4281.902218697092394
 20
96.1271213343360955
 30
0.0
 11
4281.9223693334897689
 21
96.1410885827361028
 31
0.0
  0
LINE
  5
B3E0
  8
0
 10
4281.8483394174818386
 20
96.1522063764855233
 30
0.0
 11
4281.8494459104904308
 21
96.1530946603632231
 31
0.0
  0
LINE
  5
B3E1
  8
0
 10
4281.7730983254787134
 20
96.2361681941989531
 30
0.0
 11
4281.7891735473122026
 21
96.2507238165304244
 31
0.0
  0
LINE
  5
B3E2
  8
0
 10
4281.7692323491191928
 20
96.2574372287469231
 30
0.0
 11
4281.7891014816259485
 21
96.2702371001855965
 31
0.0
  0
LINE
  5
B3E3
  8
0
 10
4281.7472160836905459
 20
96.2521633759360924
 30
0.0
 11
4281.7518966083107443
 21
96.2551669288955338
 31
0.0
  0
LINE
  5
B3E4
  8
0
 10
4281.7961740753062259
 20
96.2785863063050442
 30
0.0
 11
4281.8147098474901213
 21
96.2970994404361136
 31
0.0
  0
LINE
  5
B3E5
  8
0
 10
4281.6949923706906702
 20
96.3422097205361041
 30
0.0
 11
4281.7113358050737588
 21
96.3594737724083501
 31
0.0
  0
LINE
  5
B3E6
  8
0
 10
4281.6736181795913581
 20
96.3376941654360905
 30
0.0
 11
4281.6862750298787432
 21
96.3521073336267904
 31
0.0
  0
LINE
  5
B3E7
  8
0
 10
4281.670597379155879
 20
96.3546463919599887
 30
0.0
 11
4281.7169599288699828
 21
96.3801167281596634
 31
0.0
  0
LINE
  5
B3E8
  8
0
 10
4281.5989432765509264
 20
96.4414382586916332
 30
0.0
 11
4281.6137368731788229
 21
96.4575227228243079
 31
0.0
  0
LINE
  5
B3E9
  8
0
 10
4281.6233182167898121
 20
96.4548981787361015
 30
0.0
 11
4281.6397424606293498
 21
96.4735484036403648
 31
0.0
  0
LINE
  5
B3EA
  8
0
 10
4281.5639486771779048
 20
96.4963577344424692
 30
0.0
 11
4281.5838622759783902
 21
96.5075293653197406
 31
0.0
  0
LINE
  5
B3EB
  8
0
 10
4281.4952213462902364
 20
96.5858427222916163
 30
0.0
 11
4281.5109802078013672
 21
96.6019144313763434
 31
0.0
  0
LINE
  5
B3EC
  8
0
 10
4281.4269837625906803
 20
96.6554205347360949
 30
0.0
 11
4281.4404596501190099
 21
96.6686257747343234
 31
0.0
  0
LINE
  5
B3ED
  8
0
 10
4281.5476006953886099
 20
96.4947388523271457
 30
0.0
 11
4281.5953711078445849
 21
96.4360026483142434
 31
0.0
  0
LINE
  5
B3EE
  8
0
 10
4281.7286674574952485
 20
96.250531566183696
 30
0.0
 11
4281.7536860924910798
 21
96.2233709416361052
 31
0.0
  0
ARC
  5
B3EF
  8
0
 10
4281.7725224199421064
 20
96.2381786960485357
 30
0.0
 40
0.0239599003044655
 50
218.1718609673440881
 51
264.8257658422883765
  0
ARC
  5
B3F0
  8
0
 10
4281.6838471665996622
 20
96.0790866704606543
 30
0.0
 40
0.1554772201413481
 50
35.5514575140733626
 51
48.8463901677354713
  0
ARC
  5
B3F1
  8
0
 10
4281.9122615312990092
 20
96.2861923515880136
 30
0.0
 40
0.1549444425576735
 50
215.5284965025832093
 51
228.8698638656865967
  0
LINE
  5
B3F2
  8
0
 10
4281.8715929820909878
 20
96.1946697103361004
 30
0.0
 11
4281.8934067332520499
 21
96.2095127830697834
 31
0.0
  0
LINE
  5
B3F3
  8
0
 10
4282.0398639553741305
 20
95.9654469679206983
 30
0.0
 11
4282.0581392431386121
 21
95.9791090952089263
 31
0.0
  0
LINE
  5
B3F4
  8
0
 10
4282.0522285440229098
 20
95.9781163664014656
 30
0.0
 11
4282.0735089653499017
 21
95.9941034594397422
 31
0.0
  0
LINE
  5
B3F5
  8
0
 10
4282.0709236199509178
 20
95.9968983629009216
 30
0.0
 11
4282.0943319788721055
 21
96.0143049500430834
 31
0.0
  0
ARC
  5
B3F6
  8
0
 10
4282.3705320531016696
 20
96.3827828167250544
 30
0.0
 40
0.5489187309163265
 50
225.5077178785965941
 51
228.6367626676635041
  0
ARC
  5
B3F7
  8
0
 10
4282.0333745176867524
 20
95.9971806331813013
 30
0.0
 40
0.0367493495876833
 50
225.8775771628905034
 51
254.649167690115604
  0
ARC
  5
B3F8
  8
0
 10
4282.0276057629571369
 20
95.981911135169085
 30
0.0
 40
0.0205537979227442
 50
258.892060146198105
 51
284.9098512378708961
  0
ARC
  5
B3F9
  8
0
 10
4282.0276497472341362
 20
95.9816551266040108
 30
0.0
 40
0.0202951050357689
 50
284.9758203215603203
 51
307.001092426811681
  0
ARC
  5
B3FA
  8
0
 10
4282.2109965468262089
 20
96.2159324268085925
 30
0.0
 40
0.3002266740031491
 50
224.941162093688888
 51
229.7108585710172974
  0
ARC
  5
B3FB
  8
0
 10
4282.0599915419688841
 20
96.0349770147512629
 30
0.0
 40
0.0645747666267281
 50
228.0880661868847028
 51
245.0624979164134913
  0
ARC
  5
B3FC
  8
0
 10
4282.0408779112703996
 20
95.9970056280004798
 30
0.0
 40
0.0221241695548592
 50
248.4875990925380904
 51
282.4577358512394767
  0
ARC
  5
B3FD
  8
0
 10
4282.0331585624890067
 20
96.0150082332377508
 30
0.0
 40
0.0415291949642718
 50
287.5056294115142919
 51
297.3351478850808007
  0
ARC
  5
B3FE
  8
0
 10
4282.1665708470718528
 20
96.1700807907270416
 30
0.0
 40
0.2108561221699898
 50
224.6422398446441093
 51
231.7877523566961884
  0
ARC
  5
B3FF
  8
0
 10
4282.079245864531913
 20
96.0591593299901234
 30
0.0
 40
0.069685222095417
 50
231.7877523566961884
 51
246.917974679313005
  0
ARC
  5
B400
  8
0
 10
4282.0590146236845612
 20
96.0116865865164186
 30
0.0
 40
0.0180813028731185
 50
246.917974679313005
 51
281.8065552747456763
  0
ARC
  5
B401
  8
0
 10
4282.0560763636758566
 20
96.0257432095354346
 30
0.0
 40
0.0324417354077475
 50
281.8065552747456763
 51
297.2361580373985248
  0
ARC
  5
B402
  8
0
 10
4281.8555930259099114
 20
95.860459936694653
 30
0.0
 40
0.1887624560920449
 50
41.1099895115436311
 51
45.1083846321855972
  0
ARC
  5
B403
  8
0
 10
4281.9829916714752471
 20
95.9716359799486582
 30
0.0
 40
0.0196751192344251
 50
26.7234176227625895
 51
41.1099895115448604
  0
ARC
  5
B404
  8
0
 10
4282.0472701848348152
 20
96.0486102725364219
 30
0.0
 40
0.082599026755451
 50
223.0220357049940105
 51
235.5670261427495973
  0
ARC
  5
B405
  8
0
 10
4282.0421126640885632
 20
96.0435048195554941
 30
0.0
 40
0.0567219578489614
 50
222.1562651521095972
 51
240.5258522172559879
  0
ARC
  5
B406
  8
0
 10
4281.9668963967842501
 20
95.9681281581976293
 30
0.0
 40
0.0539792835826077
 50
28.7891795350156308
 51
48.1089068832081779
  0
ARC
  5
B407
  8
0
 10
4282.0524994693041663
 20
96.0542714274577349
 30
0.0
 40
0.045354851328472
 50
221.7825877909625945
 51
244.9157803709711914
  0
ARC
  5
B408
  8
0
 10
4281.9936515374265582
 20
95.995400651503104
 30
0.0
 40
0.0434319479437912
 50
24.1852260305655484
 51
48.3813661237233887
  0
ARC
  5
B409
  8
0
 10
4282.0970913929686503
 20
96.0212213653112769
 30
0.0
 40
0.0494985981638021
 50
225.6504258041038895
 51
257.36430129096982
  0
ARC
  5
B40A
  8
0
 10
4282.0005068791597296
 20
95.9357146746866647
 30
0.0
 40
0.0934802373388302
 50
23.4543985155922883
 51
40.9353606792575277
  0
ARC
  5
B40B
  8
0
 10
4282.0881701807966238
 20
96.0072792863465736
 30
0.0
 40
0.050249913129613
 50
222.011660421751202
 51
251.8030819087092027
  0
ARC
  5
B40C
  8
0
 10
4281.9618072121656951
 20
95.8934785984160669
 30
0.0
 40
0.1288892632157285
 50
30.8346811195236903
 51
42.8649338226522332
  0
ARC
  5
B40D
  8
0
 10
4282.1273764627094351
 20
96.0593720392288049
 30
0.0
 40
0.0736600833587625
 50
229.5360871207201114
 51
248.5316904190335947
  0
ARC
  5
B40E
  8
0
 10
4282.1024349377539693
 20
95.9959514433021752
 30
0.0
 40
0.0055113368203528
 50
248.5316904190827074
 51
293.0165141936760733
  0
ARC
  5
B40F
  8
0
 10
4282.1031649410451791
 20
95.9927051648221408
 30
0.0
 40
0.0023164167504284
 50
307.9617520378549216
 51
358.2418166089202032
  0
ARC
  5
B410
  8
0
 10
4282.0393108424450475
 20
95.972297072402128
 30
0.0
 40
0.0692241810181064
 50
17.0846913020431117
 51
41.051180480776182
  0
ARC
  5
B411
  8
0
 10
4281.7335487348591414
 20
95.7359646475527057
 30
0.0
 40
0.4555737113406165
 50
38.2101816175674216
 51
45.262876644021091
  0
LINE
  5
B412
  8
0
 10
4282.1182792141071332
 20
95.8929946419407742
 30
0.0
 11
4282.041498019165374
 21
95.9666685512851956
 31
0.0
  0
ARC
  5
B413
  8
0
 10
4282.1288152088582137
 20
95.8818693094993364
 30
0.0
 40
0.0203437296704792
 50
261.357956707707217
 51
298.0344874077895838
  0
ARC
  5
B414
  8
0
 10
4282.1294748340205842
 20
95.8862093358556251
 30
0.0
 40
0.0247335968813601
 50
229.3391589482546067
 51
261.357956707707217
  0
ARC
  5
B415
  8
0
 10
4282.3240824919121224
 20
96.1373450705846011
 30
0.0
 40
0.3424170461645456
 50
219.3370400523523074
 51
232.0189822283500121
  0
ARC
  5
B416
  8
0
 10
4282.0774932372150943
 20
95.9319166729782751
 30
0.0
 40
0.0216341693678329
 50
176.0589705585510103
 51
212.4975919979667935
  0
ARC
  5
B417
  8
0
 10
4282.0761138019452119
 20
95.9318499342974746
 30
0.0
 40
0.0202632256669834
 50
144.5419586696386887
 51
175.6026261591532887
  0
LINE
  5
B418
  8
0
 10
4282.0596085827901334
 20
95.9436047654365467
 30
0.0
 11
4282.0620158023375552
 21
95.9469811096063268
 31
0.0
  0
ARC
  5
B419
  8
0
 10
4282.2177052504448511
 20
95.7943899739129137
 30
0.0
 40
0.0206110229413757
 50
240.7747343876328898
 51
309.4309676447862216
  0
ARC
  5
B41A
  8
0
 10
4282.1520582250859661
 20
95.8995895766700812
 30
0.0
 40
0.03441678001779
 50
191.0473259752826038
 51
227.3979874824497927
  0
ARC
  5
B41B
  8
0
 10
4282.1368645311540604
 20
95.8962864319635173
 30
0.0
 40
0.0188745832081455
 50
143.2082010267579051
 51
190.0439370452409946
  0
ARC
  5
B41C
  8
0
 10
4282.1909890394554168
 20
95.8481262174386615
 30
0.0
 40
0.021872141523565
 50
233.574427961518694
 51
314.2629637914736236
  0
ARC
  5
B41D
  8
0
 10
4282.1636873362858751
 20
95.8429079899427165
 30
0.0
 40
0.0199952508967727
 50
167.8064169174193125
 51
227.9150036209665018
  0
ARC
  5
B41E
  8
0
 10
4282.1640498179931456
 20
95.8428296611170367
 30
0.0
 40
0.0203660991036241
 50
147.7034090978534948
 51
167.8064169174209042
  0
ARC
  5
B41F
  8
0
 10
4281.7335827169354161
 20
95.403391984237885
 30
0.0
 40
0.6607978962945529
 50
46.1552099219450369
 51
52.5146762280965902
  0
ARC
  5
B420
  8
0
 10
4282.1580989401491024
 20
95.9531176453507442
 30
0.0
 40
0.0460345550814221
 50
196.1156876881030939
 51
230.3638977289415095
  0
ARC
  5
B421
  8
0
 10
4282.0960718054957397
 20
95.8842389938807287
 30
0.0
 40
0.0588571243149816
 50
47.656151596677887
 51
72.394925672057596
  0
ARC
  5
B422
  8
0
 10
4282.3191829043325924
 20
95.6938860580125379
 30
0.0
 40
0.0198628653052971
 50
227.318601640200086
 51
311.4146929023590928
  0
ARC
  5
B423
  8
0
 10
4282.323713803202736
 20
95.7297219580258059
 30
0.0
 40
0.0321576475424465
 50
231.4896901446915933
 51
294.0864901251616175
  0
ARC
  5
B424
  8
0
 10
4282.263716092609684
 20
95.7417529465285497
 30
0.0
 40
0.0200957769029881
 50
147.3728809615953992
 51
226.3351031908578932
  0
ARC
  5
B425
  8
0
 10
4282.3650893927997458
 20
95.6651295853982759
 30
0.0
 40
0.019173148827401
 50
145.5728704597285059
 51
231.8579072892050874
  0
ARC
  5
B426
  8
0
 10
4282.4223291856151263
 20
95.6192967786684562
 30
0.0
 40
0.020326307376094
 50
230.6068449537125105
 51
312.5188385298350795
  0
ARC
  5
B427
  8
0
 10
4282.4352234966681863
 20
95.6447597769016511
 30
0.0
 40
0.0215128803747655
 50
230.4783830266362941
 51
311.6706452135991867
  0
ARC
  5
B428
  8
0
 10
4282.3835448925947276
 20
95.689705134298066
 30
0.0
 40
0.0240639367765373
 50
164.476137336476512
 51
221.8187658464050003
  0
ARC
  5
B429
  8
0
 10
4282.2868286319408071
 20
95.7718924698512666
 30
0.0
 40
0.039816424476963
 50
201.5482637904576961
 51
230.5130145689232108
  0
ARC
  5
B42A
  8
0
 10
4282.2665614573888888
 20
95.7638892896035969
 30
0.0
 40
0.0180263061113374
 50
143.5296725844206946
 51
201.5482637904584919
  0
ARC
  5
B42B
  8
0
 10
4282.474774653640452
 20
95.5674331865274667
 30
0.0
 40
0.0199635227623567
 50
231.2882280190646043
 51
315.0958990508526085
  0
ARC
  5
B42C
  8
0
 10
4282.4179194322341573
 20
95.6132468291854281
 30
0.0
 40
0.0203830203323338
 50
184.1058016461535942
 51
225.9833905670261061
  0
ARC
  5
B42D
  8
0
 10
4282.5659897107907454
 20
95.5153878630519841
 30
0.0
 40
0.0207022638737756
 50
247.1888104526418033
 51
314.3864599342903716
  0
ARC
  5
B42E
  8
0
 10
4282.5086030166330602
 20
95.5592264505331883
 30
0.0
 40
0.0203040900140118
 50
150.1885694131854905
 51
196.3297352613485884
  0
ARC
  5
B42F
  8
0
 10
4282.635805326442096
 20
95.446312910445414
 30
0.0
 40
0.019941841344057
 50
233.331640918993287
 51
315.5811759388643054
  0
ARC
  5
B430
  8
0
 10
4282.5771518663450479
 20
95.4899090561666242
 30
0.0
 40
0.0202261648166796
 50
161.5762724645726109
 51
226.0774422571172124
  0
ARC
  5
B431
  8
0
 10
4282.7959400387262576
 20
95.388512582910991
 30
0.0
 40
0.0320000011143774
 50
235.6253016305902861
 51
260.9529525180590781
  0
ARC
  5
B432
  8
0
 10
4285.8549540268968485
 20
99.8603247183549314
 30
0.0
 40
5.4499950504403731
 50
234.1286206884230126
 51
235.6253016305902861
  0
ARC
  5
B433
  8
0
 10
4282.4865589413102498
 20
95.6703906296889954
 30
0.0
 40
0.0444710579841976
 50
229.952851701472099
 51
264.1979434062317864
  0
ARC
  5
B434
  8
0
 10
4282.3700752038166684
 20
95.558721839929305
 30
0.0
 40
0.1307192902422857
 50
31.0512211720015117
 51
48.1471080657112012
  0
ARC
  5
B435
  8
0
 10
4281.7995578764102902
 20
94.9218171879404338
 30
0.0
 40
0.9857851102800236
 50
48.1471080657112012
 51
54.1317315075774985
  0
ARC
  5
B436
  8
0
 10
4282.3348546432862349
 20
95.662163543869525
 30
0.0
 40
0.0721903667718233
 50
54.1317315075770367
 51
76.6313341640085639
  0
ARC
  5
B437
  8
0
 10
4282.4097279203606377
 20
95.7580599616683514
 30
0.0
 40
0.0635897985703311
 50
203.8008541899222905
 51
228.9327749810859984
  0
ARC
  5
B438
  8
0
 10
4282.1349033980368404
 20
94.8337738396554215
 30
0.0
 40
0.7713484590846921
 50
50.6581695860086612
 51
56.2786158594812633
  0
ARC
  5
B439
  8
0
 10
4282.8978422632626462
 20
96.1597401590667573
 30
0.0
 40
0.7476712792374119
 50
228.636519732056712
 51
234.3368949447580007
  0
ARC
  5
B43A
  8
0
 10
4282.6033359492712407
 20
95.8962678926537535
 30
0.0
 40
0.3510855315754456
 50
224.3149951970939071
 51
236.4746475769316021
  0
ARC
  5
B43B
  8
0
 10
4282.5301107245968524
 20
95.8187267332437926
 30
0.0
 40
0.2193274634681374
 50
221.4080156508159973
 51
240.3214717012934898
  0
ARC
  5
B43C
  8
0
 10
4284.117017949941328
 20
97.8473392224730674
 30
0.0
 40
2.8251145437968108
 50
228.629869095760597
 51
230.1229475585284945
  0
ARC
  5
B43D
  8
0
 10
4282.4975107490772643
 20
95.9705163797390668
 30
0.0
 40
0.3290888982267044
 50
224.1814727698969136
 51
233.9162625508114104
  0
ARC
  5
B43E
  8
0
 10
4282.4014146807730867
 20
96.0491860526222041
 30
0.0
 40
0.3346022351706859
 50
221.3637449141749869
 51
234.6117894825260919
  0
ARC
  5
B43F
  8
0
 10
4282.3600190943961934
 20
95.9772452841405652
 30
0.0
 40
0.211200126841221
 50
215.8412547798575929
 51
237.5820038992931984
  0
ARC
  5
B440
  8
0
 10
4282.2078208652383182
 20
95.8648814578582744
 30
0.0
 40
0.0221158818365854
 50
146.8817827333359958
 51
210.7346828174111124
  0
ARC
  5
B441
  8
0
 10
4282.2577964215461179
 20
95.8228075562918349
 30
0.0
 40
0.0262634660479918
 50
245.2390398922312897
 51
305.9480122678194789
  0
ARC
  5
B442
  8
0
 10
4281.9083433545820299
 20
95.3982245524522341
 30
0.0
 40
0.5071022653342671
 50
47.5438709783642395
 51
49.6702837072654404
  0
ARC
  5
B443
  8
0
 10
4281.7642045184147719
 20
95.321616835109154
 30
0.0
 40
0.6746586478223425
 50
43.0707578202166275
 51
47.1433460105121611
  0
ARC
  5
B444
  8
0
 10
4281.9055562864587046
 20
95.292081107198868
 30
0.0
 40
0.6176575836720514
 50
41.9256167717919368
 51
54.8031025206891726
  0
ARC
  5
B445
  8
0
 10
4280.1995270398538196
 20
93.2594043279354565
 30
0.0
 40
3.2444464072934309
 50
48.3847192095488765
 51
48.7915087037128217
  0
ARC
  5
B446
  8
0
 10
4282.3027823528846056
 20
95.8277590259658894
 30
0.0
 40
0.0300575947043539
 50
220.4622171586464106
 51
276.1424723757008906
  0
ARC
  5
B447
  8
0
 10
4282.2159550207552456
 20
95.7557000626718349
 30
0.0
 40
0.0994307611136438
 50
25.0971111271582394
 51
40.3535727341374582
  0
ARC
  5
B448
  8
0
 10
4281.95716041151627
 20
95.5358099320165337
 30
0.0
 40
0.4390280510475889
 50
40.3535727341374582
 51
55.7839557133604416
  0
ARC
  5
B449
  8
0
 10
4282.1675156270157458
 20
95.8451518643586269
 30
0.0
 40
0.0649401632554675
 50
55.7839557133604416
 51
78.8652234957931881
  0
ARC
  5
B44A
  8
0
 10
4282.2307083582172709
 20
95.9230896796183856
 30
0.0
 40
0.052609892803301
 50
195.6817298984232139
 51
226.6182161334872944
  0
ARC
  5
B44B
  8
0
 10
4282.3321090018216637
 20
96.053644902771822
 30
0.0
 40
0.2711650768227576
 50
221.4180068169328877
 51
235.3671962710214132
  0
ARC
  5
B44C
  8
0
 10
4282.4955149379438808
 20
95.6689166044071726
 30
0.0
 40
0.0727580505619265
 50
228.3678218109847933
 51
248.174423677607308
  0
ARC
  5
B44D
  8
0
 10
4282.3636376556796677
 20
95.5213165663112704
 30
0.0
 40
0.131901085431818
 50
37.3692516716657934
 51
52.1133164483848503
  0
ARC
  5
B44E
  8
0
 10
4282.6010487485973499
 20
95.6948296622435066
 30
0.0
 40
0.1536054813075189
 50
217.4125008191954009
 51
227.6967201898206952
  0
ARC
  5
B44F
  8
0
 10
4282.4517579105731784
 20
95.5222133655069428
 30
0.0
 40
0.0838564481546693
 50
53.013328804317851
 51
71.0117299426898683
  0
ARC
  5
B450
  8
0
 10
4281.9803171670127995
 20
94.8141581485459852
 30
0.0
 40
0.9343735247129806
 50
48.730138190653733
 51
56.0446493357795177
  0
ARC
  5
B451
  8
0
 10
4282.5437137484177583
 20
95.4529749716874392
 30
0.0
 40
0.0826380248088638
 50
33.6433065228365109
 51
50.17763578640389
  0
ARC
  5
B452
  8
0
 10
4282.6407635818522976
 20
95.5800805465760135
 30
0.0
 40
0.086090572966415
 50
234.1625410124470079
 51
250.8414790389350912
  0
ARC
  5
B453
  8
0
 10
4282.7131535026683196
 20
95.7682379037321567
 30
0.0
 40
0.3130999080199559
 50
226.737052446265011
 51
240.2869575287905093
  0
ARC
  5
B454
  8
0
 10
4282.5270827907606872
 20
95.5705284533866859
 30
0.0
 40
0.0416015901879705
 50
204.1356141065793111
 51
226.7370524462644141
  0
ARC
  5
B455
  8
0
 10
4282.0967828815719258
 20
95.7972225603145944
 30
0.0
 40
0.0828758948090828
 50
34.8323341199084808
 51
59.9070478927420211
  0
ARC
  5
B456
  8
0
 10
4282.2094426951944115
 20
95.9196091852378032
 30
0.0
 40
0.0873188714778148
 50
215.4798431168601951
 51
239.259538895813705
  0
ARC
  5
B457
  8
0
 10
4282.1884333015432276
 20
95.7895800197044736
 30
0.0
 40
0.0513437500301731
 50
29.1729752560999884
 51
69.2462404198019073
  0
ARC
  5
B458
  8
0
 10
4282.2660449101013
 20
95.8795244215881723
 30
0.0
 40
0.0727240784679566
 50
215.2113181540391054
 51
243.207897521887304
  0
ARC
  5
B459
  8
0
 10
4282.2170367558974249
 20
95.6477619612947336
 30
0.0
 40
0.1033538381204609
 50
39.1467534449130667
 51
59.2033815147277807
  0
ARC
  5
B45A
  8
0
 10
4282.3518772400520902
 20
95.8038388060177368
 30
0.0
 40
0.1060209326781275
 50
219.4015374724108085
 51
238.9485974872314955
  0
ARC
  5
B45B
  8
0
 10
4282.3462814906342828
 20
95.5917867364797331
 30
0.0
 40
0.0791508482397792
 50
37.504301203664383
 51
63.790514095666687
  0
ARC
  5
B45C
  8
0
 10
4282.4440306041997246
 20
95.7109894094075031
 30
0.0
 40
0.0791521089801885
 50
217.5045142987569875
 51
243.7903010005450142
  0
ARC
  5
B45D
  8
0
 10
4282.2798463847620951
 20
95.5023227595848283
 30
0.0
 40
0.1618027715999967
 50
44.3896717517134221
 51
57.1417214580485719
  0
ARC
  5
B45E
  8
0
 10
4282.4779068808384181
 20
95.744872287833104
 30
0.0
 40
0.1533966278203862
 50
224.0386934035651052
 51
237.4926998062026087
  0
ARC
  5
B45F
  8
0
 10
4282.4548312594697563
 20
95.4296167434463314
 30
0.0
 40
0.1169858295171989
 50
43.6264171850788998
 51
61.3274991288085403
  0
ARC
  5
B460
  8
0
 10
4282.5984716627217495
 20
95.6166567680032529
 30
0.0
 40
0.121578428204254
 50
223.9632769837118076
 51
240.9906393301490084
  0
LINE
  5
B461
  8
0
 10
4282.121749442089822
 20
95.9075905893360954
 30
0.0
 11
4282.1357166904908809
 21
95.9277412257360993
 31
0.0
  0
LINE
  5
B462
  8
0
 10
4282.1468344842396618
 20
95.8537113097281548
 30
0.0
 11
4282.1477227681180011
 21
95.854817802736008
 31
0.0
  0
LINE
  5
B463
  8
0
 10
4282.2307963019538875
 20
95.778470217724248
 30
0.0
 11
4282.2453519242853872
 21
95.7945454395576377
 31
0.0
  0
LINE
  5
B464
  8
0
 10
4282.2520653365018006
 20
95.7746042413634768
 30
0.0
 11
4282.264865207940602
 21
95.794473373870801
 31
0.0
  0
LINE
  5
B465
  8
0
 10
4282.2467914836897762
 20
95.7525879759360947
 30
0.0
 11
4282.2497950366496298
 21
95.7572685005566058
 31
0.0
  0
LINE
  5
B466
  8
0
 10
4282.2732144140600212
 20
95.8015459675525136
 30
0.0
 11
4282.2917275481913748
 21
95.8200817397360964
 31
0.0
  0
LINE
  5
B467
  8
0
 10
4282.336837828291209
 20
95.7003642629361053
 30
0.0
 11
4282.3541018801633982
 21
95.7167076973183981
 31
0.0
  0
LINE
  5
B468
  8
0
 10
4282.3323222731905844
 20
95.6789900718360968
 30
0.0
 11
4282.3467354413824069
 21
95.6916469221243347
 31
0.0
  0
LINE
  5
B469
  8
0
 10
4282.3492744997138288
 20
95.6759692714011436
 30
0.0
 11
4282.3747448359135888
 21
95.7223318211153043
 31
0.0
  0
LINE
  5
B46A
  8
0
 10
4282.4360663664456297
 20
95.6043151687968731
 30
0.0
 11
4282.4521508305779207
 21
95.619108765425068
 31
0.0
  0
LINE
  5
B46B
  8
0
 10
4282.4495262864911638
 20
95.6286901090361141
 30
0.0
 11
4282.4681765113964502
 21
95.6451143528737759
 31
0.0
  0
LINE
  5
B46C
  8
0
 10
4282.4909858421970057
 20
95.5693205694239083
 30
0.0
 11
4282.5021574730735665
 21
95.5892341682235553
 31
0.0
  0
LINE
  5
B46D
  8
0
 10
4282.5804708300465791
 20
95.5005932385348757
 30
0.0
 11
4282.5965425391314056
 21
95.516352100045097
 31
0.0
  0
LINE
  5
B46E
  8
0
 10
4282.6500486424911287
 20
95.4323556548361154
 30
0.0
 11
4282.6632539111478764
 21
95.4458315716094035
 31
0.0
  0
LINE
  5
B46F
  8
0
 10
4282.6640447726249477
 20
95.4466386421605506
 30
0.0
 11
4282.6640602597617544
 21
95.4466544467130262
 31
0.0
  0
LINE
  5
B470
  8
0
 10
4282.4893669600824069
 20
95.5529725876333913
 30
0.0
 11
4282.4306307560691494
 21
95.6007430000899632
 31
0.0
  0
LINE
  5
B471
  8
0
 10
4282.2451596739383604
 20
95.7340393497401436
 30
0.0
 11
4282.2179990493914374
 21
95.759057984736117
 31
0.0
  0
ARC
  5
B472
  8
0
 10
4282.2328068038032143
 20
95.7778943121876125
 30
0.0
 40
0.0239599003044655
 50
185.1742341576959916
 51
231.8281390326889095
  0
ARC
  5
B473
  8
0
 10
4282.0742164833791321
 20
95.6897116959939069
 30
0.0
 40
0.1547752729466178
 50
41.1385180562636492
 51
54.4944429989032884
  0
ARC
  5
B474
  8
0
 10
4282.2812749492313742
 20
95.9181974070196617
 30
0.0
 40
0.1556675406318252
 50
221.1769681016504876
 51
234.4559929535161018
  0
LINE
  5
B475
  8
0
 10
4282.1892978180912905
 20
95.876964874336096
 30
0.0
 11
4282.2041408908253288
 21
95.8987786254976839
 31
0.0
  0
LINE
  5
B476
  8
0
 10
4282.5856519674898664
 20
95.5052325612360846
 30
0.0
 11
4282.6821343963802065
 21
95.431379362623133
 31
0.0
  0
LINE
  5
B477
  8
0
 10
4282.6821343963829349
 20
95.4313793626268989
 30
0.0
 11
4282.6619480440913321
 21
95.4444152954360874
 31
0.0
  0
LINE
  5
B478
  8
0
 10
4281.5000471944349556
 20
96.5907643739876107
 30
0.0
 11
4281.4260092414142491
 21
96.6875077252493043
 31
0.0
  0
LINE
  5
B479
  8
0
 10
4281.4260092414142491
 20
96.6875077252493043
 30
0.0
 11
4281.4390384857906611
 21
96.6673269599360907
 31
0.0
  0
ENDSEC
  0
EOF
