  0
SECTION
  2
HEADER
  9
$ACADVER
  1
AC1009
  9
$INSBASE
 10
4283.1652079023879196
 20
101.2923790182705943
 30
0.0
  9
$EXTMIN
 10
4281.9841079023872226
 20
92.8175132990801472
 30
0.0
  9
$EXTMAX
 10
4284.3463079023877071
 20
101.2985121297229938
 30
0.0
  9
$LIMMIN
 10
0.0
 20
0.0
  9
$LIMMAX
 10
11.6929133858000007
 20
8.2677165353999982
  9
$ORTHOMODE
 70
     0
  9
$REGENMODE
 70
     1
  9
$FILLMODE
 70
     1
  9
$QTEXTMODE
 70
     0
  9
$MIRRTEXT
 70
     0
  9
$DRAGMODE
 70
     2
  9
$LTSCALE
 40
0.6431102362
  9
$OSMODE
 70
  4095
  9
$ATTMODE
 70
     1
  9
$TEXTSIZE
 40
0.2
  9
$TRACEWID
 40
0.05
  9
$TEXTSTYLE
  7
STANDARD
  9
$CLAYER
  8
0
  9
$CELTYPE
  6
BYLAYER
  9
$CECOLOR
 62
   256
  9
$DIMSCALE
 40
1.0
  9
$DIMASZ
 40
0.1875
  9
$DIMEXO
 40
0.0625
  9
$DIMDLI
 40
0.4443307087
  9
$DIMRND
 40
0.0
  9
$DIMDLE
 40
0.0
  9
$DIMEXE
 40
0.125
  9
$DIMTP
 40
0.01
  9
$DIMTM
 40
0.01
  9
$DIMTXT
 40
2.0
  9
$DIMCEN
 40
0.1052362205
  9
$DIMTSZ
 40
0.0
  9
$DIMTOL
 70
     1
  9
$DIMLIM
 70
     0
  9
$DIMTIH
 70
     1
  9
$DIMTOH
 70
     1
  9
$DIMSE1
 70
     0
  9
$DIMSE2
 70
     0
  9
$DIMTAD
 70
     0
  9
$DIMZIN
 70
     0
  9
$DIMBLK
  1

  9
$DIMASO
 70
     1
  9
$DIMSHO
 70
     1
  9
$DIMPOST
  1
\X
  9
$DIMAPOST
  1

  9
$DIMALT
 70
     1
  9
$DIMALTD
 70
     2
  9
$DIMALTF
 40
25.3999999999999986
  9
$DIMLFAC
 40
1.0
  9
$DIMTOFL
 70
     0
  9
$DIMTVP
 40
0.0
  9
$DIMTIX
 70
     0
  9
$DIMSOXD
 70
     0
  9
$DIMSAH
 70
     0
  9
$DIMBLK1
  1

  9
$DIMBLK2
  1

  9
$DIMSTYLE
  2
STANDARD
  9
$DIMCLRD
 70
     0
  9
$DIMCLRE
 70
     0
  9
$DIMCLRT
 70
     0
  9
$DIMTFAC
 40
1.0
  9
$DIMGAP
 40
0.09
  9
$LUNITS
 70
     2
  9
$LUPREC
 70
     4
  9
$SKETCHINC
 40
0.1
  9
$FILLETRAD
 40
0.0
  9
$AUNITS
 70
     0
  9
$AUPREC
 70
     0
  9
$MENU
  1
.
  9
$ELEVATION
 40
0.0
  9
$PELEVATION
 40
0.0
  9
$THICKNESS
 40
0.0
  9
$LIMCHECK
 70
     0
  9
$BLIPMODE
 70
     0
  9
$CHAMFERA
 40
0.0
  9
$CHAMFERB
 40
0.0
  9
$SKPOLY
 70
     0
  9
$TDCREATE
 40
2458060.468368056230247
  9
$TDUPDATE
 40
2459546.4788541668094695
  9
$TDINDWG
 40
0.3611876157
  9
$TDUSRTIMER
 40
0.3611876157
  9
$USRTIMER
 70
     1
  9
$ANGBASE
 50
0.0
  9
$ANGDIR
 70
     0
  9
$PDMODE
 70
     0
  9
$PDSIZE
 40
0.3125
  9
$PLINEWID
 40
0.0
  9
$COORDS
 70
     1
  9
$SPLFRAME
 70
     0
  9
$SPLINETYPE
 70
     6
  9
$SPLINESEGS
 70
     8
  9
$ATTDIA
 70
     1
  9
$ATTREQ
 70
     1
  9
$HANDLING
 70
     1
  9
$HANDSEED
  5
B376
  9
$SURFTAB1
 70
     6
  9
$SURFTAB2
 70
     6
  9
$SURFTYPE
 70
     6
  9
$SURFU
 70
     6
  9
$SURFV
 70
     6
  9
$UCSNAME
  2

  9
$UCSORG
 10
0.0
 20
0.0
 30
0.0
  9
$UCSXDIR
 10
1.0
 20
0.0
 30
0.0
  9
$UCSYDIR
 10
0.0
 20
1.0
 30
0.0
  9
$PUCSNAME
  2

  9
$PUCSORG
 10
0.0
 20
0.0
 30
0.0
  9
$PUCSXDIR
 10
1.0
 20
0.0
 30
0.0
  9
$PUCSYDIR
 10
0.0
 20
1.0
 30
0.0
  9
$USERI1
 70
     0
  9
$USERI2
 70
     0
  9
$USERI3
 70
     0
  9
$USERI4
 70
     0
  9
$USERI5
 70
     0
  9
$USERR1
 40
0.0
  9
$USERR2
 40
0.0
  9
$USERR3
 40
0.0
  9
$USERR4
 40
0.0
  9
$USERR5
 40
0.0
  9
$WORLDVIEW
 70
     1
  9
$SHADEDGE
 70
     3
  9
$SHADEDIF
 70
    70
  9
$TILEMODE
 70
     1
  9
$MAXACTVP
 70
    64
  9
$PLIMCHECK
 70
     0
  9
$PEXTMIN
 10
1.0000000000000000E+20
 20
1.0000000000000000E+20
 30
1.0000000000000000E+20
  9
$PEXTMAX
 10
-1.0000000000000000E+20
 20
-1.0000000000000000E+20
 30
-1.0000000000000000E+20
  9
$PLIMMIN
 10
0.0
 20
0.0
  9
$PLIMMAX
 10
12.0
 20
9.0
  9
$UNITMODE
 70
     0
  9
$VISRETAIN
 70
     1
  9
$PLINEGEN
 70
     0
  9
$PSLTSCALE
 70
     1
  0
ENDSEC
  0
SECTION
  2
TABLES
  0
TABLE
  2
VPORT
 70
     1
  0
VPORT
  2
*ACTIVE
 70
     0
 10
0.0
 20
0.0
 11
1.0
 21
1.0
 12
0.0
 22
0.0
 13
0.0
 23
0.0
 14
1.0
 24
1.0
 15
0.0
 25
0.0
 16
0.0
 26
0.0
 36
25.0282926177938094
 17
4283.1650390625
 27
97.0580123209650338
 37
0.0
 40
8.8038535851574888
 41
2.127494456762749
 42
50.0
 43
0.0
 44
0.0
 50
0.0
 51
0.0
 71
     0
 72
   100
 73
     1
 74
     1
 75
     0
 76
     0
 77
     0
 78
     0
  0
ENDTAB
  0
TABLE
  2
LTYPE
 70
     2
  0
LTYPE
  2
CONTINUOUS
 70
     0
  3
Solid line
 72
    65
 73
     0
 40
0.0
  0
LTYPE
  2
PHANTOM2
 70
     0
  3
___ _ _ ___ _ _ ___ _ _ ___ _ _
 72
    65
 73
     6
 40
1.25
 49
0.625
 49
-0.125
 49
0.125
 49
-0.125
 49
0.125
 49
-0.125
  0
ENDTAB
  0
TABLE
  2
LAYER
 70
     2
  0
LAYER
  2
0
 70
     0
 62
   255
  6
CONTINUOUS
  0
LAYER
  2
DEFPOINTS
 70
     0
 62
     7
  6
CONTINUOUS
  0
ENDTAB
  0
TABLE
  2
STYLE
 70
     1
  0
STYLE
  2
STANDARD
 70
     0
 40
0.0
 41
0.8
 50
0.0
 71
     0
 42
0.2
  3
txt
  4

  0
ENDTAB
  0
TABLE
  2
VIEW
 70
     0
  0
ENDTAB
  0
TABLE
  2
UCS
 70
     0
  0
ENDTAB
  0
TABLE
  2
APPID
 70
    10
  0
APPID
  2
ACAD
 70
     0
  0
APPID
  2
ACAD_MLEADERVER
 70
     0
  0
APPID
  2
ACAD_EXEMPT_FROM_CAD_STANDARDS
 70
     0
  0
APPID
  2
ACAD_NAV_VCDISPLAY
 70
     0
  0
APPID
  2
ACAECLAYERSTANDARD
 70
     0
  0
APPID
  2
ACCMTRANSPARENCY
 70
     0
  0
APPID
  2
ACAD_DSTYLE_DIMJAG
 70
     0
  0
APPID
  2
ACAD_DSTYLE_DIMTALN
 70
     0
  0
APPID
  2
ACDBATTR
 70
     0
  0
APPID
  2
DCO15
 70
     0
  0
ENDTAB
  0
TABLE
  2
DIMSTYLE
 70
     1
  0
DIMSTYLE
  2
STANDARD
 70
     0
  3

  4

  5

  6

  7

 40
1.0
 41
0.1875
 42
0.0625
 43
0.38
 44
0.125
 45
0.0
 46
0.0
 47
0.01
 48
0.01
140
0.15625
141
0.09
142
0.0
143
25.3999999999999986
144
1.0
145
0.0
146
1.0
147
0.09
 71
     1
 72
     0
 73
     1
 74
     1
 75
     0
 76
     0
 77
     0
 78
     4
170
     0
171
     2
172
     0
173
     0
174
     0
175
     0
176
     0
177
     0
178
     0
  0
ENDTAB
  0
ENDSEC
  0
SECTION
  2
BLOCKS
  0
BLOCK
  8
0
  2
$MODEL_SPACE
 70
     0
 10
0.0
 20
0.0
 30
0.0
  3
$MODEL_SPACE
  1

  0
ENDBLK
  5
21
  8
0
  0
BLOCK
 67
     1
  8
0
  2
$PAPER_SPACE
 70
     0
 10
0.0
 20
0.0
 30
0.0
  3
$PAPER_SPACE
  1

  0
ENDBLK
  5
1D
 67
     1
  8
0
  0
ENDSEC
  0
SECTION
  2
ENTITIES
  0
ATTDEF
  5
9852
  8
DEFPOINTS
 10
4283.1608987715226249
 20
101.2975121297230032
 30
0.0
 40
0.001
  1
P21386-00
  3

  2
MODELNUMBER
 70
     0
1001
ACDBATTR
1070
     0
1070
     1
  0
ATTDEF
  5
9853
  8
DEFPOINTS
 10
4283.1608987715226249
 20
101.2958454630562954
 30
0.0
 40
0.001
  1
CENTRAL PARK WEST
  3

  2
TRADENAME
 70
     0
1001
ACDBATTR
1070
     0
1070
     1
  0
ATTDEF
  5
9854
  8
DEFPOINTS
 10
4283.1608987715226249
 20
101.2941787963896019
 30
0.0
 40
0.001
  1
SHOWERHEAD
  3

  2
PRODUCT
 70
     0
1001
ACDBATTR
1070
     0
1070
     1
  0
LINE
  5
B1EE
  8
0
 10
4282.4731586267380408
 20
100.8923790182706028
 30
0.0
 11
4283.8572571780387079
 21
100.8923790182706028
 31
0.0
  0
LINE
  5
B1EF
  8
0
 10
4282.1752026540380029
 20
101.2923790182705943
 30
0.0
 11
4284.1552131507378363
 21
101.2923790182705943
 31
0.0
  0
LINE
  5
B1F0
  8
0
 10
4282.1652079023751867
 20
101.1643790182705942
 30
0.0
 11
4282.1652079023751867
 21
101.2823790182706034
 31
0.0
  0
LINE
  5
B1F1
  8
0
 10
4282.1852026540382212
 20
101.1443790182705982
 30
0.0
 11
4284.145213150739437
 21
101.1443790182705982
 31
0.0
  0
LINE
  5
B1F2
  8
0
 10
4282.3477947310821037
 20
101.0539727979615066
 30
0.0
 11
4283.9826210736955545
 21
101.0539727979615066
 31
0.0
  0
LINE
  5
B1F3
  8
0
 10
4282.3312026540388615
 20
101.1123790182706017
 30
0.0
 11
4282.3312026540388615
 21
101.0739727978705957
 31
0.0
  0
ARC
  5
B1F4
  8
0
 10
4282.1851989440801844
 20
101.164370061637797
 30
0.0
 40
0.0199910437114015
 50
179.9743296405659976
 51
270.0106330107558961
  0
ARC
  5
B1F5
  8
0
 10
4282.1751989452550333
 20
101.2823879720669993
 30
0.0
 40
0.0099910468919972
 50
89.9787311909030763
 51
180.0513474531051088
  0
ARC
  5
B1F6
  8
0
 10
4282.2992026540387087
 20
101.1123790182706017
 30
0.0
 40
0.032
 50
359.9999999999935199
 51
90.0
  0
ARC
  5
B1F7
  8
0
 10
4282.3519016313302927
 20
101.0742623237447049
 30
0.0
 40
0.0207010020567876
 50
180.8013694922238983
 51
258.5570932727645754
  0
ARC
  5
B1F8
  8
0
 10
4282.3274044727304499
 20
100.948060564939496
 30
0.0
 40
0.1078571449767127
 50
31.056909237120081
 51
79.1027244654454478
  0
ARC
  5
B1F9
  8
0
 10
4282.2481034608927075
 20
100.8894873061614987
 30
0.0
 40
0.2062163967467757
 50
5.8079228208573204
 51
33.6324244996632231
  0
ARC
  5
B1FA
  8
0
 10
4282.4731586267380408
 20
100.9123790182705989
 30
0.0
 40
0.02
 50
185.8079228208588916
 51
270.0
  0
LINE
  5
B1FB
  8
0
 10
4284.165207902401562
 20
101.1643790182705942
 30
0.0
 11
4284.165207902401562
 21
101.2823790182706034
 31
0.0
  0
LINE
  5
B1FC
  8
0
 10
4283.9992131507378872
 20
101.1123790182706017
 30
0.0
 11
4283.9992131507378872
 21
101.0739727978705957
 31
0.0
  0
ARC
  5
B1FD
  8
0
 10
4284.1452168606965643
 20
101.164370061637797
 30
0.0
 40
0.0199910437114017
 50
269.9893669892961725
 51
0.0256703594340141
  0
ARC
  5
B1FE
  8
0
 10
4284.1552168595226249
 20
101.2823879720669993
 30
0.0
 40
0.0099910468919968
 50
359.9486525468948912
 51
90.021268809096938
  0
ARC
  5
B1FF
  8
0
 10
4284.0312131507389495
 20
101.1123790182706017
 30
0.0
 40
0.032
 50
90.0
 51
180.0000000000065086
  0
ARC
  5
B200
  8
0
 10
4283.9785141734473655
 20
101.0742623237447049
 30
0.0
 40
0.0207010020567876
 50
281.4429067272353109
 51
359.1986305077753059
  0
ARC
  5
B201
  8
0
 10
4284.0030113320481178
 20
100.948060564939496
 30
0.0
 40
0.1078571449767127
 50
100.8972755345544954
 51
148.9430907628799048
  0
ARC
  5
B202
  8
0
 10
4284.0823123438831317
 20
100.8894873061614987
 30
0.0
 40
0.2062163967467757
 50
146.3675755003368124
 51
174.1920771791425864
  0
ARC
  5
B203
  8
0
 10
4283.8572571780387079
 20
100.9123790182705989
 30
0.0
 40
0.02
 50
270.0
 51
354.1920771791409948
  0
LINE
  5
B204
  8
0
 10
4282.7616645952875842
 20
96.6374494670194224
 30
0.0
 11
4282.7616645952875842
 21
100.8923790182706028
 31
0.0
  0
LINE
  5
B205
  8
0
 10
4282.6702079023889382
 20
96.1063533579706757
 30
0.0
 11
4282.6702079023889382
 21
96.6362003620594123
 31
0.0
  0
LINE
  5
B206
  8
0
 10
4281.9841079023872226
 20
93.6993073043518336
 30
0.0
 11
4281.9841079023872226
 21
95.103396374469753
 31
0.0
  0
ARC
  5
B207
  8
0
 10
4282.9880235435593931
 20
96.6012993451295046
 30
0.0
 40
0.3216767816116013
 50
134.7619700683110864
 51
163.2433231143266994
  0
ARC
  5
B208
  8
0
 10
4282.90590436862567
 20
96.6260248483570336
 30
0.0
 40
0.2359160131830945
 50
163.2433231143259036
 51
177.5279553819702869
  0
ARC
  5
B209
  8
0
 10
4282.9232099458804441
 20
96.6238399623120614
 30
0.0
 40
0.2530151838132795
 50
182.1440351304133003
 51
196.6172276975476905
  0
ARC
  5
B20A
  8
0
 10
4282.9762762386599206
 20
96.6396770868320232
 30
0.0
 40
0.3083942948800566
 50
196.6172276975476905
 51
236.4741640185692972
  0
ARC
  5
B20B
  8
0
 10
4283.2052753637508431
 20
96.9853182882771847
 30
0.0
 40
0.7230127211817412
 50
236.4741640185692972
 51
250.871942549890008
  0
ARC
  5
B20C
  8
0
 10
4283.1425583569107403
 20
96.8044888117785831
 30
0.0
 40
0.5316159539213603
 50
250.871942549890008
 51
272.4418309465530115
  0
ARC
  5
B20D
  8
0
 10
4283.0128239038022002
 20
96.1023648342034562
 30
0.0
 40
0.3426392165917056
 50
179.3330280697695969
 51
202.721106910426613
  0
ARC
  5
B20E
  8
0
 10
4283.0891893154102945
 20
96.1343422374185081
 30
0.0
 40
0.4254294962542823
 50
202.721106910426613
 51
237.0197369186066965
  0
ARC
  5
B20F
  8
0
 10
4283.1602117334823561
 20
96.2504375351628738
 30
0.0
 40
0.5614897028368296
 50
237.389005987966101
 51
270.509827995409978
  0
ARC
  5
B210
  8
0
 10
4282.9406297006344175
 20
95.7333798281540567
 30
0.0
 40
0.5688254687060662
 50
118.4034217827152986
 51
154.2259696555551045
  0
ARC
  5
B211
  8
0
 10
4282.8011747019727409
 20
95.8074301665656947
 30
0.0
 40
0.411087573887447
 50
155.0485271951125128
 51
181.4339415693582964
  0
ARC
  5
B212
  8
0
 10
4282.8337174266698639
 20
95.8205198582048752
 30
0.0
 40
0.4438684002055069
 50
181.888018602787696
 51
223.982568023257187
  0
ARC
  5
B213
  8
0
 10
4283.0246541248570793
 20
95.9918686304705204
 30
0.0
 40
0.7003102177938541
 50
223.2216853376166057
 51
243.4136835544715893
  0
LINE
  5
B214
  8
0
 10
4282.7112334169878523
 20
95.1945108422706596
 30
0.0
 11
4283.2442333227618292
 21
95.0935240477477066
 31
0.0
  0
ARC
  5
B215
  8
0
 10
4283.1617953762579418
 20
96.1154814123772354
 30
0.0
 40
1.025276972405132
 50
243.9309572974487139
 51
274.6118764421410106
  0
LINE
  5
B216
  8
0
 10
4282.7397085913889896
 20
95.367284325970644
 30
0.0
 11
4283.2158271877087827
 21
95.2770747587529172
 31
0.0
  0
LINE
  5
B217
  8
0
 10
4283.2158271877087827
 20
95.2770747587529172
 30
0.0
 11
4283.2443023614878257
 21
95.2646085370706572
 31
0.0
  0
LINE
  5
B218
  8
0
 10
4282.7397085913889896
 20
95.367284325970644
 30
0.0
 11
4282.7112334169878523
 21
95.3656084121706442
 31
0.0
  0
LINE
  5
B219
  8
0
 10
4283.2443023614878257
 20
95.2646085370706572
 30
0.0
 11
4283.2442333227618292
 21
95.0935240477477066
 31
0.0
  0
LINE
  5
B21A
  8
0
 10
4282.7112334169878523
 20
95.3656084121706442
 30
0.0
 11
4282.7112334169878523
 21
95.1945108422706596
 31
0.0
  0
LINE
  5
B21B
  8
0
 10
4282.390215863884805
 20
95.2663170783962556
 30
0.0
 11
4282.390215863884805
 21
95.7971429511483592
 31
0.0
  0
ARC
  5
B21C
  8
0
 10
4283.1645997029772843
 20
95.7905208067064962
 30
0.0
 40
1.0741041008428569
 50
259.3292399477722938
 51
270.0324430948733152
  0
ARC
  5
B21D
  8
0
 10
4283.1426635270881889
 20
95.6832261164600624
 30
0.0
 40
0.9646044774423492
 50
246.7353084990072887
 51
259.4295996565006135
  0
ARC
  5
B21E
  8
0
 10
4283.0494853936670552
 20
95.4788584099506181
 30
0.0
 40
0.7400665651058623
 50
226.5024987603621014
 51
247.113179653436589
  0
ARC
  5
B21F
  8
0
 10
4282.7840189546068359
 20
95.2515169285841097
 30
0.0
 40
0.3940811067500444
 50
177.8476877617723915
 51
231.7564561028084995
  0
ARC
  5
B220
  8
0
 10
4283.1647754434488888
 20
94.4583192310281277
 30
0.0
 40
1.640805931947986
 50
263.1247590120518112
 51
270.015101159635492
  0
ARC
  5
B221
  8
0
 10
4283.1473663437564028
 20
94.3139350788305535
 30
0.0
 40
1.495376017013216
 50
239.971531379871692
 51
263.1247590120518112
  0
ARC
  5
B222
  8
0
 10
4282.8507660064342417
 20
93.8007972068227787
 30
0.0
 40
0.9026853423876721
 50
208.2784922013981088
 51
239.971531379871692
  0
ARC
  5
B223
  8
0
 10
4283.0115901029903398
 20
93.7542239579341583
 30
0.0
 40
1.0289487408975659
 50
183.0594217969577073
 51
201.7377846349772881
  0
ARC
  5
B224
  8
0
 10
4282.8515456949699001
 20
95.0270846552889878
 30
0.0
 40
0.9051928471229395
 50
120.8333531652378952
 51
150.1728045019804085
  0
ARC
  5
B225
  8
0
 10
4282.9616286561522429
 20
95.0846029156280252
 30
0.0
 40
0.9777013951785468
 50
156.3174774164394876
 51
178.8985878506200038
  0
ARC
  5
B226
  8
0
 10
4282.7493425839256815
 20
95.2250090892267309
 30
0.0
 40
0.7748378993178314
 50
189.0300501528139137
 51
205.9109880079581956
  0
ARC
  5
B227
  8
0
 10
4282.829982273549831
 20
95.2836641240368891
 30
0.0
 40
0.8731777536718507
 50
207.0607637383203894
 51
248.6695627165613871
  0
ARC
  5
B228
  8
0
 10
4283.1549269604656729
 20
95.8836365119334886
 30
0.0
 40
1.5525466643615671
 50
245.55153213073649
 51
270.379414609683522
  0
ARC
  5
B229
  8
0
 10
4282.9746128501055864
 20
96.6990868073085466
 30
0.0
 40
0.212964446298327
 50
180.7065291901126045
 51
215.118925678289088
  0
ARC
  5
B22A
  8
0
 10
4283.1252413373176751
 20
96.8371263794951034
 30
0.0
 40
0.4164119699028314
 50
218.7342585932341876
 51
265.5725629535339749
  0
LINE
  5
B22B
  8
0
 10
4283.093095801187701
 20
96.421957024670661
 30
0.0
 11
4283.093095801187701
 21
96.4149973122706569
 31
0.0
  0
ARC
  5
B22C
  8
0
 10
4283.1430929112693775
 20
96.934473676481403
 30
0.0
 40
0.5218768092089129
 50
250.4384080956866114
 51
264.5024888640497807
  0
ARC
  5
B22D
  8
0
 10
4283.0726688252898384
 20
96.765198676752803
 30
0.0
 40
0.338930951319967
 50
214.6571794128383885
 51
252.075477536186213
  0
ARC
  5
B22E
  8
0
 10
4282.9628945385784391
 20
96.6815128064711047
 30
0.0
 40
0.2011470219103045
 50
178.1585755639636943
 51
212.8302600927825949
  0
ARC
  5
B22F
  8
0
 10
4282.9592595136537057
 20
96.6230893222518006
 30
0.0
 40
0.2238960439241621
 50
151.9740034154789043
 51
186.1965145334089016
  0
ARC
  5
B230
  8
0
 10
4282.945936362158136
 20
96.6216427848736146
 30
0.0
 40
0.2104945948918035
 50
186.1965145334089016
 51
215.0516443863322991
  0
ARC
  5
B231
  8
0
 10
4283.0801564673229223
 20
96.7158051254219231
 30
0.0
 40
0.3744506347572887
 50
215.0516443863322991
 51
252.6284874529177102
  0
ARC
  5
B232
  8
0
 10
4283.1631424621245969
 20
96.9121410560881031
 30
0.0
 40
0.5869692385761626
 50
250.6190437753074889
 51
270.2016140647937164
  0
ARC
  5
B233
  8
0
 10
4283.1532674803420377
 20
96.9205133131731458
 30
0.0
 40
0.5380922546833651
 50
249.9012771269622988
 51
271.2715142080310784
  0
ARC
  5
B234
  8
0
 10
4283.0985266159077582
 20
96.7709165384798382
 30
0.0
 40
0.3787945546444495
 50
218.915625219503994
 51
249.9012771269622988
  0
ARC
  5
B235
  8
0
 10
4282.9593020325382895
 20
96.656410869106665
 30
0.0
 40
0.1985449353970404
 50
185.4802031330258103
 51
218.4434479976316084
  0
LINE
  5
B236
  8
0
 10
4283.5687512094891645
 20
96.6374494670194224
 30
0.0
 11
4283.5687512094891645
 21
100.8923790182706028
 31
0.0
  0
LINE
  5
B237
  8
0
 10
4283.6602079023878105
 20
96.1063533579706757
 30
0.0
 11
4283.6602079023878105
 21
96.6362003620594123
 31
0.0
  0
LINE
  5
B238
  8
0
 10
4284.3463079023877071
 20
93.6993073043518336
 30
0.0
 11
4284.3463079023877071
 21
95.103396374469753
 31
0.0
  0
ARC
  5
B239
  8
0
 10
4283.342392261218265
 20
96.6012993451295046
 30
0.0
 40
0.3216767816116013
 50
16.7566768856732686
 51
45.238029931688807
  0
ARC
  5
B23A
  8
0
 10
4283.4245114361501692
 20
96.6260248483570336
 30
0.0
 40
0.2359160131830945
 50
2.4720446180296771
 51
16.7566768856740502
  0
ARC
  5
B23B
  8
0
 10
4283.4072058588972141
 20
96.6238399623120614
 30
0.0
 40
0.2530151838132795
 50
343.3827723024522243
 51
357.8559648695867281
  0
ARC
  5
B23C
  8
0
 10
4283.3541395661159186
 20
96.6396770868320232
 30
0.0
 40
0.3083942948800566
 50
303.5258359814307028
 51
343.3827723024522243
  0
ARC
  5
B23D
  8
0
 10
4283.1251404410249961
 20
96.9853182882771847
 30
0.0
 40
0.7230127211817412
 50
289.1280574501100205
 51
303.5258359814307028
  0
ARC
  5
B23E
  8
0
 10
4283.1878574478650989
 20
96.8044888117785831
 30
0.0
 40
0.5316159539213603
 50
267.5581690534471022
 51
289.1280574501100205
  0
ARC
  5
B23F
  8
0
 10
4283.317591900973639
 20
96.1023648342034562
 30
0.0
 40
0.3426392165917056
 50
337.2788930895735007
 51
0.6669719302304086
  0
ARC
  5
B240
  8
0
 10
4283.2412264893646352
 20
96.1343422374185081
 30
0.0
 40
0.4254294962542823
 50
302.9802630813932751
 51
337.2788930895735007
  0
ARC
  5
B241
  8
0
 10
4283.1702040712953021
 20
96.2504375351628738
 30
0.0
 40
0.5614897028368296
 50
269.490172004590022
 51
302.6109940120339274
  0
ARC
  5
B242
  8
0
 10
4283.3897861041423312
 20
95.7333798281540567
 30
0.0
 40
0.5688254687060662
 50
25.7740303444448493
 51
61.5965782172847085
  0
ARC
  5
B243
  8
0
 10
4283.5292411028030983
 20
95.8074301665656947
 30
0.0
 40
0.411087573887447
 50
358.5660584306417036
 51
24.9514728048874304
  0
ARC
  5
B244
  8
0
 10
4283.4966983781068848
 20
95.8205198582048752
 30
0.0
 40
0.4438684002055069
 50
316.0174319767428983
 51
358.1119813972122188
  0
ARC
  5
B245
  8
0
 10
4283.2832558187310497
 20
96.0171017628769619
 30
0.0
 40
0.7339967101849663
 50
288.1081571250331876
 51
316.5460783156202069
  0
LINE
  5
B246
  8
0
 10
4283.9401999408919437
 20
95.2663170783962556
 30
0.0
 11
4283.9401999408919437
 21
95.7971429511483592
 31
0.0
  0
ARC
  5
B247
  8
0
 10
4283.1658161018003739
 20
95.7905208067064962
 30
0.0
 40
1.0741041008428569
 50
269.9675569051266848
 51
280.6707600522277062
  0
ARC
  5
B248
  8
0
 10
4283.1877522776876503
 20
95.6832261164600624
 30
0.0
 40
0.9646044774423492
 50
280.5704003434993865
 51
293.2646915009926829
  0
ARC
  5
B249
  8
0
 10
4283.280930411108784
 20
95.4788584099506181
 30
0.0
 40
0.7400665651058623
 50
292.886820346563411
 51
313.497501239637927
  0
ARC
  5
B24A
  8
0
 10
4283.5463968501690033
 20
95.2515169285841097
 30
0.0
 40
0.3940811067500444
 50
308.2435438971915005
 51
2.152312238227597
  0
ARC
  5
B24B
  8
0
 10
4283.1656403613269504
 20
94.4583192310281277
 30
0.0
 40
1.640805931947986
 50
269.984898840364508
 51
276.8752409879481888
  0
ARC
  5
B24C
  8
0
 10
4283.1830494610221649
 20
94.3139350788305535
 30
0.0
 40
1.495376017013216
 50
276.8752409879481888
 51
300.028468620128308
  0
ARC
  5
B24D
  8
0
 10
4283.4796497983415975
 20
93.8007972068227787
 30
0.0
 40
0.9026853423876721
 50
300.028468620128308
 51
331.7215077986019196
  0
ARC
  5
B24E
  8
0
 10
4283.2764181307757099
 20
93.7635467833259355
 30
0.0
 40
1.0718166046765421
 50
338.6388834697831953
 51
356.563910098284282
  0
ARC
  5
B24F
  8
0
 10
4283.4788701098059391
 20
95.0270846552889878
 30
0.0
 40
0.9051928471229395
 50
29.8271954980188916
 51
59.166646834762112
  0
ARC
  5
B250
  8
0
 10
4283.3458048061302179
 20
95.079553297595794
 30
0.0
 40
1.000787159159332
 50
1.3651623418802721
 51
23.4187723910621699
  0
ARC
  5
B251
  8
0
 10
4283.5810732208501577
 20
95.2250090892267309
 30
0.0
 40
0.7748378993178314
 50
334.089011992041776
 51
350.9699498471861148
  0
ARC
  5
B252
  8
0
 10
4283.5004335312260082
 20
95.2836641240368891
 30
0.0
 40
0.8731777536718507
 50
291.3304372834386982
 51
332.9392362616795822
  0
ARC
  5
B253
  8
0
 10
4283.1754888443110758
 20
95.8836365119334886
 30
0.0
 40
1.5525466643615671
 50
269.620585390316478
 51
294.4484678692634816
  0
ARC
  5
B254
  8
0
 10
4283.371156291123043
 20
96.6230893222518006
 30
0.0
 40
0.2238960439241621
 50
353.8034854665910984
 51
28.0259965845211099
  0
ARC
  5
B255
  8
0
 10
4283.3844794426186127
 20
96.6216427848736146
 30
0.0
 40
0.2104945948918035
 50
324.9483556136676725
 51
353.8034854665910984
  0
ARC
  5
B256
  8
0
 10
4283.2502593374520075
 20
96.7158051254219231
 30
0.0
 40
0.3744506347572887
 50
287.3715125470823182
 51
324.9483556136676725
  0
ARC
  5
B257
  8
0
 10
4283.1672733426512423
 20
96.9121410560881031
 30
0.0
 40
0.5869692385761626
 50
269.7983859352062836
 51
289.3809562246925111
  0
ARC
  5
B258
  8
0
 10
4283.1771483244338015
 20
96.9205133131731458
 30
0.0
 40
0.5380922546833651
 50
268.7284857919689216
 51
290.0987228730376728
  0
ARC
  5
B259
  8
0
 10
4283.231889188868081
 20
96.7709165384798382
 30
0.0
 40
0.3787945546444495
 50
290.0987228730376728
 51
321.0843747804959776
  0
ARC
  5
B25A
  8
0
 10
4283.3711137722375497
 20
96.656410869106665
 30
0.0
 40
0.1985449353970404
 50
321.5565520023683916
 51
354.5197968669741044
  0
ARC
  5
B25B
  8
0
 10
4283.1714259770897115
 20
96.2971789152192343
 30
0.0
 40
1.0351389052885549
 50
274.0371067841639956
 51
289.1731573725055
  0
ARC
  5
B25C
  8
0
 10
4282.9314721823138825
 20
95.8128314189864057
 30
0.0
 40
0.2824723219128563
 50
146.1877206656810984
 51
178.0704683196561859
  0
ARC
  5
B25D
  8
0
 10
4282.907931623278273
 20
95.8136244867136071
 30
0.0
 40
0.258918407670316
 50
178.0704683196553901
 51
214.8553048447265041
  0
ARC
  5
B25E
  8
0
 10
4283.0758297093716465
 20
95.9305572067537042
 30
0.0
 40
0.4635229734310398
 50
214.8553048447265041
 51
256.1208053664481099
  0
ARC
  5
B25F
  8
0
 10
4283.2076224900501984
 20
96.4639376154248254
 30
0.0
 40
1.0129444850164491
 50
256.1208053664481099
 51
267.6001769073624246
  0
ARC
  5
B260
  8
0
 10
4283.1527549504253329
 20
95.5917175340347853
 30
0.0
 40
0.51333270947087
 50
143.8951744999284017
 51
163.1523059121834081
  0
ARC
  5
B261
  8
0
 10
4282.9359229486108234
 20
95.7686999057963817
 30
0.0
 40
0.2759130219106885
 50
143.4212660264209092
 51
187.903083435324902
  0
ARC
  5
B262
  8
0
 10
4283.2412264893646352
 20
96.1343422374185081
 30
0.0
 40
0.4254294962542823
 50
302.9802630813932751
 51
337.2788930895735007
  0
ARC
  5
B263
  8
0
 10
4283.1702040712953021
 20
96.2504375351628738
 30
0.0
 40
0.5614897028368296
 50
269.490172004590022
 51
302.6109940120339274
  0
ARC
  5
B264
  8
0
 10
4283.3989436224619567
 20
95.8128314189864057
 30
0.0
 40
0.2824723219128563
 50
1.929531680343785
 51
33.8122793343188732
  0
ARC
  5
B265
  8
0
 10
4283.4224841814993852
 20
95.8136244867136071
 30
0.0
 40
0.258918407670316
 50
325.1446951552734959
 51
1.929531680344599
  0
ARC
  5
B266
  8
0
 10
4283.2545860954041927
 20
95.9305572067537042
 30
0.0
 40
0.4635229734310398
 50
283.8791946335517764
 51
325.1446951552734959
  0
ARC
  5
B267
  8
0
 10
4283.1227933147265503
 20
96.4639376154248254
 30
0.0
 40
1.0129444850164491
 50
272.3998230926375754
 51
283.8791946335517764
  0
ARC
  5
B268
  8
0
 10
4283.1776608543514158
 20
95.5917175340347853
 30
0.0
 40
0.51333270947087
 50
16.8476940878165315
 51
36.1048255000715201
  0
ARC
  5
B269
  8
0
 10
4283.3944928561659253
 20
95.7686999057963817
 30
0.0
 40
0.2759130219106885
 50
352.0969165646749843
 51
36.5787339735791122
  0
ENDSEC
  0
EOF
