  0
SECTION
  2
HEADER
  9
$ACADVER
  1
AC1009
  9
$INSBASE
 10
4364.2420788422896294
 20
203.9344234991930023
 30
0.0
  9
$EXTMIN
 10
4360.6928842419902139
 20
201.2573334991928959
 30
0.0
  9
$EXTMAX
 10
4364.2527619686452454
 20
205.8094234991930023
 30
0.0
  9
$LIMMIN
 10
0.0
 20
0.0
  9
$LIMMAX
 10
11.6929133858000007
 20
8.2677165353999982
  9
$ORTHOMODE
 70
     0
  9
$REGENMODE
 70
     1
  9
$FILLMODE
 70
     1
  9
$QTEXTMODE
 70
     0
  9
$MIRRTEXT
 70
     0
  9
$DRAGMODE
 70
     2
  9
$LTSCALE
 40
0.6431102362
  9
$OSMODE
 70
     7
  9
$ATTMODE
 70
     1
  9
$TEXTSIZE
 40
0.2
  9
$TRACEWID
 40
0.05
  9
$TEXTSTYLE
  7
STANDARD
  9
$CLAYER
  8
0
  9
$CELTYPE
  6
BYLAYER
  9
$CECOLOR
 62
   256
  9
$DIMSCALE
 40
1.0
  9
$DIMASZ
 40
0.1875
  9
$DIMEXO
 40
0.0625
  9
$DIMDLI
 40
0.4443307087
  9
$DIMRND
 40
0.0
  9
$DIMDLE
 40
0.0
  9
$DIMEXE
 40
0.125
  9
$DIMTP
 40
0.01
  9
$DIMTM
 40
0.01
  9
$DIMTXT
 40
2.0
  9
$DIMCEN
 40
0.1052362205
  9
$DIMTSZ
 40
0.0
  9
$DIMTOL
 70
     1
  9
$DIMLIM
 70
     0
  9
$DIMTIH
 70
     1
  9
$DIMTOH
 70
     1
  9
$DIMSE1
 70
     0
  9
$DIMSE2
 70
     0
  9
$DIMTAD
 70
     0
  9
$DIMZIN
 70
     0
  9
$DIMBLK
  1

  9
$DIMASO
 70
     1
  9
$DIMSHO
 70
     1
  9
$DIMPOST
  1
\X
  9
$DIMAPOST
  1

  9
$DIMALT
 70
     1
  9
$DIMALTD
 70
     2
  9
$DIMALTF
 40
25.3999999999999986
  9
$DIMLFAC
 40
1.0
  9
$DIMTOFL
 70
     0
  9
$DIMTVP
 40
0.0
  9
$DIMTIX
 70
     0
  9
$DIMSOXD
 70
     0
  9
$DIMSAH
 70
     0
  9
$DIMBLK1
  1

  9
$DIMBLK2
  1

  9
$DIMSTYLE
  2
STANDARD
  9
$DIMCLRD
 70
     0
  9
$DIMCLRE
 70
     0
  9
$DIMCLRT
 70
     0
  9
$DIMTFAC
 40
1.0
  9
$DIMGAP
 40
0.09
  9
$LUNITS
 70
     2
  9
$LUPREC
 70
     4
  9
$SKETCHINC
 40
0.1
  9
$FILLETRAD
 40
0.0
  9
$AUNITS
 70
     0
  9
$AUPREC
 70
     0
  9
$MENU
  1
.
  9
$ELEVATION
 40
0.0
  9
$PELEVATION
 40
0.0
  9
$THICKNESS
 40
0.0
  9
$LIMCHECK
 70
     0
  9
$BLIPMODE
 70
     0
  9
$CHAMFERA
 40
0.0
  9
$CHAMFERB
 40
0.0
  9
$SKPOLY
 70
     0
  9
$TDCREATE
 40
2458060.468368056230247
  9
$TDUPDATE
 40
2459580.0318981478922069
  9
$TDINDWG
 40
0.4584561343
  9
$TDUSRTIMER
 40
0.4584561343
  9
$USRTIMER
 70
     1
  9
$ANGBASE
 50
0.0
  9
$ANGDIR
 70
     0
  9
$PDMODE
 70
     0
  9
$PDSIZE
 40
0.3125
  9
$PLINEWID
 40
0.0
  9
$COORDS
 70
     1
  9
$SPLFRAME
 70
     0
  9
$SPLINETYPE
 70
     6
  9
$SPLINESEGS
 70
     8
  9
$ATTDIA
 70
     1
  9
$ATTREQ
 70
     1
  9
$HANDLING
 70
     1
  9
$HANDSEED
  5
FFFF
  9
$SURFTAB1
 70
     6
  9
$SURFTAB2
 70
     6
  9
$SURFTYPE
 70
     6
  9
$SURFU
 70
     6
  9
$SURFV
 70
     6
  9
$UCSNAME
  2

  9
$UCSORG
 10
0.0
 20
0.0
 30
0.0
  9
$UCSXDIR
 10
1.0
 20
0.0
 30
0.0
  9
$UCSYDIR
 10
0.0
 20
1.0
 30
0.0
  9
$PUCSNAME
  2

  9
$PUCSORG
 10
0.0
 20
0.0
 30
0.0
  9
$PUCSXDIR
 10
1.0
 20
0.0
 30
0.0
  9
$PUCSYDIR
 10
0.0
 20
1.0
 30
0.0
  9
$USERI1
 70
     0
  9
$USERI2
 70
     0
  9
$USERI3
 70
     0
  9
$USERI4
 70
     0
  9
$USERI5
 70
     0
  9
$USERR1
 40
0.0
  9
$USERR2
 40
0.0
  9
$USERR3
 40
0.0
  9
$USERR4
 40
0.0
  9
$USERR5
 40
0.0
  9
$WORLDVIEW
 70
     1
  9
$SHADEDGE
 70
     3
  9
$SHADEDIF
 70
    70
  9
$TILEMODE
 70
     1
  9
$MAXACTVP
 70
    64
  9
$PLIMCHECK
 70
     0
  9
$PEXTMIN
 10
1.0000000000000000E+20
 20
1.0000000000000000E+20
 30
1.0000000000000000E+20
  9
$PEXTMAX
 10
-1.0000000000000000E+20
 20
-1.0000000000000000E+20
 30
-1.0000000000000000E+20
  9
$PLIMMIN
 10
0.0
 20
0.0
  9
$PLIMMAX
 10
12.0
 20
9.0
  9
$UNITMODE
 70
     0
  9
$VISRETAIN
 70
     1
  9
$PLINEGEN
 70
     0
  9
$PSLTSCALE
 70
     1
  0
ENDSEC
  0
SECTION
  2
TABLES
  0
TABLE
  2
VPORT
 70
     1
  0
VPORT
  2
*ACTIVE
 70
     0
 10
0.0
 20
0.0
 11
1.0
 21
1.0
 12
558.9287557225046612
 22
77.5381163024430151
 13
0.0
 23
0.0
 14
1.0
 24
1.0
 15
0.0
 25
0.0
 16
0.0
 26
0.0
 36
17.1152628219792007
 17
3803.5440673828129547
 27
125.9952621967499056
 37
0.0
 40
4.58468252983306
 41
2.2831541218637992
 42
50.0
 43
0.0
 44
0.0
 50
0.0
 51
0.0
 71
     0
 72
   100
 73
     1
 74
     1
 75
     0
 76
     0
 77
     0
 78
     0
  0
ENDTAB
  0
TABLE
  2
LTYPE
 70
     2
  0
LTYPE
  2
CONTINUOUS
 70
     0
  3
Solid line
 72
    65
 73
     0
 40
0.0
  0
LTYPE
  2
PHANTOM2
 70
     0
  3
___ _ _ ___ _ _ ___ _ _ ___ _ _
 72
    65
 73
     6
 40
1.25
 49
0.625
 49
-0.125
 49
0.125
 49
-0.125
 49
0.125
 49
-0.125
  0
ENDTAB
  0
TABLE
  2
LAYER
 70
     2
  0
LAYER
  2
0
 70
     0
 62
   255
  6
CONTINUOUS
  0
LAYER
  2
DEFPOINTS
 70
     0
 62
     7
  6
CONTINUOUS
  0
ENDTAB
  0
TABLE
  2
STYLE
 70
     1
  0
STYLE
  2
STANDARD
 70
     0
 40
0.0
 41
0.8
 50
0.0
 71
     0
 42
0.2
  3
txt
  4

  0
ENDTAB
  0
TABLE
  2
VIEW
 70
     0
  0
ENDTAB
  0
TABLE
  2
UCS
 70
     0
  0
ENDTAB
  0
TABLE
  2
APPID
 70
     9
  0
APPID
  2
ACAD
 70
     0
  0
APPID
  2
ACAD_MLEADERVER
 70
     0
  0
APPID
  2
ACAD_EXEMPT_FROM_CAD_STANDARDS
 70
     0
  0
APPID
  2
ACAD_NAV_VCDISPLAY
 70
     0
  0
APPID
  2
ACAECLAYERSTANDARD
 70
     0
  0
APPID
  2
ACCMTRANSPARENCY
 70
     0
  0
APPID
  2
ACAD_DSTYLE_DIMJAG
 70
     0
  0
APPID
  2
ACAD_DSTYLE_DIMTALN
 70
     0
  0
APPID
  2
ACDBATTR
 70
     0
  0
ENDTAB
  0
TABLE
  2
DIMSTYLE
 70
     1
  0
DIMSTYLE
  2
STANDARD
 70
     0
  3

  4

  5

  6

  7

 40
1.0
 41
0.1875
 42
0.0625
 43
0.38
 44
0.125
 45
0.0
 46
0.0
 47
0.01
 48
0.01
140
0.15625
141
0.09
142
0.0
143
25.3999999999999986
144
1.0
145
0.0
146
1.0
147
0.09
 71
     1
 72
     0
 73
     1
 74
     1
 75
     0
 76
     0
 77
     0
 78
     4
170
     0
171
     2
172
     0
173
     0
174
     0
175
     0
176
     0
177
     0
178
     0
  0
ENDTAB
  0
ENDSEC
  0
SECTION
  2
BLOCKS
  0
BLOCK
  8
0
  2
$MODEL_SPACE
 70
     0
 10
0.0
 20
0.0
 30
0.0
  3
$MODEL_SPACE
  1

  0
ENDBLK
  5
21
  8
0
  0
BLOCK
 67
     1
  8
0
  2
$PAPER_SPACE
 70
     0
 10
0.0
 20
0.0
 30
0.0
  3
$PAPER_SPACE
  1

  0
ENDBLK
  5
1D
 67
     1
  8
0
  0
ENDSEC
  0
SECTION
  2
ENTITIES
  0
ATTDEF
  5
3930
  8
DEFPOINTS
 10
4364.2420953019764056
 20
203.937771904205789
 30
0.0
 40
0.001
  1
P21385-LV
  3

  2
MODELNUMBER
 70
     0
1001
ACDBATTR
1070
     0
1070
     1
  0
ATTDEF
  5
3931
  8
DEFPOINTS
 10
4364.2420953019764056
 20
203.9361052375392092
 30
0.0
 40
0.001
  1
CENTRAL PARK WEST
  3

  2
TRADENAME
 70
     0
1001
ACDBATTR
1070
     0
1070
     1
  0
ATTDEF
  5
3932
  8
DEFPOINTS
 10
4364.2420953019764056
 20
203.9344385708724872
 30
0.0
 40
0.001
  1
VALVE TRIM
  3

  2
PRODUCT
 70
     0
1001
ACDBATTR
1070
     0
1070
     1
  0
LINE
  5
FDBE
  8
0
 10
4364.2420788422896294
 20
205.8094234991930023
 30
0.0
 11
4364.2420788422896294
 21
202.0611309432929943
 31
0.0
  0
LINE
  5
FDC0
  8
0
 10
4363.5420788422898113
 20
205.7287622586752036
 30
0.0
 11
4363.5420788422898113
 21
202.1400847393713036
 31
0.0
  0
LINE
  5
FDC1
  8
0
 10
4363.532078842291412
 20
204.834423499193008
 30
0.0
 11
4362.3125842419904075
 21
204.834423499193008
 31
0.0
  0
LINE
  5
FDC2
  8
0
 10
4362.2925842419899709
 20
204.8144234991929977
 30
0.0
 11
4362.2925842419899709
 21
203.0544234991930068
 31
0.0
  0
LINE
  5
FDC3
  8
0
 10
4362.2725842419904438
 20
204.5544234991930068
 30
0.0
 11
4361.962884241989741
 21
204.5544234991930068
 31
0.0
  0
LINE
  5
FDC4
  8
0
 10
4361.9428842419893044
 20
204.5344234991929966
 30
0.0
 11
4361.9428842419893044
 21
203.334423499193008
 31
0.0
  0
LINE
  5
FDC5
  8
0
 10
4364.2420788422896294
 20
205.8094234991930023
 30
0.0
 11
4363.6108571737913735
 21
205.7984054839930081
 31
0.0
  0
ARC
  5
FDC6
  8
0
 10
4363.6120794842026953
 20
205.728414651333793
 30
0.0
 40
0.0700015049772824
 50
91.0005040206863924
 51
179.7154844676942957
  0
ARC
  5
FDC7
  8
0
 10
4363.532078842291412
 20
204.8244234991929886
 30
0.0
 40
0.0099999999999809
 50
0.0
 51
90.0000000000521254
  0
ARC
  5
FDC8
  8
0
 10
4362.3125842419904075
 20
204.8144234991929977
 30
0.0
 40
0.0200000000000023
 50
90.0
 51
179.9999999999951115
  0
LINE
  5
FDC9
  8
0
 10
4361.4378842419910143
 20
204.3029870619571966
 30
0.0
 11
4361.4378842419910143
 21
203.5658599364284953
 31
0.0
  0
LINE
  5
FDCA
  8
0
 10
4361.4968842419903012
 20
204.2614234991930005
 30
0.0
 11
4361.4968842419903012
 21
203.6074234991930041
 31
0.0
  0
LINE
  5
FDCB
  8
0
 10
4361.6248842419900029
 20
204.3019234991930091
 30
0.0
 11
4361.6248842419900029
 21
203.5669234991929955
 31
0.0
  0
LINE
  5
FDCC
  8
0
 10
4361.6848842419913126
 20
204.377437637685091
 30
0.0
 11
4361.6848842419913126
 21
203.4914093607009136
 31
0.0
  0
LINE
  5
FDCD
  8
0
 10
4361.8648842419906941
 20
204.377437637685091
 30
0.0
 11
4361.8648842419906941
 21
203.4914093607009136
 31
0.0
  0
LINE
  5
FDCE
  8
0
 10
4361.9248842419892753
 20
204.3019234991930091
 30
0.0
 11
4361.9248842419892753
 21
203.5669234991929955
 31
0.0
  0
LINE
  5
FDCF
  8
0
 10
4361.8748842419900029
 20
204.311923499193
 30
0.0
 11
4361.914884241990876
 21
204.311923499193
 31
0.0
  0
LINE
  5
FDD0
  8
0
 10
4361.6748842419901848
 20
204.311923499193
 30
0.0
 11
4361.6348842419902212
 21
204.311923499193
 31
0.0
  0
ARC
  5
FDD1
  8
0
 10
4361.6348842419902212
 20
204.3019234991930091
 30
0.0
 40
0.009999999999998
 50
90.0
 51
180.0
  0
ARC
  5
FDD2
  8
0
 10
4361.6748842419901848
 20
204.3219234991929909
 30
0.0
 40
0.0099999999999989
 50
270.0
 51
0.0
  0
ARC
  5
FDD3
  8
0
 10
4361.8748842419900029
 20
204.3219234991929909
 30
0.0
 40
0.0100000000000016
 50
180.0
 51
270.0
  0
ARC
  5
FDD4
  8
0
 10
4361.914884241990876
 20
204.3019234991930091
 30
0.0
 40
0.0100000000000007
 50
0.0
 51
90.0
  0
LINE
  5
FDD5
  8
0
 10
4361.506884241991429
 20
204.2129234991930105
 30
0.0
 11
4361.6148842419906941
 21
204.2129234991930105
 31
0.0
  0
LINE
  5
FDD6
  8
0
 10
4361.4478842419903231
 20
204.2714234991929914
 30
0.0
 11
4361.486884241990083
 21
204.2714234991929914
 31
0.0
  0
ARC
  5
FDD7
  8
0
 10
4361.4478842419903231
 20
204.2814234991930107
 30
0.0
 40
0.0100000000000041
 50
180.0
 51
270.0
  0
ARC
  5
FDD8
  8
0
 10
4361.486884241990083
 20
204.2614234991930005
 30
0.0
 40
0.009999999999998
 50
359.9999999999902229
 51
90.0
  0
ARC
  5
FDD9
  8
0
 10
4361.506884241991429
 20
204.2229234991930014
 30
0.0
 40
0.0099999999999985
 50
180.0
 51
270.0
  0
ARC
  5
FDDA
  8
0
 10
4361.6148842419906941
 20
204.2229234991930014
 30
0.0
 40
0.0100000000000007
 50
270.0
 51
0.0
  0
LINE
  5
FDDB
  8
0
 10
4361.7048842419908397
 20
204.2960861758895987
 30
0.0
 11
4361.8448842419902576
 21
204.2960861758895987
 31
0.0
  0
LINE
  5
FDDC
  8
0
 10
4361.7048842419908397
 20
204.2581315868328886
 30
0.0
 11
4361.8448842419902576
 21
204.2581315868328886
 31
0.0
  0
LINE
  5
FDDD
  8
0
 10
4361.7048842419908397
 20
204.2284127579987114
 30
0.0
 11
4361.8448842419902576
 21
204.2284127579987114
 31
0.0
  0
LINE
  5
FDDE
  8
0
 10
4361.7048842419908397
 20
204.182523499205189
 30
0.0
 11
4361.8448842419902576
 21
204.182523499205189
 31
0.0
  0
LINE
  5
FDDF
  8
0
 10
4361.7048842419908397
 20
204.1478905987810037
 30
0.0
 11
4361.8448842419902576
 21
204.1478905987810037
 31
0.0
  0
LINE
  5
FDE0
  8
0
 10
4361.7048842419908397
 20
204.0960722510610026
 30
0.0
 11
4361.8448842419902576
 21
204.0960722510610026
 31
0.0
  0
LINE
  5
FDE1
  8
0
 10
4361.6998548382189256
 20
204.0580389029825028
 30
0.0
 11
4361.8499136457621717
 21
204.0580389029825028
 31
0.0
  0
LINE
  5
FDE2
  8
0
 10
4361.7048842446965864
 20
204.0025561767834006
 30
0.0
 11
4361.8448842392836013
 21
204.0025561767834006
 31
0.0
  0
LINE
  5
FDE3
  8
0
 10
4361.7048842371796127
 20
203.9627846208659037
 30
0.0
 11
4361.8448842467996656
 21
203.9627846208659037
 31
0.0
  0
ARC
  5
FDE4
  8
0
 10
4361.7051945477260233
 20
203.9832631916154924
 30
0.0
 40
0.0204809216731077
 50
187.4007311996286091
 51
269.1318669504747163
  0
ARC
  5
FDE5
  8
0
 10
4361.7055762606441931
 20
203.9818400729506038
 30
0.0
 40
0.0207276589146577
 50
91.913238863593179
 51
176.6395673802927035
  0
ARC
  5
FDE6
  8
0
 10
4361.7023695404259342
 20
204.0760663410977998
 30
0.0
 40
0.0182019848419872
 50
196.1316293480277864
 51
262.0588796961253024
  0
ARC
  5
FDE7
  8
0
 10
4361.7051165787661375
 20
204.0753754162734026
 30
0.0
 40
0.0206981388197154
 50
90.6431590953191773
 51
167.8215918424511983
  0
ARC
  5
FDE8
  8
0
 10
4361.705266980736269
 20
204.1001710885813907
 30
0.0
 40
0.0477210450707086
 50
90.4595362458002228
 51
100.868600578658004
  0
ARC
  5
FDE9
  8
0
 10
4361.6935486265792861
 20
204.1612037495586094
 30
0.0
 40
0.0144264048376814
 50
233.0876854699451997
 51
280.8686011608552917
  0
ARC
  5
FDEA
  8
0
 10
4361.706764464558546
 20
204.1602058072164141
 30
0.0
 40
0.0223967545106538
 50
94.8156870686096909
 51
167.6708851166013972
  0
ARC
  5
FDEB
  8
0
 10
4361.7056972878299348
 20
204.1911976639347017
 30
0.0
 40
0.0372239743946374
 50
91.2515536225288031
 51
115.2667045239924022
  0
ARC
  5
FDEC
  8
0
 10
4361.6881178620851642
 20
204.2279034981935126
 30
0.0
 40
0.0034813394778096
 50
201.744726082783103
 51
299.0609860080888893
  0
ARC
  5
FDED
  8
0
 10
4361.7062898683798267
 20
204.2359946459374953
 30
0.0
 40
0.0221815224399663
 50
93.6332248512773049
 51
164.8009001205682011
  0
ARC
  5
FDEE
  8
0
 10
4361.7058174924586638
 20
204.2658625800262087
 30
0.0
 40
0.0302380009814091
 50
91.7686290107238847
 51
133.811091543156806
  0
LINE
  5
FDEF
  8
0
 10
4361.7032054929140941
 20
204.3195920776929881
 30
0.0
 11
4361.8465629910670032
 21
204.3195920776929881
 31
0.0
  0
LINE
  5
FDF0
  8
0
 10
4361.7048842419908397
 20
204.3479531992929878
 30
0.0
 11
4361.8448842419902576
 21
204.3479531992929878
 31
0.0
  0
LINE
  5
FDF1
  8
0
 10
4361.7040389588328253
 20
204.3642188533929982
 30
0.0
 11
4361.8457295251482719
 21
204.3642188533929982
 31
0.0
  0
LINE
  5
FDF2
  8
0
 10
4361.7048842419908397
 20
204.3817469904930135
 30
0.0
 11
4361.8448842419902576
 21
204.3817469904930135
 31
0.0
  0
LINE
  5
FDF3
  8
0
 10
4361.7048842419908397
 20
204.3900615097929858
 30
0.0
 11
4361.8448842419920766
 21
204.3900615097929858
 31
0.0
  0
LINE
  5
FDF4
  8
0
 10
4361.7048842419890207
 20
204.3959905986930039
 30
0.0
 11
4361.8448842419920766
 21
204.3959905986930039
 31
0.0
  0
ARC
  5
FDF5
  8
0
 10
4361.7048760955713078
 20
204.3759429495584072
 30
0.0
 40
0.0200476507898201
 50
89.9767176982786907
 51
175.7242440972273982
  0
ARC
  5
FDF6
  8
0
 10
4361.7049699801937095
 20
204.3699379475056901
 30
0.0
 40
0.0201237449340625
 50
90.2441122232840769
 51
176.4780607912989012
  0
ARC
  5
FDF7
  8
0
 10
4361.7050185147645607
 20
204.3604327249238963
 30
0.0
 40
0.0213146885018345
 50
90.360939554380721
 51
145.3751663595944024
  0
ARC
  5
FDF8
  8
0
 10
4361.7007931176722195
 20
204.3633503349117007
 30
0.0
 40
0.016179863419184
 50
145.3751663595971024
 51
169.4989424061166972
  0
ARC
  5
FDF9
  8
0
 10
4361.7044616004113777
 20
204.3450128755098945
 30
0.0
 40
0.019210627588701
 50
91.2606320377772278
 51
140.4628044188125955
  0
ARC
  5
FDFA
  8
0
 10
4361.7081351091528632
 20
204.3430047302157959
 30
0.0
 40
0.0233353914486624
 50
142.4023198401235106
 51
175.1218851881129979
  0
ARC
  5
FDFB
  8
0
 10
4361.7050692841630735
 20
204.3246595836060919
 30
0.0
 40
0.0232943506536603
 50
90.4551424141581606
 51
150.0568308655458907
  0
ARC
  5
FDFC
  8
0
 10
4361.7040448674515574
 20
204.3006634882866877
 30
0.0
 40
0.0189471909930842
 50
92.5390762741278081
 51
146.6971937693234906
  0
ARC
  5
FDFD
  8
0
 10
4361.7147541709782672
 20
204.2966165939494942
 30
0.0
 40
0.0302232109665149
 50
151.43776840277269
 51
171.2309605527163967
  0
ARC
  5
FDFE
  8
0
 10
4361.8445739362541644
 20
203.9832631916154924
 30
0.0
 40
0.0204809216731077
 50
270.8681330495252837
 51
352.5992688003714193
  0
ARC
  5
FDFF
  8
0
 10
4361.8441922233369041
 20
203.9818400729506038
 30
0.0
 40
0.0207276589146577
 50
3.360432619707252
 51
88.086761136406821
  0
ARC
  5
FE00
  8
0
 10
4361.847398943555163
 20
204.0760663410977998
 30
0.0
 40
0.0182019848419872
 50
277.9411203038748113
 51
343.8683706519720999
  0
ARC
  5
FE01
  8
0
 10
4361.8446519052140502
 20
204.0753754162734026
 30
0.0
 40
0.0206981388197154
 50
12.1784081575488301
 51
89.3568409046808227
  0
ARC
  5
FE02
  8
0
 10
4361.8445015032439187
 20
204.1001710885813907
 30
0.0
 40
0.0477210450707086
 50
79.1313994213420102
 51
89.5404637541997914
  0
ARC
  5
FE03
  8
0
 10
4361.8562198574018112
 20
204.1612037495586094
 30
0.0
 40
0.0144264048376814
 50
259.1313988391447083
 51
306.9123145300548003
  0
ARC
  5
FE04
  8
0
 10
4361.8430040194216417
 20
204.1602058072164141
 30
0.0
 40
0.0223967545106538
 50
12.3291148833985602
 51
85.1843129313902949
  0
ARC
  5
FE05
  8
0
 10
4361.8440711961502529
 20
204.1911976639347017
 30
0.0
 40
0.0372239743946374
 50
64.7332954760075694
 51
88.7484463774711969
  0
ARC
  5
FE06
  8
0
 10
4361.861650621895933
 20
204.2279034981935126
 30
0.0
 40
0.0034813394778096
 50
240.9390139919104001
 51
338.2552739172153906
  0
ARC
  5
FE07
  8
0
 10
4361.8434786155994516
 20
204.2359946459374953
 30
0.0
 40
0.0221815224399663
 50
15.1990998794318006
 51
86.3667751487226951
  0
ARC
  5
FE08
  8
0
 10
4361.843950991523343
 20
204.2658625800262087
 30
0.0
 40
0.0302380009814091
 50
46.1889084568431301
 51
88.2313709892761153
  0
ARC
  5
FE09
  8
0
 10
4361.8448923884088799
 20
204.3759429495584072
 30
0.0
 40
0.0200476507898201
 50
4.27575590277256
 51
90.0232823017212951
  0
ARC
  5
FE0A
  8
0
 10
4361.8447985037873877
 20
204.3699379475056901
 30
0.0
 40
0.0201237449340625
 50
3.521939208701125
 51
89.7558877767159373
  0
ARC
  5
FE0B
  8
0
 10
4361.8447499692156271
 20
204.3604327249238963
 30
0.0
 40
0.0213146885018345
 50
34.6248336404055976
 51
89.6390604456192932
  0
ARC
  5
FE0C
  8
0
 10
4361.8489753663088777
 20
204.3633503349117007
 30
0.0
 40
0.016179863419184
 50
10.5010575938832496
 51
34.6248336404029189
  0
ARC
  5
FE0D
  8
0
 10
4361.84530688356881
 20
204.3450128755098945
 30
0.0
 40
0.019210627588701
 50
39.5371955811873974
 51
88.7393679622227864
  0
ARC
  5
FE0E
  8
0
 10
4361.8416333748291436
 20
204.3430047302157959
 30
0.0
 40
0.0233353914486624
 50
4.8781148118886168
 51
37.5976801598764609
  0
ARC
  5
FE0F
  8
0
 10
4361.8446991998189333
 20
204.3246595836060919
 30
0.0
 40
0.0232943506536603
 50
29.9431691344540916
 51
89.5448575858418252
  0
ARC
  5
FE10
  8
0
 10
4361.8457236165277209
 20
204.3006634882866877
 30
0.0
 40
0.0189471909930842
 50
33.3028062306765094
 51
87.4609237258721777
  0
ARC
  5
FE11
  8
0
 10
4361.8350143130037395
 20
204.2966165939494942
 30
0.0
 40
0.0302232109665149
 50
8.7690394472836228
 51
28.5622315972272709
  0
LINE
  5
FE12
  8
0
 10
4361.8748842419900029
 20
203.5569234991930045
 30
0.0
 11
4361.914884241990876
 21
203.5569234991930045
 31
0.0
  0
LINE
  5
FE13
  8
0
 10
4361.6748842419901848
 20
203.5569234991930045
 30
0.0
 11
4361.6348842419902212
 21
203.5569234991930045
 31
0.0
  0
ARC
  5
FE14
  8
0
 10
4361.6348842419902212
 20
203.5669234991929955
 30
0.0
 40
0.009999999999998
 50
180.0
 51
270.0
  0
ARC
  5
FE15
  8
0
 10
4361.6748842419901848
 20
203.5469234991930136
 30
0.0
 40
0.0099999999999989
 50
0.0
 51
90.0
  0
ARC
  5
FE16
  8
0
 10
4361.8748842419900029
 20
203.5469234991930136
 30
0.0
 40
0.0100000000000016
 50
90.0
 51
180.0
  0
ARC
  5
FE17
  8
0
 10
4361.914884241990876
 20
203.5669234991929955
 30
0.0
 40
0.0100000000000007
 50
270.0
 51
0.0
  0
LINE
  5
FE18
  8
0
 10
4361.506884241991429
 20
203.6559234991929941
 30
0.0
 11
4361.6148842419906941
 21
203.6559234991929941
 31
0.0
  0
LINE
  5
FE19
  8
0
 10
4361.4478842419903231
 20
203.5974234991930132
 30
0.0
 11
4361.486884241990083
 21
203.5974234991930132
 31
0.0
  0
ARC
  5
FE1A
  8
0
 10
4361.4478842419903231
 20
203.5874234991929939
 30
0.0
 40
0.0100000000000041
 50
90.0
 51
180.0
  0
ARC
  5
FE1B
  8
0
 10
4361.486884241990083
 20
203.6074234991930041
 30
0.0
 40
0.009999999999998
 50
270.0
 51
0.0000000000097707
  0
ARC
  5
FE1C
  8
0
 10
4361.506884241991429
 20
203.6459234991930032
 30
0.0
 40
0.0099999999999985
 50
90.0
 51
180.0
  0
ARC
  5
FE1D
  8
0
 10
4361.6148842419906941
 20
203.6459234991930032
 30
0.0
 40
0.0100000000000007
 50
0.0
 51
90.0
  0
LINE
  5
FE1E
  8
0
 10
4361.7048842419908397
 20
203.5727608224964058
 30
0.0
 11
4361.8448842419902576
 21
203.5727608224964058
 31
0.0
  0
LINE
  5
FE1F
  8
0
 10
4361.7048842419908397
 20
203.6107154115530875
 30
0.0
 11
4361.8448842419902576
 21
203.6107154115530875
 31
0.0
  0
LINE
  5
FE20
  8
0
 10
4361.7048842419908397
 20
203.6404342403872931
 30
0.0
 11
4361.8448842419902576
 21
203.6404342403872931
 31
0.0
  0
LINE
  5
FE21
  8
0
 10
4361.7048842419908397
 20
203.6863234991807872
 30
0.0
 11
4361.8448842419902576
 21
203.6863234991807872
 31
0.0
  0
LINE
  5
FE22
  8
0
 10
4361.7048842419908397
 20
203.7209563996050008
 30
0.0
 11
4361.8448842419902576
 21
203.7209563996050008
 31
0.0
  0
LINE
  5
FE23
  8
0
 10
4361.7048842419908397
 20
203.772774747325002
 30
0.0
 11
4361.8448842419902576
 21
203.772774747325002
 31
0.0
  0
LINE
  5
FE24
  8
0
 10
4361.6998548382189256
 20
203.8108080954035017
 30
0.0
 11
4361.8499136457621717
 21
203.8108080954035017
 31
0.0
  0
LINE
  5
FE25
  8
0
 10
4361.7048842446965864
 20
203.866290821602604
 30
0.0
 11
4361.8448842392836013
 21
203.866290821602604
 31
0.0
  0
LINE
  5
FE26
  8
0
 10
4361.7048842371796127
 20
203.9060623775201009
 30
0.0
 11
4361.8448842467996656
 21
203.9060623775201009
 31
0.0
  0
ARC
  5
FE27
  8
0
 10
4361.7051945477260233
 20
203.8855838067705974
 30
0.0
 40
0.0204809216731077
 50
90.8681330495253263
 51
172.5992688003713909
  0
ARC
  5
FE28
  8
0
 10
4361.7055762606441931
 20
203.8870069254354007
 30
0.0
 40
0.0207276589146577
 50
183.3604326197072112
 51
268.0867611364067784
  0
ARC
  5
FE29
  8
0
 10
4361.7023695404259342
 20
203.7927806572882048
 30
0.0
 40
0.0182019848419872
 50
97.9411203038747544
 51
163.8683706519720999
  0
ARC
  5
FE2A
  8
0
 10
4361.7051165787661375
 20
203.7934715821126019
 30
0.0
 40
0.0206981388197154
 50
192.1784081575472101
 51
269.3568409046807801
  0
ARC
  5
FE2B
  8
0
 10
4361.705266980736269
 20
203.7686759098046139
 30
0.0
 40
0.0477210450707086
 50
259.131399421341996
 51
269.5404637541997772
  0
ARC
  5
FE2C
  8
0
 10
4361.6935486265792861
 20
203.7076432488273952
 30
0.0
 40
0.0144264048376814
 50
79.1313988391447083
 51
126.9123145300548003
  0
ARC
  5
FE2D
  8
0
 10
4361.706764464558546
 20
203.7086411911695905
 30
0.0
 40
0.0223967545106538
 50
192.3291148833984892
 51
265.1843129313903091
  0
ARC
  5
FE2E
  8
0
 10
4361.7056972878299348
 20
203.6776493344513881
 30
0.0
 40
0.0372239743946374
 50
244.7332954760074983
 51
268.7484463774712253
  0
ARC
  5
FE2F
  8
0
 10
4361.6881178620851642
 20
203.6409435001924919
 30
0.0
 40
0.0034813394778096
 50
60.939013991911132
 51
158.2552739172168117
  0
ARC
  5
FE30
  8
0
 10
4361.7062898683798267
 20
203.6328523524485092
 30
0.0
 40
0.0221815224399663
 50
195.1990998794317989
 51
266.3667751487226951
  0
ARC
  5
FE31
  8
0
 10
4361.7058174924586638
 20
203.6029844183597959
 30
0.0
 40
0.0302380009814091
 50
226.1889084568431088
 51
268.2313709892761153
  0
LINE
  5
FE32
  8
0
 10
4361.7032054929140941
 20
203.549254920692988
 30
0.0
 11
4361.8465629910670032
 21
203.549254920692988
 31
0.0
  0
LINE
  5
FE33
  8
0
 10
4361.7048842419908397
 20
203.5208937990929883
 30
0.0
 11
4361.8448842419902576
 21
203.5208937990929883
 31
0.0
  0
LINE
  5
FE34
  8
0
 10
4361.7040389588328253
 20
203.5046281449930063
 30
0.0
 11
4361.8457295251482719
 21
203.5046281449930063
 31
0.0
  0
LINE
  5
FE35
  8
0
 10
4361.7048842419908397
 20
203.487100007892991
 30
0.0
 11
4361.8448842419902576
 21
203.487100007892991
 31
0.0
  0
LINE
  5
FE36
  8
0
 10
4361.7048842419908397
 20
203.4787854885929903
 30
0.0
 11
4361.8448842419920766
 21
203.4787854885929903
 31
0.0
  0
LINE
  5
FE37
  8
0
 10
4361.7048842419890207
 20
203.4728563996930006
 30
0.0
 11
4361.8448842419920766
 21
203.4728563996930006
 31
0.0
  0
ARC
  5
FE38
  8
0
 10
4361.7048760955713078
 20
203.492904048827711
 30
0.0
 40
0.0200476507898201
 50
184.2757559027724881
 51
270.0232823017212809
  0
ARC
  5
FE39
  8
0
 10
4361.7049699801937095
 20
203.498909050880286
 30
0.0
 40
0.0201237449340625
 50
183.5219392087010988
 51
269.7558877767160084
  0
ARC
  5
FE3A
  8
0
 10
4361.7050185147645607
 20
203.5084142734621935
 30
0.0
 40
0.0213146885018345
 50
214.6248336404055976
 51
269.6390604456192932
  0
ARC
  5
FE3B
  8
0
 10
4361.7007931176722195
 20
203.5054966634743039
 30
0.0
 40
0.016179863419184
 50
190.5010575938831892
 51
214.6248336404028976
  0
ARC
  5
FE3C
  8
0
 10
4361.7044616004113777
 20
203.5238341228761101
 30
0.0
 40
0.019210627588701
 50
219.5371955811874045
 51
268.7393679622227864
  0
ARC
  5
FE3D
  8
0
 10
4361.7081351091528632
 20
203.5258422681702086
 30
0.0
 40
0.0233353914486624
 50
184.8781148118870021
 51
217.5976801598764894
  0
ARC
  5
FE3E
  8
0
 10
4361.7050692841630735
 20
203.5441874147799126
 30
0.0
 40
0.0232943506536603
 50
209.9431691344541093
 51
269.5448575858418963
  0
ARC
  5
FE3F
  8
0
 10
4361.7040448674515574
 20
203.5681835100992885
 30
0.0
 40
0.0189471909930842
 50
213.3028062306765094
 51
267.4609237258720782
  0
ARC
  5
FE40
  8
0
 10
4361.7147541709782672
 20
203.5722304044365103
 30
0.0
 40
0.0302232109665149
 50
188.7690394472836033
 51
208.5622315972258036
  0
ARC
  5
FE41
  8
0
 10
4361.8445739362541644
 20
203.8855838067705974
 30
0.0
 40
0.0204809216731077
 50
7.4007311996286171
 51
89.1318669504746737
  0
ARC
  5
FE42
  8
0
 10
4361.8441922233369041
 20
203.8870069254354007
 30
0.0
 40
0.0207276589146577
 50
271.9132388635931079
 51
356.6395673802928172
  0
ARC
  5
FE43
  8
0
 10
4361.847398943555163
 20
203.7927806572882048
 30
0.0
 40
0.0182019848419872
 50
16.1316293480278397
 51
82.058879696125274
  0
ARC
  5
FE44
  8
0
 10
4361.8446519052140502
 20
203.7934715821126019
 30
0.0
 40
0.0206981388197154
 50
270.6431590953192199
 51
347.8215918424511983
  0
ARC
  5
FE45
  8
0
 10
4361.8445015032439187
 20
203.7686759098046139
 30
0.0
 40
0.0477210450707086
 50
270.4595362458002228
 51
280.868600578658004
  0
ARC
  5
FE46
  8
0
 10
4361.8562198574018112
 20
203.7076432488273952
 30
0.0
 40
0.0144264048376814
 50
53.0876854699451997
 51
100.8686011608553059
  0
ARC
  5
FE47
  8
0
 10
4361.8430040194216417
 20
203.7086411911695905
 30
0.0
 40
0.0223967545106538
 50
274.8156870686096909
 51
347.6708851166014256
  0
ARC
  5
FE48
  8
0
 10
4361.8440711961502529
 20
203.6776493344513881
 30
0.0
 40
0.0372239743946374
 50
271.2515536225287747
 51
295.2667045239924164
  0
ARC
  5
FE49
  8
0
 10
4361.861650621895933
 20
203.6409435001924919
 30
0.0
 40
0.0034813394778096
 50
21.7447260827846485
 51
119.0609860080888041
  0
ARC
  5
FE4A
  8
0
 10
4361.8434786155994516
 20
203.6328523524485092
 30
0.0
 40
0.0221815224399663
 50
273.6332248512773049
 51
344.8009001205666095
  0
ARC
  5
FE4B
  8
0
 10
4361.843950991523343
 20
203.6029844183597959
 30
0.0
 40
0.0302380009814091
 50
271.7686290107238847
 51
313.811091543155726
  0
ARC
  5
FE4C
  8
0
 10
4361.8448923884088799
 20
203.492904048827711
 30
0.0
 40
0.0200476507898201
 50
269.9767176982787191
 51
355.7242440972274267
  0
ARC
  5
FE4D
  8
0
 10
4361.8447985037873877
 20
203.498909050880286
 30
0.0
 40
0.0201237449340625
 50
270.2441122232841053
 51
356.4780607912989012
  0
ARC
  5
FE4E
  8
0
 10
4361.8447499692156271
 20
203.5084142734621935
 30
0.0
 40
0.0213146885018345
 50
270.3609395543807068
 51
325.3751663595944024
  0
ARC
  5
FE4F
  8
0
 10
4361.8489753663088777
 20
203.5054966634743039
 30
0.0
 40
0.016179863419184
 50
325.375166359597074
 51
349.4989424061167824
  0
ARC
  5
FE50
  8
0
 10
4361.84530688356881
 20
203.5238341228761101
 30
0.0
 40
0.019210627588701
 50
271.2606320377772136
 51
320.4628044188114018
  0
ARC
  5
FE51
  8
0
 10
4361.8416333748291436
 20
203.5258422681702086
 30
0.0
 40
0.0233353914486624
 50
322.4023198401234822
 51
355.1218851881113778
  0
ARC
  5
FE52
  8
0
 10
4361.8446991998189333
 20
203.5441874147799126
 30
0.0
 40
0.0232943506536603
 50
270.4551424141582174
 51
330.0568308655459191
  0
ARC
  5
FE53
  8
0
 10
4361.8457236165277209
 20
203.5681835100992885
 30
0.0
 40
0.0189471909930842
 50
272.5390762741279218
 51
326.6971937693235191
  0
ARC
  5
FE54
  8
0
 10
4361.8350143130037395
 20
203.5722304044365103
 30
0.0
 40
0.0302232109665149
 50
331.4377684027728037
 51
351.2309605527163967
  0
ARC
  5
FE55
  8
0
 10
4362.2725842419904438
 20
204.5744234991929886
 30
0.0
 40
0.0199999999999987
 50
270.0
 51
0.0
  0
ARC
  5
FE56
  8
0
 10
4361.962884241989741
 20
204.5344234991929966
 30
0.0
 40
0.0200000000000014
 50
90.0
 51
179.9999999999951115
  0
LINE
  5
FE57
  8
0
 10
4363.532078842291412
 20
203.0344234991929966
 30
0.0
 11
4362.3125842419904075
 21
203.0344234991929966
 31
0.0
  0
LINE
  5
FE58
  8
0
 10
4362.2725842419904438
 20
203.3144234991929977
 30
0.0
 11
4361.962884241989741
 21
203.3144234991929977
 31
0.0
  0
LINE
  5
FE59
  8
0
 10
4364.1620788422897022
 20
202.0608199043929858
 30
0.0
 11
4363.6108571737913735
 21
202.0704415143929964
 31
0.0
  0
ARC
  5
FE5A
  8
0
 10
4363.6120794840298913
 20
202.1404323468823918
 30
0.0
 40
0.0700015048044118
 50
180.2845156717135069
 51
268.9994961190424192
  0
ARC
  5
FE5B
  8
0
 10
4362.3125842419904075
 20
203.0544234991930068
 30
0.0
 40
0.0200000000000023
 50
180.0000000000048885
 51
270.0
  0
ARC
  5
FE5C
  8
0
 10
4362.2725842419904438
 20
203.2944234991929875
 30
0.0
 40
0.0199999999999987
 50
0.0
 51
90.0
  0
ARC
  5
FE5D
  8
0
 10
4361.962884241989741
 20
203.334423499193008
 30
0.0
 40
0.0200000000000014
 50
180.0000000000048885
 51
270.0
  0
LINE
  5
FE5E
  8
0
 10
4364.1620788422897022
 20
202.0608199043929858
 30
0.0
 11
4364.1620788422897022
 21
202.0625278064968882
 31
0.0
  0
LINE
  5
FE5F
  8
0
 10
4364.1620788422897022
 20
202.0625278064968882
 30
0.0
 11
4364.2420788422896294
 21
202.0611309432929943
 31
0.0
  0
LINE
  5
FE60
  8
0
 10
4361.3419109419901361
 20
204.820333498776904
 30
0.0
 11
4361.3419109419901361
 21
204.314713150687993
 31
0.0
  0
LINE
  5
FE61
  8
0
 10
4361.3222262851668347
 20
201.2573334991930096
 30
0.0
 11
4360.8105955988121423
 21
201.2573334991930096
 31
0.0
  0
LINE
  5
FE62
  8
0
 10
4361.3415689397907045
 20
203.2841811068367974
 30
0.0
 11
4361.3415689397907045
 21
201.2773334890713102
 31
0.0
  0
LINE
  5
FE63
  8
0
 10
4361.3373905564903907
 20
203.2701636805846022
 30
0.0
 11
4361.3373905564903907
 21
201.2768225648177918
 31
0.0
  0
LINE
  5
FE64
  8
0
 10
4361.3141656573907312
 20
203.2934912236837874
 30
0.0
 11
4361.3141656573907312
 21
201.2773334991929914
 31
0.0
  0
LINE
  5
FE65
  8
0
 10
4361.294178836890751
 20
203.2917459966795946
 30
0.0
 11
4361.294178836890751
 21
201.2773334991929062
 31
0.0
  0
LINE
  5
FE66
  8
0
 10
4361.2438887519901982
 20
203.289869811366998
 30
0.0
 11
4361.2438887519901982
 21
201.2768572410176944
 31
0.0
  0
LINE
  5
FE67
  8
0
 10
4361.2115493971896285
 20
203.2898698163837992
 30
0.0
 11
4361.2115493971896285
 21
201.2773334991929914
 31
0.0
  0
LINE
  5
FE68
  8
0
 10
4361.1428897391897408
 20
203.2884256244865071
 30
0.0
 11
4361.1428897391897408
 21
201.2773334991937872
 31
0.0
  0
LINE
  5
FE69
  8
0
 10
4361.103789618189694
 20
203.2884256244865071
 30
0.0
 11
4361.103789618189694
 21
201.2773334984800044
 31
0.0
  0
ARC
  5
FE6A
  8
0
 10
4367.9167503046510319
 20
203.4132563065793988
 30
0.0
 40
6.5764481589981738
 50
180.0343032381304056
 51
181.1246099559274967
  0
ARC
  5
FE6B
  8
0
 10
4374.1264575238892576
 20
203.0720738529338973
 30
0.0
 40
12.7906009818316395
 50
178.4891280112925926
 51
179.1126167674601106
  0
ARC
  5
FE6C
  8
0
 10
4360.6061215174513563
 20
203.2837404128059973
 30
0.0
 40
0.7081112782711866
 50
0.7889974142538857
 51
10.2150324321471295
  0
ARC
  5
FE6D
  8
0
 10
4363.1448979021643026
 20
203.2118744411860973
 30
0.0
 40
1.852441773428807
 50
173.8814445781708002
 51
177.5288172460751923
  0
ARC
  5
FE6E
  8
0
 10
4360.775178400547702
 20
203.2829287825142899
 30
0.0
 40
0.46876174271208
 50
0.8484186237368225
 51
15.64199028339549
  0
ARC
  5
FE6F
  8
0
 10
4361.8667046236432725
 20
203.2681019693559108
 30
0.0
 40
0.655516750290977
 50
167.5593324749827957
 51
178.0970202579229067
  0
ARC
  5
FE70
  8
0
 10
4360.7343828036764535
 20
203.2833395359056112
 30
0.0
 40
0.4085385962919077
 50
0.7133204566168632
 51
17.9607870042214586
  0
ARC
  5
FE71
  8
0
 10
4361.541925838007046
 20
203.2807341841738094
 30
0.0
 40
0.4382037258744359
 50
162.9362197723376084
 51
178.9942812595878081
  0
ARC
  5
FE72
  8
0
 10
4361.3215262723051637
 20
201.277368427812803
 30
0.0
 40
0.0200426979396476
 50
271.5953834082940261
 51
359.900121059275989
  0
ARC
  5
FE73
  8
0
 10
4361.3177775049989577
 20
201.2767800930625981
 30
0.0
 40
0.0196130974769863
 50
277.681061091801098
 51
0.1240729173104028
  0
ARC
  5
FE74
  8
0
 10
4361.2924964250141784
 20
201.2788672307046909
 30
0.0
 40
0.0217234427323317
 50
277.5776820424550806
 51
355.9514007767087946
  0
ARC
  5
FE75
  8
0
 10
4361.2673872891200517
 20
201.277722691609597
 30
0.0
 40
0.0267943744597213
 50
310.4519370749533209
 51
359.1677407096321986
  0
ARC
  5
FE76
  8
0
 10
4361.2233258887627017
 20
201.2770953691673128
 30
0.0
 40
0.0205642420021944
 50
286.0580009996090212
 51
359.3365161289999037
  0
ARC
  5
FE77
  8
0
 10
4361.1594986745776623
 20
201.2789395555822978
 30
0.0
 40
0.0520754946356884
 50
341.6089660905332721
 51
358.2326649537562275
  0
ARC
  5
FE78
  8
0
 10
4361.212657436725749
 20
201.2612652278039889
 30
0.0
 40
0.0039444648030117
 50
161.6089658905823967
 51
265.3944626008329237
  0
ARC
  5
FE79
  8
0
 10
4361.1225438352139463
 20
201.2774032112918121
 30
0.0
 40
0.0203460234055779
 50
279.4534409455554282
 51
359.8036856255430962
  0
LINE
  5
FE7A
  8
0
 10
4361.103789618189694
 20
201.2773334984800044
 30
0.0
 11
4361.1034576326110255
 21
201.265831813592996
 31
0.0
  0
ARC
  5
FE7B
  8
0
 10
4361.1131229113971131
 20
201.264956612486003
 30
0.0
 40
0.0097048230773271
 50
174.8259180405428026
 51
231.7667050922217129
  0
LINE
  5
FE7C
  8
0
 10
4360.7909109419897504
 20
204.314713150687993
 30
0.0
 11
4360.7909109419897504
 21
204.820333498776904
 31
0.0
  0
LINE
  5
FE7D
  8
0
 10
4360.8109060910919652
 20
204.840333499193008
 30
0.0
 11
4361.3219157928870118
 21
204.840333499193008
 31
0.0
  0
ARC
  5
FE7E
  8
0
 10
4360.8109109429951786
 20
204.820333498776904
 30
0.0
 40
0.0200000010046724
 50
90.0138996758985854
 51
180.0000000000048885
  0
ARC
  5
FE7F
  8
0
 10
4361.3219109409847078
 20
204.820333498776904
 30
0.0
 40
0.0200000010046733
 50
359.9999999999951115
 51
89.9861003241014146
  0
LINE
  5
FE80
  8
0
 10
4360.712884241989741
 20
204.3229234991929957
 30
0.0
 11
4360.7768481445109501
 21
204.3229234991929957
 31
0.0
  0
LINE
  5
FE81
  8
0
 10
4361.3559737394698459
 20
204.3229234991929957
 30
0.0
 11
4361.4178842419896682
 21
204.3229234991929957
 31
0.0
  0
LINE
  5
FE82
  8
0
 10
4360.6928842419902139
 20
204.3029813759555964
 30
0.0
 11
4360.6928842419902139
 21
203.5658656224304082
 31
0.0
  0
ARC
  5
FE83
  8
0
 10
4360.7128843014988888
 20
204.3029233555249959
 30
0.0
 40
0.0200001436680536
 50
90.0001704801605626
 51
179.8337846709829932
  0
ARC
  5
FE84
  8
0
 10
4361.4178841701786951
 20
204.3029233258249917
 30
0.0
 40
0.0200001733681151
 50
0.1825892960941164
 51
89.9997942773410529
  0
ARC
  5
FE85
  8
0
 10
4361.066410941990398
 20
204.4442674285585895
 30
0.0
 40
0.2560830860417429
 50
246.0990844414376113
 51
293.9009155585623034
  0
ARC
  5
FE86
  8
0
 10
4361.1664131230127168
 20
204.7045007566277945
 30
0.0
 40
0.5347007856599894
 50
237.5350919573955082
 51
247.6003244716798974
  0
ARC
  5
FE87
  8
0
 10
4361.5267452143552873
 20
205.2815026546232104
 30
0.0
 40
1.2149625596311691
 50
232.2482349653560902
 51
237.8041442770771141
  0
ARC
  5
FE88
  8
0
 10
4360.7768342674989981
 20
204.3129644940933076
 30
0.0
 40
0.009959014767971
 50
52.5172872849686101
 51
89.9201633518339776
  0
ARC
  5
FE89
  8
0
 10
4360.9664087609680792
 20
204.7045007566277945
 30
0.0
 40
0.5347007856599894
 50
292.3996755283200741
 51
302.4649080426045202
  0
ARC
  5
FE8A
  8
0
 10
4360.6060766696264182
 20
205.2815026546232104
 30
0.0
 40
1.2149625596311691
 50
302.1958557229229996
 51
307.7517650346438813
  0
ARC
  5
FE8B
  8
0
 10
4361.3559876164799789
 20
204.3129644940933076
 30
0.0
 40
0.009959014767971
 50
90.0798366512926236
 51
127.4827127150312975
  0
LINE
  5
FE8C
  8
0
 10
4361.3417109419897315
 20
203.5542263010929958
 30
0.0
 11
4361.3417109419897315
 21
201.2773334890727028
 31
0.0
  0
ARC
  5
FE8D
  8
0
 10
4361.3216682745041908
 20
201.277368427812803
 30
0.0
 40
0.0200426979396476
 50
271.5953834082940261
 51
359.900121059275989
  0
LINE
  5
FE8E
  8
0
 10
4360.712884241989741
 20
203.5459234991930089
 30
0.0
 11
4360.7768481445109501
 21
203.5459234991930089
 31
0.0
  0
LINE
  5
FE8F
  8
0
 10
4361.3559737394698459
 20
203.5459234991930089
 30
0.0
 11
4361.4178842419896682
 21
203.5459234991930089
 31
0.0
  0
ARC
  5
FE90
  8
0
 10
4360.7128843014988888
 20
203.5659236428610086
 30
0.0
 40
0.0200001436680536
 50
180.1662153290170068
 51
269.9998295198394089
  0
ARC
  5
FE91
  8
0
 10
4361.4178841701786951
 20
203.5659236725610128
 30
0.0
 40
0.0200001733681151
 50
270.0002057226590182
 51
359.8174107039059209
  0
ARC
  5
FE92
  8
0
 10
4361.1664131230127168
 20
203.1643462417580963
 30
0.0
 40
0.5347007856599894
 50
112.3996755283201026
 51
122.464908042604506
  0
ARC
  5
FE93
  8
0
 10
4361.5267452143552873
 20
202.5873443437629078
 30
0.0
 40
1.2149625596311691
 50
122.1958557229229001
 51
127.7517650346438955
  0
ARC
  5
FE94
  8
0
 10
4360.7768342674989981
 20
203.5558825042928106
 30
0.0
 40
0.009959014767971
 50
270.0798366481660082
 51
307.4827127150314254
  0
ARC
  5
FE95
  8
0
 10
4360.9664087609680792
 20
203.1643462417580963
 30
0.0
 40
0.5347007856599894
 50
57.5350919573955011
 51
67.6003244716799117
  0
ARC
  5
FE96
  8
0
 10
4360.6060766696264182
 20
202.5873443437629078
 30
0.0
 40
1.2149625596311691
 50
52.2482349653560902
 51
57.8041442770770715
  0
ARC
  5
FE97
  8
0
 10
4361.3559876164799789
 20
203.5558825042928106
 30
0.0
 40
0.009959014767971
 50
232.517287284968603
 51
269.9201633487073764
  0
ARC
  5
FE98
  8
0
 10
4361.066410941990398
 20
203.4245795698273866
 30
0.0
 40
0.2560830860417429
 50
66.0990844414376397
 51
113.9009155585623034
  0
LINE
  5
FE99
  8
0
 10
4360.791252944191001
 20
203.2841811068367974
 30
0.0
 11
4360.791252944191001
 21
201.2773334890713102
 31
0.0
  0
LINE
  5
FE9A
  8
0
 10
4360.7954313274904052
 20
203.2701636805846022
 30
0.0
 11
4360.7954313274904052
 21
201.2768225648177918
 31
0.0
  0
LINE
  5
FE9B
  8
0
 10
4360.8186562265909743
 20
203.2934912236837874
 30
0.0
 11
4360.8186562265909743
 21
201.2773334991929914
 31
0.0
  0
LINE
  5
FE9C
  8
0
 10
4360.8386430470909545
 20
203.2917459966795946
 30
0.0
 11
4360.8386430470909545
 21
201.2773334991929062
 31
0.0
  0
LINE
  5
FE9D
  8
0
 10
4360.8889331319905978
 20
203.289869811366998
 30
0.0
 11
4360.8889331319905978
 21
201.2768572410176944
 31
0.0
  0
LINE
  5
FE9E
  8
0
 10
4360.921272486790258
 20
203.2898698163837992
 30
0.0
 11
4360.921272486790258
 21
201.2773334991929914
 31
0.0
  0
LINE
  5
FE9F
  8
0
 10
4360.9899321447910552
 20
203.2884256244865071
 30
0.0
 11
4360.9899321447910552
 21
201.2773334991937872
 31
0.0
  0
LINE
  5
FEA0
  8
0
 10
4361.0290322657901925
 20
203.2884256244865071
 30
0.0
 11
4361.0290322657901925
 21
201.2773334984800044
 31
0.0
  0
ARC
  5
FEA1
  8
0
 10
4354.2160715793297641
 20
203.4132563065793988
 30
0.0
 40
6.5764481589981738
 50
358.8753900440709117
 51
359.9656967618695944
  0
ARC
  5
FEA2
  8
0
 10
4348.0063643600906289
 20
203.0720738529338973
 30
0.0
 40
12.7906009818316395
 50
0.8873832325398645
 51
1.5108719887073829
  0
ARC
  5
FEA3
  8
0
 10
4361.5267003665294396
 20
203.2837404128059973
 30
0.0
 40
0.7081112782711866
 50
169.7849675678529024
 51
179.2110025857460869
  0
ARC
  5
FEA4
  8
0
 10
4358.9879239818174028
 20
203.2118744411860973
 30
0.0
 40
1.852441773428807
 50
2.4711827539247571
 51
6.11855542182923
  0
ARC
  5
FEA5
  8
0
 10
4361.3576434834321844
 20
203.2829287825142899
 30
0.0
 40
0.46876174271208
 50
164.3580097166044993
 51
179.1515813762632092
  0
ARC
  5
FEA6
  8
0
 10
4360.266117260338433
 20
203.2681019693559108
 30
0.0
 40
0.655516750290977
 50
1.9029797420771291
 51
12.4406675250172398
  0
ARC
  5
FEA7
  8
0
 10
4361.3984390803043425
 20
203.2833395359056112
 30
0.0
 40
0.4085385962919077
 50
162.0392129957770067
 51
179.2866795433830873
  0
ARC
  5
FEA8
  8
0
 10
4360.590896045971931
 20
203.2807341841738094
 30
0.0
 40
0.4382037258744359
 50
1.0057187404122361
 51
17.06378022766242
  0
ARC
  5
FEA9
  8
0
 10
4360.8112956116783607
 20
201.277368427812803
 30
0.0
 40
0.0200426979396476
 50
180.099878940722391
 51
268.4046165917059739
  0
ARC
  5
FEAA
  8
0
 10
4360.8150443789809287
 20
201.2767800930625981
 30
0.0
 40
0.0196130974769863
 50
179.8759270826896
 51
262.318938908198902
  0
ARC
  5
FEAB
  8
0
 10
4360.8403254589666176
 20
201.2788672307046909
 30
0.0
 40
0.0217234427323317
 50
184.0485992232910917
 51
262.4223179575448057
  0
ARC
  5
FEAC
  8
0
 10
4360.8654345948607443
 20
201.277722691609597
 30
0.0
 40
0.0267943744597213
 50
180.8322592903678014
 51
229.5480629250465938
  0
ARC
  5
FEAD
  8
0
 10
4360.9094959952180943
 20
201.2770953691673128
 30
0.0
 40
0.0205642420021944
 50
180.6634838710000963
 51
253.9419990003910073
  0
ARC
  5
FEAE
  8
0
 10
4360.9733232094022242
 20
201.2789395555822978
 30
0.0
 40
0.0520754946356884
 50
181.7673350462436872
 51
198.3910339094651079
  0
ARC
  5
FEAF
  8
0
 10
4360.920164447255047
 20
201.2612652278039889
 30
0.0
 40
0.0039444648030117
 50
274.6055373991670194
 51
18.3910341094176317
  0
ARC
  5
FEB0
  8
0
 10
4361.0102780487677592
 20
201.2774032112918121
 30
0.0
 40
0.0203460234055779
 50
180.1963143744567901
 51
260.5465590544445718
  0
LINE
  5
FEB1
  8
0
 10
4361.0290322657901925
 20
201.2773334984800044
 30
0.0
 11
4361.029364251368861
 21
201.265831813592996
 31
0.0
  0
ARC
  5
FEB2
  8
0
 10
4361.0196989725864114
 20
201.264956612486003
 30
0.0
 40
0.0097048230773271
 50
308.2332949077783155
 51
5.1740819594571814
  0
LINE
  5
FEB3
  8
0
 10
4360.7911109419910645
 20
203.5542263010929958
 30
0.0
 11
4360.7911109419910645
 21
201.2773334890727028
 31
0.0
  0
ARC
  5
FEB4
  8
0
 10
4360.8111536094784242
 20
201.277368427812803
 30
0.0
 40
0.0200426979396476
 50
180.099878940722391
 51
268.4046165917059739
  0
LINE
  5
FEB5
  8
0
 10
4361.9428842419893044
 20
204.249423499193
 30
0.0
 11
4361.9248842419892753
 21
204.249423499193
 31
0.0
  0
LINE
  5
FEB6
  8
0
 10
4361.9428842419893044
 20
203.6194234991930045
 30
0.0
 11
4361.9248842419892753
 21
203.6194234991930045
 31
0.0
  0
ARC
  5
FEB7
  8
0
 10
4363.532078842291412
 20
203.0444234991929875
 30
0.0
 40
0.0099999999999809
 50
269.9999999999478746
 51
0.0
  0
ENDSEC
  0
EOF
