  0
SECTION
  2
HEADER
  9
$ACADVER
  1
AC1009
  9
$INSBASE
 10
4363.398674349875364
 20
206.5820874661806954
 30
0.0
  9
$EXTMIN
 10
4361.523674349875364
 20
203.9049974661805891
 30
0.0
  9
$EXTMAX
 10
4365.273674349875364
 20
208.4570874661806954
 30
0.0
  9
$LIMMIN
 10
0.0
 20
0.0
  9
$LIMMAX
 10
11.6929133858000007
 20
8.2677165353999982
  9
$ORTHOMODE
 70
     0
  9
$REGENMODE
 70
     1
  9
$FILLMODE
 70
     1
  9
$QTEXTMODE
 70
     0
  9
$MIRRTEXT
 70
     0
  9
$DRAGMODE
 70
     2
  9
$LTSCALE
 40
0.6431102362
  9
$OSMODE
 70
     7
  9
$ATTMODE
 70
     1
  9
$TEXTSIZE
 40
0.2
  9
$TRACEWID
 40
0.05
  9
$TEXTSTYLE
  7
STANDARD
  9
$CLAYER
  8
0
  9
$CELTYPE
  6
BYLAYER
  9
$CECOLOR
 62
   256
  9
$DIMSCALE
 40
1.0
  9
$DIMASZ
 40
0.1875
  9
$DIMEXO
 40
0.0625
  9
$DIMDLI
 40
0.4443307087
  9
$DIMRND
 40
0.0
  9
$DIMDLE
 40
0.0
  9
$DIMEXE
 40
0.125
  9
$DIMTP
 40
0.01
  9
$DIMTM
 40
0.01
  9
$DIMTXT
 40
2.0
  9
$DIMCEN
 40
0.1052362205
  9
$DIMTSZ
 40
0.0
  9
$DIMTOL
 70
     1
  9
$DIMLIM
 70
     0
  9
$DIMTIH
 70
     1
  9
$DIMTOH
 70
     1
  9
$DIMSE1
 70
     0
  9
$DIMSE2
 70
     0
  9
$DIMTAD
 70
     0
  9
$DIMZIN
 70
     0
  9
$DIMBLK
  1

  9
$DIMASO
 70
     1
  9
$DIMSHO
 70
     1
  9
$DIMPOST
  1
\X
  9
$DIMAPOST
  1

  9
$DIMALT
 70
     1
  9
$DIMALTD
 70
     2
  9
$DIMALTF
 40
25.3999999999999986
  9
$DIMLFAC
 40
1.0
  9
$DIMTOFL
 70
     0
  9
$DIMTVP
 40
0.0
  9
$DIMTIX
 70
     0
  9
$DIMSOXD
 70
     0
  9
$DIMSAH
 70
     0
  9
$DIMBLK1
  1

  9
$DIMBLK2
  1

  9
$DIMSTYLE
  2
STANDARD
  9
$DIMCLRD
 70
     0
  9
$DIMCLRE
 70
     0
  9
$DIMCLRT
 70
     0
  9
$DIMTFAC
 40
1.0
  9
$DIMGAP
 40
0.09
  9
$LUNITS
 70
     2
  9
$LUPREC
 70
     4
  9
$SKETCHINC
 40
0.1
  9
$FILLETRAD
 40
0.0
  9
$AUNITS
 70
     0
  9
$AUPREC
 70
     0
  9
$MENU
  1
.
  9
$ELEVATION
 40
0.0
  9
$PELEVATION
 40
0.0
  9
$THICKNESS
 40
0.0
  9
$LIMCHECK
 70
     0
  9
$BLIPMODE
 70
     0
  9
$CHAMFERA
 40
0.0
  9
$CHAMFERB
 40
0.0
  9
$SKPOLY
 70
     0
  9
$TDCREATE
 40
2458060.468368056230247
  9
$TDUPDATE
 40
2459580.0316666672006249
  9
$TDINDWG
 40
0.4568241898
  9
$TDUSRTIMER
 40
0.4568241898
  9
$USRTIMER
 70
     1
  9
$ANGBASE
 50
0.0
  9
$ANGDIR
 70
     0
  9
$PDMODE
 70
     0
  9
$PDSIZE
 40
0.3125
  9
$PLINEWID
 40
0.0
  9
$COORDS
 70
     1
  9
$SPLFRAME
 70
     0
  9
$SPLINETYPE
 70
     6
  9
$SPLINESEGS
 70
     8
  9
$ATTDIA
 70
     1
  9
$ATTREQ
 70
     1
  9
$HANDLING
 70
     1
  9
$HANDSEED
  5
FBF9
  9
$SURFTAB1
 70
     6
  9
$SURFTAB2
 70
     6
  9
$SURFTYPE
 70
     6
  9
$SURFU
 70
     6
  9
$SURFV
 70
     6
  9
$UCSNAME
  2

  9
$UCSORG
 10
0.0
 20
0.0
 30
0.0
  9
$UCSXDIR
 10
1.0
 20
0.0
 30
0.0
  9
$UCSYDIR
 10
0.0
 20
1.0
 30
0.0
  9
$PUCSNAME
  2

  9
$PUCSORG
 10
0.0
 20
0.0
 30
0.0
  9
$PUCSXDIR
 10
1.0
 20
0.0
 30
0.0
  9
$PUCSYDIR
 10
0.0
 20
1.0
 30
0.0
  9
$USERI1
 70
     0
  9
$USERI2
 70
     0
  9
$USERI3
 70
     0
  9
$USERI4
 70
     0
  9
$USERI5
 70
     0
  9
$USERR1
 40
0.0
  9
$USERR2
 40
0.0
  9
$USERR3
 40
0.0
  9
$USERR4
 40
0.0
  9
$USERR5
 40
0.0
  9
$WORLDVIEW
 70
     1
  9
$SHADEDGE
 70
     3
  9
$SHADEDIF
 70
    70
  9
$TILEMODE
 70
     1
  9
$MAXACTVP
 70
    64
  9
$PLIMCHECK
 70
     0
  9
$PEXTMIN
 10
1.0000000000000000E+20
 20
1.0000000000000000E+20
 30
1.0000000000000000E+20
  9
$PEXTMAX
 10
-1.0000000000000000E+20
 20
-1.0000000000000000E+20
 30
-1.0000000000000000E+20
  9
$PLIMMIN
 10
0.0
 20
0.0
  9
$PLIMMAX
 10
12.0
 20
9.0
  9
$UNITMODE
 70
     0
  9
$VISRETAIN
 70
     1
  9
$PLINEGEN
 70
     0
  9
$PSLTSCALE
 70
     1
  0
ENDSEC
  0
SECTION
  2
TABLES
  0
TABLE
  2
VPORT
 70
     1
  0
VPORT
  2
*ACTIVE
 70
     0
 10
0.0
 20
0.0
 11
1.0
 21
1.0
 12
559.854606967062864
 22
80.1857802694307509
 13
0.0
 23
0.0
 14
1.0
 24
1.0
 15
0.0
 25
0.0
 16
0.0
 26
0.0
 36
17.1152628219792007
 17
3803.5440673828129547
 27
125.9952621967499056
 37
0.0
 40
4.5846825298330307
 41
2.2831541218637992
 42
50.0
 43
0.0
 44
0.0
 50
0.0
 51
0.0
 71
     0
 72
   100
 73
     1
 74
     1
 75
     0
 76
     0
 77
     0
 78
     0
  0
ENDTAB
  0
TABLE
  2
LTYPE
 70
     2
  0
LTYPE
  2
CONTINUOUS
 70
     0
  3
Solid line
 72
    65
 73
     0
 40
0.0
  0
LTYPE
  2
PHANTOM2
 70
     0
  3
___ _ _ ___ _ _ ___ _ _ ___ _ _
 72
    65
 73
     6
 40
1.25
 49
0.625
 49
-0.125
 49
0.125
 49
-0.125
 49
0.125
 49
-0.125
  0
ENDTAB
  0
TABLE
  2
LAYER
 70
     2
  0
LAYER
  2
0
 70
     0
 62
   255
  6
CONTINUOUS
  0
LAYER
  2
DEFPOINTS
 70
     0
 62
     7
  6
CONTINUOUS
  0
ENDTAB
  0
TABLE
  2
STYLE
 70
     1
  0
STYLE
  2
STANDARD
 70
     0
 40
0.0
 41
0.8
 50
0.0
 71
     0
 42
0.2
  3
txt
  4

  0
ENDTAB
  0
TABLE
  2
VIEW
 70
     0
  0
ENDTAB
  0
TABLE
  2
UCS
 70
     0
  0
ENDTAB
  0
TABLE
  2
APPID
 70
     9
  0
APPID
  2
ACAD
 70
     0
  0
APPID
  2
ACAD_MLEADERVER
 70
     0
  0
APPID
  2
ACAD_EXEMPT_FROM_CAD_STANDARDS
 70
     0
  0
APPID
  2
ACAD_NAV_VCDISPLAY
 70
     0
  0
APPID
  2
ACAECLAYERSTANDARD
 70
     0
  0
APPID
  2
ACCMTRANSPARENCY
 70
     0
  0
APPID
  2
ACAD_DSTYLE_DIMJAG
 70
     0
  0
APPID
  2
ACAD_DSTYLE_DIMTALN
 70
     0
  0
APPID
  2
ACDBATTR
 70
     0
  0
ENDTAB
  0
TABLE
  2
DIMSTYLE
 70
     1
  0
DIMSTYLE
  2
STANDARD
 70
     0
  3

  4

  5

  6

  7

 40
1.0
 41
0.1875
 42
0.0625
 43
0.38
 44
0.125
 45
0.0
 46
0.0
 47
0.01
 48
0.01
140
0.15625
141
0.09
142
0.0
143
25.3999999999999986
144
1.0
145
0.0
146
1.0
147
0.09
 71
     1
 72
     0
 73
     1
 74
     1
 75
     0
 76
     0
 77
     0
 78
     4
170
     0
171
     2
172
     0
173
     0
174
     0
175
     0
176
     0
177
     0
178
     0
  0
ENDTAB
  0
ENDSEC
  0
SECTION
  2
BLOCKS
  0
BLOCK
  8
0
  2
$MODEL_SPACE
 70
     0
 10
0.0
 20
0.0
 30
0.0
  3
$MODEL_SPACE
  1

  0
ENDBLK
  5
21
  8
0
  0
BLOCK
 67
     1
  8
0
  2
$PAPER_SPACE
 70
     0
 10
0.0
 20
0.0
 30
0.0
  3
$PAPER_SPACE
  1

  0
ENDBLK
  5
1D
 67
     1
  8
0
  0
ENDSEC
  0
SECTION
  2
ENTITIES
  0
ATTDEF
  5
3930
  8
DEFPOINTS
 10
4363.3986992947911858
 20
206.5854545448725901
 30
0.0
 40
0.001
  1
P21385-LV
  3

  2
MODELNUMBER
 70
     0
1001
ACDBATTR
1070
     0
1070
     1
  0
ATTDEF
  5
3931
  8
DEFPOINTS
 10
4363.3986992947911858
 20
206.5837878782058965
 30
0.0
 40
0.001
  1
CENTRAL PARK WEST
  3

  2
TRADENAME
 70
     0
1001
ACDBATTR
1070
     0
1070
     1
  0
ATTDEF
  5
3932
  8
DEFPOINTS
 10
4363.3986992947911858
 20
206.5821212115392029
 30
0.0
 40
0.001
  1
VALVE TRIM
  3

  2
PRODUCT
 70
     0
1001
ACDBATTR
1070
     0
1070
     1
  0
CIRCLE
  5
FA8C
  8
0
 10
4363.398674349875364
 20
206.5820874661806954
 30
0.0
 40
0.3885000000000005
  0
ARC
  5
FA8D
  8
0
 10
4363.398674349875364
 20
206.5820874661806954
 30
0.0
 40
0.4620000000000001
 50
128.4805304899809073
 51
135.5194695052626059
  0
ARC
  5
FA8E
  8
0
 10
4363.398674349875364
 20
206.5820874661806954
 30
0.0
 40
0.4620000000000001
 50
140.4805304899832095
 51
147.5194695052898908
  0
ARC
  5
FA8F
  8
0
 10
4363.398674349875364
 20
206.5820874661806954
 30
0.0
 40
0.4620000000000001
 50
152.4805304899838916
 51
159.5194695052676934
  0
ARC
  5
FA90
  8
0
 10
4363.398674349875364
 20
206.5820874661806954
 30
0.0
 40
0.4620000000000001
 50
164.4805304899788894
 51
171.5194695052778968
  0
ARC
  5
FA91
  8
0
 10
4363.398674349875364
 20
206.5820874661806954
 30
0.0
 40
0.4620000000000001
 50
176.4805304899782072
 51
183.5194695052759926
  0
ARC
  5
FA92
  8
0
 10
4363.398674349875364
 20
206.5820874661806954
 30
0.0
 40
0.4620000000000001
 50
188.4805304899803104
 51
195.5194695052821032
  0
ARC
  5
FA93
  8
0
 10
4363.398674349875364
 20
206.5820874661806954
 30
0.0
 40
0.4620000000000001
 50
200.4805304899857106
 51
207.5194695052730083
  0
ARC
  5
FA94
  8
0
 10
4363.398674349875364
 20
206.5820874661806954
 30
0.0
 40
0.4620000000000001
 50
212.4805304899902012
 51
219.5194695052709051
  0
ARC
  5
FA95
  8
0
 10
4363.398674349875364
 20
206.5820874661806954
 30
0.0
 40
0.4620000000000001
 50
224.4805304899851137
 51
231.5194695052855991
  0
ARC
  5
FA96
  8
0
 10
4363.398674349875364
 20
206.5820874661806954
 30
0.0
 40
0.4620000000000001
 50
308.4805304899809926
 51
315.5194695052625775
  0
ARC
  5
FA97
  8
0
 10
4363.398674349875364
 20
206.5820874661806954
 30
0.0
 40
0.4620000000000001
 50
320.4805304899830958
 51
327.5194695052620091
  0
ARC
  5
FA98
  8
0
 10
4363.398674349875364
 20
206.5820874661806954
 30
0.0
 40
0.4620000000000001
 50
332.4805304899840053
 51
339.5194695052676934
  0
ARC
  5
FA99
  8
0
 10
4363.398674349875364
 20
206.5820874661806954
 30
0.0
 40
0.4620000000000001
 50
344.4805304899788894
 51
351.5194695052779821
  0
ARC
  5
FA9A
  8
0
 10
4363.398674349875364
 20
206.5820874661806954
 30
0.0
 40
0.4620000000000001
 50
356.4805304899782072
 51
3.5194695052759979
  0
ARC
  5
FA9B
  8
0
 10
4363.398674349875364
 20
206.5820874661806954
 30
0.0
 40
0.4620000000000001
 50
8.4805304899803016
 51
15.5194695052820908
  0
ARC
  5
FA9C
  8
0
 10
4363.398674349875364
 20
206.5820874661806954
 30
0.0
 40
0.4620000000000001
 50
20.4805304899857283
 51
27.5194695052730296
  0
ARC
  5
FA9D
  8
0
 10
4363.398674349875364
 20
206.5820874661806954
 30
0.0
 40
0.4620000000000001
 50
32.4805304899902225
 51
39.5194695052709122
  0
ARC
  5
FA9E
  8
0
 10
4363.398674349875364
 20
206.5820874661806954
 30
0.0
 40
0.4620000000000001
 50
44.4805304899862008
 51
51.5194695052856275
  0
ARC
  5
FA9F
  8
0
 10
4363.0553414405758303
 20
206.8912258062808007
 30
0.0
 40
0.0200000000000002
 50
229.2402650212013953
 51
46.7597349740533872
  0
ARC
  5
FAA0
  8
0
 10
4362.9985706134038992
 20
206.8130874661584073
 30
0.0
 40
0.0200000000000002
 50
241.2402650212229105
 51
58.7597349740456281
  0
ARC
  5
FAA1
  8
0
 10
4362.9592862394265467
 20
206.7248533175761054
 30
0.0
 40
0.0200000000000002
 50
253.2402650211801927
 51
70.7597349740386932
  0
ARC
  5
FAA2
  8
0
 10
4362.939205234293695
 20
206.6303796162212905
 30
0.0
 40
0.0200000000000002
 50
265.2402650212197273
 51
82.7597349740338188
  0
ARC
  5
FAA3
  8
0
 10
4362.939205234290057
 20
206.5337953161782139
 30
0.0
 40
0.0200000000000002
 50
277.2402650211867012
 51
94.7597349740739645
  0
ARC
  5
FAA4
  8
0
 10
4362.9592862394147232
 20
206.4393216148216936
 30
0.0
 40
0.0200000000000002
 50
289.2402650212150093
 51
106.7597349740340036
  0
ARC
  5
FAA5
  8
0
 10
4362.9985706133847998
 20
206.3510874662362085
 30
0.0
 40
0.0200000000000002
 50
301.2402650212030153
 51
118.7597349740698007
  0
ARC
  5
FAA6
  8
0
 10
4363.0553414405503645
 20
206.2729491261090971
 30
0.0
 40
0.0200000000000002
 50
313.240265021214384
 51
130.7597349740528898
  0
ARC
  5
FAA7
  8
0
 10
4363.1271175633473831
 20
206.2083216148535882
 30
0.0
 40
0.0200000000000002
 50
101.3709718479960031
 51
142.7597349740456991
  0
ARC
  5
FAA8
  8
0
 10
4363.6702311363733315
 20
206.2083216148311919
 30
0.0
 40
0.0200000000000003
 50
37.2402650212121884
 51
78.6290280615376389
  0
ARC
  5
FAA9
  8
0
 10
4363.7420072591748976
 20
206.2729491260807038
 30
0.0
 40
0.0200000000000003
 50
49.2402650212014024
 51
226.7597349740534014
  0
ARC
  5
FAAA
  8
0
 10
4363.7987780863468288
 20
206.3510874662030119
 30
0.0
 40
0.0200000000000003
 50
61.2402650212228394
 51
238.7597349740456991
  0
ARC
  5
FAAB
  8
0
 10
4363.8380624603241813
 20
206.4393216147853138
 30
0.0
 40
0.0200000000000003
 50
73.2402650211806474
 51
250.7597349740387074
  0
ARC
  5
FAAC
  8
0
 10
4363.858143465455214
 20
206.533795316140214
 30
0.0
 40
0.0200000000000003
 50
85.2402650212197557
 51
262.7597349740337904
  0
ARC
  5
FAAD
  8
0
 10
4363.8581434654597615
 20
206.6303796161832054
 30
0.0
 40
0.0200000000000003
 50
97.2402650211866444
 51
274.7597349740739787
  0
ARC
  5
FAAE
  8
0
 10
4363.8380624603360047
 20
206.7248533175396972
 30
0.0
 40
0.0200000000000003
 50
109.240265021214995
 51
286.7597349740340178
  0
ARC
  5
FAAF
  8
0
 10
4363.7987780863659282
 20
206.813087466125296
 30
0.0
 40
0.0200000000000003
 50
121.2402650212030011
 51
298.7597349740697723
  0
ARC
  5
FAB0
  8
0
 10
4363.742007259201273
 20
206.8912258062522938
 30
0.0
 40
0.0200000000000003
 50
133.2402650212144124
 51
310.7597349740528898
  0
ARC
  5
FAB1
  8
0
 10
4363.6702311364042544
 20
206.9558533175078026
 30
0.0
 40
0.0200000000000003
 50
281.3709718479963726
 51
322.7597349740457275
  0
ARC
  5
FAB2
  8
0
 10
4363.1271175633783059
 20
206.9558533175303126
 30
0.0
 40
0.0200000000000004
 50
217.2402650212121955
 51
258.6290280615378947
  0
LINE
  5
FAB3
  8
0
 10
4363.6741743498760115
 20
207.4679974657645971
 30
0.0
 11
4363.6741743498760115
 21
206.856007162442296
 31
0.0
  0
LINE
  5
FAB4
  8
0
 10
4363.6741743498760115
 20
206.3081677699192085
 30
0.0
 11
4363.6741743498760115
 21
203.9249974661807983
 31
0.0
  0
LINE
  5
FAB5
  8
0
 10
4363.1239003026748833
 20
205.968535294451101
 30
0.0
 11
4363.1239003026748833
 21
203.9249974661807983
 31
0.0
  0
LINE
  5
FAB6
  8
0
 10
4363.6586743498746728
 20
203.9049974661807028
 30
0.0
 11
4363.1386743498751457
 21
203.9049974661807028
 31
0.0
  0
LINE
  5
FAB7
  8
0
 10
4363.6715994184760348
 20
205.9318450738244906
 30
0.0
 11
4363.6715994184760348
 21
203.9249974560590886
 31
0.0
  0
LINE
  5
FAB8
  8
0
 10
4363.6632884311748057
 20
205.917827647572409
 30
0.0
 11
4363.6632884311748057
 21
203.9244865318055133
 31
0.0
  0
LINE
  5
FAB9
  8
0
 10
4363.6327191819746076
 20
205.941155190671509
 30
0.0
 11
4363.6327191819746076
 21
203.9249974661807983
 31
0.0
  0
LINE
  5
FABA
  8
0
 10
4363.6092232652754319
 20
205.9394099636672877
 30
0.0
 11
4363.6092232652754319
 21
203.924997466180713
 31
0.0
  0
LINE
  5
FABB
  8
0
 10
4363.5533704676754496
 20
205.9375337783546911
 30
0.0
 11
4363.5533704676754496
 21
203.9245212080055012
 31
0.0
  0
LINE
  5
FABC
  8
0
 10
4363.5187522791748052
 20
205.9375337833714923
 30
0.0
 11
4363.5187522791748052
 21
203.924997466180713
 31
0.0
  0
LINE
  5
FABD
  8
0
 10
4363.447273389275324
 20
205.9360895914743139
 30
0.0
 11
4363.447273389275324
 21
203.9249974661815941
 31
0.0
  0
LINE
  5
FABE
  8
0
 10
4363.4075187281760009
 20
205.9360895914743139
 30
0.0
 11
4363.4075187281760009
 21
203.9249974654678113
 31
0.0
  0
ARC
  5
FABF
  8
0
 10
4361.008056284351369
 20
205.9235389203358011
 30
0.0
 40
2.663556085298008
 50
0.1786740338842707
 51
2.8717174080592431
  0
ARC
  5
FAC0
  8
0
 10
4365.646597747551823
 20
205.9165302166298943
 30
0.0
 40
1.983309740750212
 50
175.9390664802641027
 51
179.9625185511945062
  0
ARC
  5
FAC1
  8
0
 10
4362.9246750420361423
 20
205.9314043797936904
 30
0.0
 40
0.7081112782711866
 50
0.7889974142538857
 51
10.2150324321471295
  0
ARC
  5
FAC2
  8
0
 10
4364.2601583072782887
 20
205.9305305912658923
 30
0.0
 40
0.6509956007231722
 50
168.7994055413689978
 51
179.2184796044400912
  0
ARC
  5
FAC3
  8
0
 10
4363.0846601162338629
 20
205.9305927495020114
 30
0.0
 40
0.46876174271208
 50
0.8484186237368225
 51
15.64199028339549
  0
ARC
  5
FAC4
  8
0
 10
4363.9874626305427228
 20
205.9305927495020114
 30
0.0
 40
0.46876174271208
 50
164.3580097166044993
 51
179.151580762997412
  0
ARC
  5
FAC5
  8
0
 10
4363.0387664537611272
 20
205.9310035028933044
 30
0.0
 40
0.4085385962919077
 50
0.7133204566168632
 51
17.9607870042214586
  0
ARC
  5
FAC6
  8
0
 10
4363.8160256641886008
 20
205.9310035027756953
 30
0.0
 40
0.4085385967934255
 50
162.0392130012328096
 51
179.2866795277633116
  0
ARC
  5
FAC7
  8
0
 10
4363.6541743498746655
 20
203.9249974661807983
 30
0.0
 40
0.0200000000000005
 50
270.0
 51
359.9999999999968168
  0
ARC
  5
FAC8
  8
0
 10
4363.651556750988675
 20
203.9250323948004961
 30
0.0
 40
0.0200426979396476
 50
271.5953834082940261
 51
359.900121059275989
  0
ARC
  5
FAC9
  8
0
 10
4363.6428204112380627
 20
203.9247419993386075
 30
0.0
 40
0.0204696141577849
 50
285.2955975483541238
 51
359.2849112181518763
  0
ARC
  5
FACA
  8
0
 10
4363.6110499495989643
 20
203.9265311976924977
 30
0.0
 40
0.0217234427323317
 50
277.5776820424550806
 51
355.9514007767087946
  0
ARC
  5
FACB
  8
0
 10
4363.5824317175047327
 20
203.9253866585972901
 30
0.0
 40
0.0267943744597213
 50
310.4519370749533209
 51
359.1677407096321986
  0
ARC
  5
FACC
  8
0
 10
4363.5328076044479531
 20
203.9247593361550912
 30
0.0
 40
0.0205642420021944
 50
286.0580009996090212
 51
359.3365161289999037
  0
ARC
  5
FACD
  8
0
 10
4363.466701556562839
 20
203.9266035225701046
 30
0.0
 40
0.0520754946356884
 50
341.6089660905332721
 51
358.2326649537562275
  0
ARC
  5
FACE
  8
0
 10
4363.5198603187118351
 20
203.9089291947917104
 30
0.0
 40
0.0039444648030117
 50
161.6089658905823967
 51
265.3944626008329237
  0
ARC
  5
FACF
  8
0
 10
4363.4269274852977105
 20
203.9250671782795052
 30
0.0
 40
0.0203460234055779
 50
279.4534409455554282
 51
359.8036856255430962
  0
LINE
  5
FAD0
  8
0
 10
4363.4075187281760009
 20
203.9249974654678113
 30
0.0
 11
4363.4071867425964228
 21
203.9134957805806891
 31
0.0
  0
ARC
  5
FAD1
  8
0
 10
4363.4168520213797819
 20
203.9126205794738098
 30
0.0
 40
0.0097048230773271
 50
174.8259180405428026
 51
231.7667050922217129
  0
LINE
  5
FAD2
  8
0
 10
4363.1395263948752472
 20
205.9620794446734067
 30
0.0
 11
4363.1395263948752472
 21
203.9249974661807983
 31
0.0
  0
LINE
  5
FAD3
  8
0
 10
4363.155785139375439
 20
205.9603342176692138
 30
0.0
 11
4363.155785139375439
 21
203.924997466180713
 31
0.0
  0
LINE
  5
FAD4
  8
0
 10
4363.1999615227759932
 20
205.9466585761254862
 30
0.0
 11
4363.1999615227759932
 21
203.9245212080055012
 31
0.0
  0
LINE
  5
FAD5
  8
0
 10
4363.2296677272752277
 20
205.9466585811424011
 30
0.0
 11
4363.2296677272752277
 21
203.924997466180713
 31
0.0
  0
LINE
  5
FAD6
  8
0
 10
4363.2947559037747851
 20
205.9388017103418917
 30
0.0
 11
4363.2947559037747851
 21
203.9249974661807983
 31
0.0
  0
LINE
  5
FAD7
  8
0
 10
4363.3327730954752042
 20
205.9388017103418917
 30
0.0
 11
4363.3327730954752042
 21
203.9249974654678113
 31
0.0
  0
ARC
  5
FAD8
  8
0
 10
4363.8475705348137126
 20
205.9523286337955881
 30
0.0
 40
0.7081112782711866
 50
171.5009179168912112
 51
179.2110025857460869
  0
ARC
  5
FAD9
  8
0
 10
4362.5048500973725822
 20
205.95145484526779
 30
0.0
 40
0.6509956007231722
 50
0.7815203955598219
 51
9.3289597912575797
  0
ARC
  5
FADA
  8
0
 10
4363.6686718742175799
 20
205.9397175472728918
 30
0.0
 40
0.46876174271208
 50
165.5130271892869018
 51
179.1515813762632092
  0
ARC
  5
FADB
  8
0
 10
4362.7609573759082195
 20
205.9397175472728918
 30
0.0
 40
0.46876174271208
 50
0.8484192370025848
 51
14.4869728107130893
  0
ARC
  5
FADC
  8
0
 10
4363.7032628392889819
 20
205.9337156217609106
 30
0.0
 40
0.4085385962919077
 50
162.4386134709235137
 51
179.2866795433830873
  0
ARC
  5
FADD
  8
0
 10
4362.9242661594616948
 20
205.9337156216433016
 30
0.0
 40
0.4085385967934255
 50
0.7133204722366542
 51
17.5613865241292189
  0
ARC
  5
FADE
  8
0
 10
4363.1439003026753198
 20
203.9249974661807983
 30
0.0
 40
0.0200000000000005
 50
180.0000000000015916
 51
270.0
  0
ARC
  5
FADF
  8
0
 10
4363.1611956272518
 20
203.9265311976924977
 30
0.0
 40
0.0217234427323317
 50
184.0485992232895001
 51
262.4223179575448057
  0
ARC
  5
FAE0
  8
0
 10
4363.1825766871470478
 20
203.9253866585972901
 30
0.0
 40
0.0267943744597213
 50
180.8322592903662098
 51
229.5480629250465938
  0
ARC
  5
FAE1
  8
0
 10
4363.2205243860025803
 20
203.9247593361550912
 30
0.0
 40
0.0205642420021944
 50
180.6634838710000963
 51
253.9419990003910073
  0
ARC
  5
FAE2
  8
0
 10
4363.2817184498871939
 20
203.9266035225701046
 30
0.0
 40
0.0520754946356884
 50
181.7673350462436872
 51
198.3910339094651079
  0
ARC
  5
FAE3
  8
0
 10
4363.2285596877400167
 20
203.9089291947917104
 30
0.0
 40
0.0039444648030117
 50
274.6055373991670194
 51
18.3910341094176317
  0
ARC
  5
FAE4
  8
0
 10
4363.3151018077523986
 20
203.9250671782795052
 30
0.0
 40
0.0203460234055779
 50
180.1963143744551985
 51
260.5465590544445718
  0
LINE
  5
FAE5
  8
0
 10
4363.3327730954752042
 20
203.9249974654678113
 30
0.0
 11
4363.3331050810538727
 21
203.9134957805806891
 31
0.0
  0
ARC
  5
FAE6
  8
0
 10
4363.3234398022714231
 20
203.9126205794738098
 30
0.0
 40
0.0097048230773271
 50
308.2332949077783155
 51
5.1740819594571814
  0
ARC
  5
FAE7
  8
0
 10
4363.398674349875364
 20
206.5820874661806954
 30
0.0
 40
0.9000000000000004
 50
287.8250234986501255
 51
72.1749765013499598
  0
ARC
  5
FAE8
  8
0
 10
4363.398674349875364
 20
206.5820874661806954
 30
0.0
 40
0.9000000000000004
 50
107.8250234986499976
 51
252.2235158990004038
  0
ARC
  5
FAE9
  8
0
 10
4355.2029641033668668
 20
205.9477663803158123
 30
0.0
 40
7.9209634275958507
 50
0.1502307767751867
 51
0.7901358565946754
  0
LINE
  5
FAEA
  8
0
 10
4363.1231743498747164
 20
206.0569967442808093
 30
0.0
 11
4363.1231743498747164
 21
206.3081677699192085
 31
0.0
  0
LINE
  5
FAEB
  8
0
 10
4363.1231743498747164
 20
206.856007162442296
 30
0.0
 11
4363.1231743498747164
 21
207.4679974657645971
 31
0.0
  0
LINE
  5
FAEC
  8
0
 10
4363.1431694989778407
 20
207.4879974661807012
 30
0.0
 11
4363.6541792007719778
 21
207.4879974661807012
 31
0.0
  0
ARC
  5
FAED
  8
0
 10
4363.1431743508801446
 20
207.4679974657645971
 30
0.0
 40
0.0200000010046653
 50
90.0138996758985854
 51
180.0000000000260059
  0
ARC
  5
FAEE
  8
0
 10
4363.6541743488696738
 20
207.4679974657645971
 30
0.0
 40
0.0200000010046706
 50
0.0
 51
89.9861003241014146
  0
ARC
  5
FAEF
  8
0
 10
4363.398674349875364
 20
206.5820874661806954
 30
0.0
 40
0.6200000000000001
 50
116.382068920540604
 51
243.6552740836428086
  0
ARC
  5
FAF0
  8
0
 10
4363.398674349875364
 20
206.5820874661806954
 30
0.0
 40
0.6200000000000001
 50
296.3820689205405756
 51
63.6179310794593533
  0
ARC
  5
FAF2
  8
0
 10
4363.398674349875364
 20
206.5820874661806954
 30
0.0
 40
1.875
 50
278.4492503138300208
 51
261.573175930907496
  0
ENDSEC
  0
EOF
