  0
SECTION
  2
HEADER
  9
$ACADVER
  1
AC1009
  9
$INSBASE
 10
4346.4132944927760036
 20
205.8224794119761896
 30
0.0
  9
$EXTMIN
 10
4344.5382944927750941
 20
203.145389411975998
 30
0.0
  9
$EXTMAX
 10
4348.2882944927750941
 20
207.6974794119761043
 30
0.0
  9
$LIMMIN
 10
0.0
 20
0.0
  9
$LIMMAX
 10
11.6929133858000007
 20
8.2677165353999982
  9
$ORTHOMODE
 70
     0
  9
$REGENMODE
 70
     1
  9
$FILLMODE
 70
     1
  9
$QTEXTMODE
 70
     0
  9
$MIRRTEXT
 70
     0
  9
$DRAGMODE
 70
     2
  9
$LTSCALE
 40
0.6431102362
  9
$OSMODE
 70
     7
  9
$ATTMODE
 70
     1
  9
$TEXTSIZE
 40
0.2
  9
$TRACEWID
 40
0.05
  9
$TEXTSTYLE
  7
STANDARD
  9
$CLAYER
  8
0
  9
$CELTYPE
  6
BYLAYER
  9
$CECOLOR
 62
   256
  9
$DIMSCALE
 40
1.0
  9
$DIMASZ
 40
0.1875
  9
$DIMEXO
 40
0.0625
  9
$DIMDLI
 40
0.4443307087
  9
$DIMRND
 40
0.0
  9
$DIMDLE
 40
0.0
  9
$DIMEXE
 40
0.125
  9
$DIMTP
 40
0.01
  9
$DIMTM
 40
0.01
  9
$DIMTXT
 40
2.0
  9
$DIMCEN
 40
0.1052362205
  9
$DIMTSZ
 40
0.0
  9
$DIMTOL
 70
     1
  9
$DIMLIM
 70
     0
  9
$DIMTIH
 70
     1
  9
$DIMTOH
 70
     1
  9
$DIMSE1
 70
     0
  9
$DIMSE2
 70
     0
  9
$DIMTAD
 70
     0
  9
$DIMZIN
 70
     0
  9
$DIMBLK
  1

  9
$DIMASO
 70
     1
  9
$DIMSHO
 70
     1
  9
$DIMPOST
  1
\X
  9
$DIMAPOST
  1

  9
$DIMALT
 70
     1
  9
$DIMALTD
 70
     2
  9
$DIMALTF
 40
25.3999999999999986
  9
$DIMLFAC
 40
1.0
  9
$DIMTOFL
 70
     0
  9
$DIMTVP
 40
0.0
  9
$DIMTIX
 70
     0
  9
$DIMSOXD
 70
     0
  9
$DIMSAH
 70
     0
  9
$DIMBLK1
  1

  9
$DIMBLK2
  1

  9
$DIMSTYLE
  2
STANDARD
  9
$DIMCLRD
 70
     0
  9
$DIMCLRE
 70
     0
  9
$DIMCLRT
 70
     0
  9
$DIMTFAC
 40
1.0
  9
$DIMGAP
 40
0.09
  9
$LUNITS
 70
     2
  9
$LUPREC
 70
     4
  9
$SKETCHINC
 40
0.1
  9
$FILLETRAD
 40
0.0
  9
$AUNITS
 70
     0
  9
$AUPREC
 70
     0
  9
$MENU
  1
.
  9
$ELEVATION
 40
0.0
  9
$PELEVATION
 40
0.0
  9
$THICKNESS
 40
0.0
  9
$LIMCHECK
 70
     0
  9
$BLIPMODE
 70
     0
  9
$CHAMFERA
 40
0.0
  9
$CHAMFERB
 40
0.0
  9
$SKPOLY
 70
     0
  9
$TDCREATE
 40
2458060.468368056230247
  9
$TDUPDATE
 40
2459580.0271527781151235
  9
$TDINDWG
 40
0.454196875
  9
$TDUSRTIMER
 40
0.454196875
  9
$USRTIMER
 70
     1
  9
$ANGBASE
 50
0.0
  9
$ANGDIR
 70
     0
  9
$PDMODE
 70
     0
  9
$PDSIZE
 40
0.3125
  9
$PLINEWID
 40
0.0
  9
$COORDS
 70
     1
  9
$SPLFRAME
 70
     0
  9
$SPLINETYPE
 70
     6
  9
$SPLINESEGS
 70
     8
  9
$ATTDIA
 70
     1
  9
$ATTREQ
 70
     1
  9
$HANDLING
 70
     1
  9
$HANDSEED
  5
F810
  9
$SURFTAB1
 70
     6
  9
$SURFTAB2
 70
     6
  9
$SURFTYPE
 70
     6
  9
$SURFU
 70
     6
  9
$SURFV
 70
     6
  9
$UCSNAME
  2

  9
$UCSORG
 10
0.0
 20
0.0
 30
0.0
  9
$UCSXDIR
 10
1.0
 20
0.0
 30
0.0
  9
$UCSYDIR
 10
0.0
 20
1.0
 30
0.0
  9
$PUCSNAME
  2

  9
$PUCSORG
 10
0.0
 20
0.0
 30
0.0
  9
$PUCSXDIR
 10
1.0
 20
0.0
 30
0.0
  9
$PUCSYDIR
 10
0.0
 20
1.0
 30
0.0
  9
$USERI1
 70
     0
  9
$USERI2
 70
     0
  9
$USERI3
 70
     0
  9
$USERI4
 70
     0
  9
$USERI5
 70
     0
  9
$USERR1
 40
0.0
  9
$USERR2
 40
0.0
  9
$USERR3
 40
0.0
  9
$USERR4
 40
0.0
  9
$USERR5
 40
0.0
  9
$WORLDVIEW
 70
     1
  9
$SHADEDGE
 70
     3
  9
$SHADEDIF
 70
    70
  9
$TILEMODE
 70
     1
  9
$MAXACTVP
 70
    64
  9
$PLIMCHECK
 70
     0
  9
$PEXTMIN
 10
1.0000000000000000E+20
 20
1.0000000000000000E+20
 30
1.0000000000000000E+20
  9
$PEXTMAX
 10
-1.0000000000000000E+20
 20
-1.0000000000000000E+20
 30
-1.0000000000000000E+20
  9
$PLIMMIN
 10
0.0
 20
0.0
  9
$PLIMMAX
 10
12.0
 20
9.0
  9
$UNITMODE
 70
     0
  9
$VISRETAIN
 70
     1
  9
$PLINEGEN
 70
     0
  9
$PSLTSCALE
 70
     1
  0
ENDSEC
  0
SECTION
  2
TABLES
  0
TABLE
  2
VPORT
 70
     1
  0
VPORT
  2
*ACTIVE
 70
     0
 10
0.0
 20
0.0
 11
1.0
 21
1.0
 12
542.8692271099625941
 22
79.4261722152261456
 13
0.0
 23
0.0
 14
1.0
 24
1.0
 15
0.0
 25
0.0
 16
0.0
 26
0.0
 36
17.1152628219792007
 17
3803.5440673828129547
 27
125.9952621967499056
 37
0.0
 40
4.58468252983306
 41
2.2831541218637992
 42
50.0
 43
0.0
 44
0.0
 50
0.0
 51
0.0
 71
     0
 72
   100
 73
     1
 74
     1
 75
     0
 76
     0
 77
     0
 78
     0
  0
ENDTAB
  0
TABLE
  2
LTYPE
 70
     2
  0
LTYPE
  2
CONTINUOUS
 70
     0
  3
Solid line
 72
    65
 73
     0
 40
0.0
  0
LTYPE
  2
PHANTOM2
 70
     0
  3
___ _ _ ___ _ _ ___ _ _ ___ _ _
 72
    65
 73
     6
 40
1.25
 49
0.625
 49
-0.125
 49
0.125
 49
-0.125
 49
0.125
 49
-0.125
  0
ENDTAB
  0
TABLE
  2
LAYER
 70
     2
  0
LAYER
  2
0
 70
     0
 62
   255
  6
CONTINUOUS
  0
LAYER
  2
DEFPOINTS
 70
     0
 62
     7
  6
CONTINUOUS
  0
ENDTAB
  0
TABLE
  2
STYLE
 70
     1
  0
STYLE
  2
STANDARD
 70
     0
 40
0.0
 41
0.8
 50
0.0
 71
     0
 42
0.2
  3
txt
  4

  0
ENDTAB
  0
TABLE
  2
VIEW
 70
     0
  0
ENDTAB
  0
TABLE
  2
UCS
 70
     0
  0
ENDTAB
  0
TABLE
  2
APPID
 70
     9
  0
APPID
  2
ACAD
 70
     0
  0
APPID
  2
ACAD_MLEADERVER
 70
     0
  0
APPID
  2
ACAD_EXEMPT_FROM_CAD_STANDARDS
 70
     0
  0
APPID
  2
ACAD_NAV_VCDISPLAY
 70
     0
  0
APPID
  2
ACAECLAYERSTANDARD
 70
     0
  0
APPID
  2
ACCMTRANSPARENCY
 70
     0
  0
APPID
  2
ACAD_DSTYLE_DIMJAG
 70
     0
  0
APPID
  2
ACAD_DSTYLE_DIMTALN
 70
     0
  0
APPID
  2
ACDBATTR
 70
     0
  0
ENDTAB
  0
TABLE
  2
DIMSTYLE
 70
     1
  0
DIMSTYLE
  2
STANDARD
 70
     0
  3

  4

  5

  6

  7

 40
1.0
 41
0.1875
 42
0.0625
 43
0.38
 44
0.125
 45
0.0
 46
0.0
 47
0.01
 48
0.01
140
0.15625
141
0.09
142
0.0
143
25.3999999999999986
144
1.0
145
0.0
146
1.0
147
0.09
 71
     1
 72
     0
 73
     1
 74
     1
 75
     0
 76
     0
 77
     0
 78
     4
170
     0
171
     2
172
     0
173
     0
174
     0
175
     0
176
     0
177
     0
178
     0
  0
ENDTAB
  0
ENDSEC
  0
SECTION
  2
BLOCKS
  0
BLOCK
  8
0
  2
$MODEL_SPACE
 70
     0
 10
0.0
 20
0.0
 30
0.0
  3
$MODEL_SPACE
  1

  0
ENDBLK
  5
21
  8
0
  0
BLOCK
 67
     1
  8
0
  2
$PAPER_SPACE
 70
     0
 10
0.0
 20
0.0
 30
0.0
  3
$PAPER_SPACE
  1

  0
ENDBLK
  5
1D
 67
     1
  8
0
  0
ENDSEC
  0
SECTION
  2
ENTITIES
  0
ATTDEF
  5
3930
  8
DEFPOINTS
 10
4346.4133194376909159
 20
205.825846490667999
 30
0.0
 40
0.001
  1
P21384-LV
  3

  2
MODELNUMBER
 70
     0
1001
ACDBATTR
1070
     0
1070
     1
  0
ATTDEF
  5
3931
  8
DEFPOINTS
 10
4346.4133194376909159
 20
205.8241798240013054
 30
0.0
 40
0.001
  1
CENTRAL PARK WEST
  3

  2
TRADENAME
 70
     0
1001
ACDBATTR
1070
     0
1070
     1
  0
ATTDEF
  5
3932
  8
DEFPOINTS
 10
4346.4133194376909159
 20
205.8225131573346971
 30
0.0
 40
0.001
  1
VALVE TRIM
  3

  2
PRODUCT
 70
     0
1001
ACDBATTR
1070
     0
1070
     1
  0
CIRCLE
  5
F6A3
  8
0
 10
4346.4132944927760036
 20
205.8224794119761896
 30
0.0
 40
0.3885000000000005
  0
ARC
  5
F6A4
  8
0
 10
4346.4132944927760036
 20
205.8224794119761896
 30
0.0
 40
0.4620000000000001
 50
128.4805304899809073
 51
135.5194695052626059
  0
ARC
  5
F6A5
  8
0
 10
4346.4132944927760036
 20
205.8224794119761896
 30
0.0
 40
0.4620000000000001
 50
140.4805304899832095
 51
147.5194695052898908
  0
ARC
  5
F6A6
  8
0
 10
4346.4132944927760036
 20
205.8224794119761896
 30
0.0
 40
0.4620000000000001
 50
152.4805304899838916
 51
159.5194695052676934
  0
ARC
  5
F6A7
  8
0
 10
4346.4132944927760036
 20
205.8224794119761896
 30
0.0
 40
0.4620000000000001
 50
164.4805304899788894
 51
171.5194695052778968
  0
ARC
  5
F6A8
  8
0
 10
4346.4132944927760036
 20
205.8224794119761896
 30
0.0
 40
0.4620000000000001
 50
176.4805304899782072
 51
183.5194695052759926
  0
ARC
  5
F6A9
  8
0
 10
4346.4132944927760036
 20
205.8224794119761896
 30
0.0
 40
0.4620000000000001
 50
188.4805304899803104
 51
195.5194695052821032
  0
ARC
  5
F6AA
  8
0
 10
4346.4132944927760036
 20
205.8224794119761896
 30
0.0
 40
0.4620000000000001
 50
200.4805304899857106
 51
207.5194695052730083
  0
ARC
  5
F6AB
  8
0
 10
4346.4132944927760036
 20
205.8224794119761896
 30
0.0
 40
0.4620000000000001
 50
212.4805304899902012
 51
219.5194695052709051
  0
ARC
  5
F6AC
  8
0
 10
4346.4132944927760036
 20
205.8224794119761896
 30
0.0
 40
0.4620000000000001
 50
224.4805304899851137
 51
231.5194695052855991
  0
ARC
  5
F6AD
  8
0
 10
4346.4132944927760036
 20
205.8224794119761896
 30
0.0
 40
0.4620000000000001
 50
308.4805304899809926
 51
315.5194695052625775
  0
ARC
  5
F6AE
  8
0
 10
4346.4132944927760036
 20
205.8224794119761896
 30
0.0
 40
0.4620000000000001
 50
320.4805304899830958
 51
327.5194695052620091
  0
ARC
  5
F6AF
  8
0
 10
4346.4132944927760036
 20
205.8224794119761896
 30
0.0
 40
0.4620000000000001
 50
332.4805304899840053
 51
339.5194695052676934
  0
ARC
  5
F6B0
  8
0
 10
4346.4132944927760036
 20
205.8224794119761896
 30
0.0
 40
0.4620000000000001
 50
344.4805304899788894
 51
351.5194695052779821
  0
ARC
  5
F6B1
  8
0
 10
4346.4132944927760036
 20
205.8224794119761896
 30
0.0
 40
0.4620000000000001
 50
356.4805304899782072
 51
3.5194695052759979
  0
ARC
  5
F6B2
  8
0
 10
4346.4132944927760036
 20
205.8224794119761896
 30
0.0
 40
0.4620000000000001
 50
8.4805304899803016
 51
15.5194695052820908
  0
ARC
  5
F6B3
  8
0
 10
4346.4132944927760036
 20
205.8224794119761896
 30
0.0
 40
0.4620000000000001
 50
20.4805304899857283
 51
27.5194695052730296
  0
ARC
  5
F6B4
  8
0
 10
4346.4132944927760036
 20
205.8224794119761896
 30
0.0
 40
0.4620000000000001
 50
32.4805304899902225
 51
39.5194695052709122
  0
ARC
  5
F6B5
  8
0
 10
4346.4132944927760036
 20
205.8224794119761896
 30
0.0
 40
0.4620000000000001
 50
44.4805304899862008
 51
51.5194695052856275
  0
ARC
  5
F6B6
  8
0
 10
4346.069961583474651
 20
206.1316177520760959
 30
0.0
 40
0.0200000000000002
 50
229.2402650212013953
 51
46.7597349740533872
  0
ARC
  5
F6B7
  8
0
 10
4346.0131907563036293
 20
206.0534794119537878
 30
0.0
 40
0.0200000000000002
 50
241.2402650212229105
 51
58.7597349740456281
  0
ARC
  5
F6B8
  8
0
 10
4345.9739063823271863
 20
205.9652452633714859
 30
0.0
 40
0.0200000000000002
 50
253.2402650211801927
 51
70.7597349740386932
  0
ARC
  5
F6B9
  8
0
 10
4345.9538253771943346
 20
205.8707715620166994
 30
0.0
 40
0.0200000000000002
 50
265.2402650212197273
 51
82.7597349740338188
  0
ARC
  5
F6BA
  8
0
 10
4345.9538253771906966
 20
205.7741872619735943
 30
0.0
 40
0.0200000000000002
 50
277.2402650211867012
 51
94.7597349740739645
  0
ARC
  5
F6BB
  8
0
 10
4345.9739063823153629
 20
205.6797135606171025
 30
0.0
 40
0.0200000000000002
 50
289.2402650212150093
 51
106.7597349740340036
  0
ARC
  5
F6BC
  8
0
 10
4346.0131907562836204
 20
205.5914794120315037
 30
0.0
 40
0.0200000000000002
 50
301.2402650212030153
 51
118.7597349740698007
  0
ARC
  5
F6BD
  8
0
 10
4346.0699615834500946
 20
205.513341071904506
 30
0.0
 40
0.0200000000000002
 50
313.240265021214384
 51
130.7597349740528898
  0
ARC
  5
F6BE
  8
0
 10
4346.1417377062462037
 20
205.4487135606489971
 30
0.0
 40
0.0200000000000002
 50
101.3709718479960031
 51
142.7597349740456991
  0
ARC
  5
F6BF
  8
0
 10
4346.6848512792730617
 20
205.4487135606264872
 30
0.0
 40
0.0200000000000003
 50
37.2402650212121884
 51
78.6290280615376389
  0
ARC
  5
F6C0
  8
0
 10
4346.7566274020746278
 20
205.5133410718761127
 30
0.0
 40
0.0200000000000003
 50
49.2402650212014024
 51
226.7597349740534014
  0
ARC
  5
F6C1
  8
0
 10
4346.8133982292456494
 20
205.5914794119983924
 30
0.0
 40
0.0200000000000003
 50
61.2402650212228394
 51
238.7597349740456991
  0
ARC
  5
F6C2
  8
0
 10
4346.8526826032230019
 20
205.6797135605806943
 30
0.0
 40
0.0200000000000003
 50
73.2402650211806474
 51
250.7597349740387074
  0
ARC
  5
F6C3
  8
0
 10
4346.8727636083549442
 20
205.7741872619355092
 30
0.0
 40
0.0200000000000003
 50
85.2402650212197557
 51
262.7597349740337904
  0
ARC
  5
F6C4
  8
0
 10
4346.8727636083604011
 20
205.8707715619786995
 30
0.0
 40
0.0200000000000003
 50
97.2402650211866444
 51
274.7597349740739787
  0
ARC
  5
F6C5
  8
0
 10
4346.8526826032357349
 20
205.9652452633351061
 30
0.0
 40
0.0200000000000003
 50
109.240265021214995
 51
286.7597349740340178
  0
ARC
  5
F6C6
  8
0
 10
4346.8133982292647488
 20
206.0534794119207049
 30
0.0
 40
0.0200000000000003
 50
121.2402650212030011
 51
298.7597349740697723
  0
ARC
  5
F6C7
  8
0
 10
4346.7566274021010031
 20
206.1316177520477027
 30
0.0
 40
0.0200000000000003
 50
133.2402650212144124
 51
310.7597349740528898
  0
ARC
  5
F6C8
  8
0
 10
4346.6848512793039845
 20
206.1962452633032115
 30
0.0
 40
0.0200000000000003
 50
281.3709718479963726
 51
322.7597349740457275
  0
ARC
  5
F6C9
  8
0
 10
4346.1417377062771266
 20
206.196245263325693
 30
0.0
 40
0.0200000000000004
 50
217.2402650212121955
 51
258.6290280615378947
  0
LINE
  5
F6CA
  8
0
 10
4346.6887944927748322
 20
206.708389411560006
 30
0.0
 11
4346.6887944927748322
 21
206.0963991082375912
 31
0.0
  0
LINE
  5
F6CB
  8
0
 10
4346.6887944927748322
 20
205.5485597157145889
 30
0.0
 11
4346.6887944927748322
 21
203.1653894119760935
 31
0.0
  0
LINE
  5
F6CC
  8
0
 10
4346.1385204455764324
 20
205.2089272402465099
 30
0.0
 11
4346.1385204455764324
 21
203.1653894119760935
 31
0.0
  0
LINE
  5
F6CD
  8
0
 10
4346.6732944927753124
 20
203.1453894119761117
 30
0.0
 11
4346.1532944927748758
 21
203.1453894119761117
 31
0.0
  0
LINE
  5
F6CE
  8
0
 10
4346.6862195613757649
 20
205.1722370196198995
 30
0.0
 11
4346.6862195613757649
 21
203.1653894018544122
 31
0.0
  0
LINE
  5
F6CF
  8
0
 10
4346.6779085740754454
 20
205.1582195933677042
 30
0.0
 11
4346.6779085740754454
 21
203.1648784776008938
 31
0.0
  0
LINE
  5
F6D0
  8
0
 10
4346.6473393248752473
 20
205.1815471364668895
 30
0.0
 11
4346.6473393248752473
 21
203.1653894119760935
 31
0.0
  0
LINE
  5
F6D1
  8
0
 10
4346.623843408175162
 20
205.1798019094626966
 30
0.0
 11
4346.623843408175162
 21
203.1653894119760082
 31
0.0
  0
LINE
  5
F6D2
  8
0
 10
4346.5679906105760892
 20
205.1779257241501
 30
0.0
 11
4346.5679906105760892
 21
203.1649131538009101
 31
0.0
  0
LINE
  5
F6D3
  8
0
 10
4346.5333724220754448
 20
205.1779257291669012
 30
0.0
 11
4346.5333724220754448
 21
203.1653894119760935
 31
0.0
  0
LINE
  5
F6D4
  8
0
 10
4346.4618935321750541
 20
205.1764815372696944
 30
0.0
 11
4346.4618935321750541
 21
203.165389411977003
 31
0.0
  0
LINE
  5
F6D5
  8
0
 10
4346.4221388710748215
 20
205.1764815372696944
 30
0.0
 11
4346.4221388710748215
 21
203.1653894112631917
 31
0.0
  0
ARC
  5
F6D6
  8
0
 10
4344.0226764272501896
 20
205.16393086613121
 30
0.0
 40
2.663556085298008
 50
0.1786740338842707
 51
2.8717174080592431
  0
ARC
  5
F6D7
  8
0
 10
4348.6612178904515531
 20
205.1569221624253032
 30
0.0
 40
1.983309740750212
 50
175.9390664802641027
 51
179.9625185511945062
  0
ARC
  5
F6D8
  8
0
 10
4345.9392951849358724
 20
205.1717963255890993
 30
0.0
 40
0.7081112782711866
 50
0.7889974142538857
 51
10.2150324321471295
  0
ARC
  5
F6D9
  8
0
 10
4347.2747784501780188
 20
205.1709225370613012
 30
0.0
 40
0.6509956007231722
 50
168.7994055413689978
 51
179.2184796044400912
  0
ARC
  5
F6DA
  8
0
 10
4346.0992802591326836
 20
205.1709846952973919
 30
0.0
 40
0.46876174271208
 50
0.8484186237368225
 51
15.64199028339549
  0
ARC
  5
F6DB
  8
0
 10
4347.0020827734433624
 20
205.1709846952973919
 30
0.0
 40
0.46876174271208
 50
164.3580097166044993
 51
179.151580762997412
  0
ARC
  5
F6DC
  8
0
 10
4346.0533865966599478
 20
205.1713954486887133
 30
0.0
 40
0.4085385962919077
 50
0.7133204566168632
 51
17.9607870042214586
  0
ARC
  5
F6DD
  8
0
 10
4346.8306458070892404
 20
205.1713954485711042
 30
0.0
 40
0.4085385967934255
 50
162.0392130012328096
 51
179.2866795277633116
  0
ARC
  5
F6DE
  8
0
 10
4346.6687944927753051
 20
203.1653894119760935
 30
0.0
 40
0.0200000000000005
 50
270.0
 51
359.9999999999968168
  0
ARC
  5
F6DF
  8
0
 10
4346.6661768938884052
 20
203.1654243405959051
 30
0.0
 40
0.0200426979396476
 50
271.5953834082940261
 51
359.900121059275989
  0
ARC
  5
F6E0
  8
0
 10
4346.6574405541377928
 20
203.1651339451339879
 30
0.0
 40
0.0204696141577849
 50
285.2955975483541238
 51
359.2849112181518763
  0
ARC
  5
F6E1
  8
0
 10
4346.6256700924986944
 20
203.1669231434877929
 30
0.0
 40
0.0217234427323317
 50
277.5776820424550806
 51
355.9514007767087946
  0
ARC
  5
F6E2
  8
0
 10
4346.5970518604035533
 20
203.165778604392699
 30
0.0
 40
0.0267943744597213
 50
310.4519370749533209
 51
359.1677407096321986
  0
ARC
  5
F6E3
  8
0
 10
4346.5474277473467737
 20
203.1651512819505001
 30
0.0
 40
0.0205642420021944
 50
286.0580009996090212
 51
359.3365161289999037
  0
ARC
  5
F6E4
  8
0
 10
4346.4813216994625691
 20
203.1669954683655135
 30
0.0
 40
0.0520754946356884
 50
341.6089660905332721
 51
358.2326649537562275
  0
ARC
  5
F6E5
  8
0
 10
4346.5344804616106558
 20
203.1493211405870909
 30
0.0
 40
0.0039444648030117
 50
161.6089658905823967
 51
265.3944626008329237
  0
ARC
  5
F6E6
  8
0
 10
4346.4415476281983501
 20
203.1654591240749141
 30
0.0
 40
0.0203460234055779
 50
279.4534409455554282
 51
359.8036856255430962
  0
LINE
  5
F6E7
  8
0
 10
4346.4221388710748215
 20
203.1653894112631917
 30
0.0
 11
4346.421806885496153
 21
203.153887726376098
 31
0.0
  0
ARC
  5
F6E8
  8
0
 10
4346.4314721642804216
 20
203.153012525269105
 30
0.0
 40
0.0097048230773271
 50
174.8259180405428026
 51
231.7667050922217129
  0
LINE
  5
F6E9
  8
0
 10
4346.1541465377749773
 20
205.2024713904687871
 30
0.0
 11
4346.1541465377749773
 21
203.1653894119760935
 31
0.0
  0
LINE
  5
F6EA
  8
0
 10
4346.1704052822751692
 20
205.2007261634645943
 30
0.0
 11
4346.1704052822751692
 21
203.1653894119760082
 31
0.0
  0
LINE
  5
F6EB
  8
0
 10
4346.2145816656757233
 20
205.1870505219208951
 30
0.0
 11
4346.2145816656757233
 21
203.1649131538009101
 31
0.0
  0
LINE
  5
F6EC
  8
0
 10
4346.2442878701749578
 20
205.18705052693781
 30
0.0
 11
4346.2442878701749578
 21
203.1653894119760935
 31
0.0
  0
LINE
  5
F6ED
  8
0
 10
4346.3093760466754247
 20
205.1791936561373006
 30
0.0
 11
4346.3093760466754247
 21
203.1653894119762072
 31
0.0
  0
LINE
  5
F6EE
  8
0
 10
4346.3473932383740248
 20
205.1791936561373006
 30
0.0
 11
4346.3473932383740248
 21
203.1653894112631917
 31
0.0
  0
ARC
  5
F6EF
  8
0
 10
4346.8621906777143522
 20
205.192720579590997
 30
0.0
 40
0.7081112782711866
 50
171.5009179168912112
 51
179.2110025857460869
  0
ARC
  5
F6F0
  8
0
 10
4345.5194702402732219
 20
205.1918467910631989
 30
0.0
 40
0.6509956007231722
 50
0.7815203955598219
 51
9.3289597912575797
  0
ARC
  5
F6F1
  8
0
 10
4346.68329201711731
 20
205.1801094930683007
 30
0.0
 40
0.46876174271208
 50
165.5130271892869018
 51
179.1515813762632092
  0
ARC
  5
F6F2
  8
0
 10
4345.7755775188079497
 20
205.1801094930683007
 30
0.0
 40
0.46876174271208
 50
0.8484192370025848
 51
14.4869728107130893
  0
ARC
  5
F6F3
  8
0
 10
4346.717882982188712
 20
205.1741075675562911
 30
0.0
 40
0.4085385962919077
 50
162.4386134709235137
 51
179.2866795433830873
  0
ARC
  5
F6F4
  8
0
 10
4345.9388863023614249
 20
205.1741075674387105
 30
0.0
 40
0.4085385967934255
 50
0.7133204722366542
 51
17.5613865241292189
  0
ARC
  5
F6F5
  8
0
 10
4346.15852044557505
 20
203.1653894119760935
 30
0.0
 40
0.0200000000000005
 50
180.0000000000015916
 51
270.0
  0
ARC
  5
F6F6
  8
0
 10
4346.1758157701524397
 20
203.1669231434877929
 30
0.0
 40
0.0217234427323317
 50
184.0485992232895001
 51
262.4223179575448057
  0
ARC
  5
F6F7
  8
0
 10
4346.1971968300458684
 20
203.165778604392699
 30
0.0
 40
0.0267943744597213
 50
180.8322592903678014
 51
229.5480629250465938
  0
ARC
  5
F6F8
  8
0
 10
4346.2351445289023104
 20
203.1651512819505001
 30
0.0
 40
0.0205642420021944
 50
180.6634838710000963
 51
253.9419990003910073
  0
ARC
  5
F6F9
  8
0
 10
4346.296338592786924
 20
203.1669954683655135
 30
0.0
 40
0.0520754946356884
 50
181.7673350462436872
 51
198.3910339094651079
  0
ARC
  5
F6FA
  8
0
 10
4346.2431798306388373
 20
203.1493211405870909
 30
0.0
 40
0.0039444648030117
 50
274.6055373991670194
 51
18.3910341094176317
  0
ARC
  5
F6FB
  8
0
 10
4346.3297219506521287
 20
203.1654591240749141
 30
0.0
 40
0.0203460234055779
 50
180.1963143744567901
 51
260.5465590544445718
  0
LINE
  5
F6FC
  8
0
 10
4346.3473932383740248
 20
203.1653894112631917
 30
0.0
 11
4346.3477252239554218
 21
203.153887726376098
 31
0.0
  0
ARC
  5
F6FD
  8
0
 10
4346.3380599451702437
 20
203.153012525269105
 30
0.0
 40
0.0097048230773271
 50
308.2332949077783155
 51
5.1740819594571814
  0
ARC
  5
F6FE
  8
0
 10
4346.4132944927760036
 20
205.8224794119761896
 30
0.0
 40
0.9000000000000004
 50
287.8250234986501255
 51
72.1749765013499598
  0
ARC
  5
F6FF
  8
0
 10
4346.4132944927760036
 20
205.8224794119761896
 30
0.0
 40
0.9000000000000004
 50
107.8250234986499976
 51
252.2235158990004038
  0
ARC
  5
F700
  8
0
 10
4338.2175842462656874
 20
205.1881583261111928
 30
0.0
 40
7.9209634275958507
 50
0.1502307767751867
 51
0.7901358565946754
  0
LINE
  5
F701
  8
0
 10
4346.137794492775356
 20
205.2973886900761045
 30
0.0
 11
4346.137794492775356
 21
205.5485597157145889
 31
0.0
  0
LINE
  5
F702
  8
0
 10
4346.137794492775356
 20
206.0963991082375912
 30
0.0
 11
4346.137794492775356
 21
206.708389411560006
 31
0.0
  0
LINE
  5
F703
  8
0
 10
4346.1577896418766613
 20
206.7283894119761101
 30
0.0
 11
4346.6687993436726174
 21
206.7283894119761101
 31
0.0
  0
ARC
  5
F704
  8
0
 10
4346.1577944937789653
 20
206.708389411560006
 30
0.0
 40
0.0200000010046653
 50
90.0138996758985854
 51
180.0000000000260059
  0
ARC
  5
F705
  8
0
 10
4346.6687944917703135
 20
206.708389411560006
 30
0.0
 40
0.0200000010046679
 50
359.9999999999852776
 51
89.9861003241014146
  0
ARC
  5
F706
  8
0
 10
4346.4132944927760036
 20
205.8224794119761896
 30
0.0
 40
0.6200000000000001
 50
116.382068920540604
 51
243.6552740836428086
  0
ARC
  5
F707
  8
0
 10
4346.4132944927760036
 20
205.8224794119761896
 30
0.0
 40
0.6200000000000001
 50
296.3820689205405756
 51
63.6179310794593533
  0
ARC
  5
F709
  8
0
 10
4346.4132944927760036
 20
205.8224794119761896
 30
0.0
 40
1.875
 50
278.4492503138300208
 51
261.573175930907496
  0
ENDSEC
  0
EOF
