  0
SECTION
  2
HEADER
  9
$ACADVER
  1
AC1009
  9
$INSBASE
 10
4341.7003976820678872
 20
207.5104314567539063
 30
0.0
  9
$EXTMIN
 10
4338.5004453526316865
 20
204.3760962029593031
 30
-0.0000000000112498
  9
$EXTMAX
 10
4345.1162267507297656
 20
210.6374418774882997
 30
0.0000000000002956
  9
$LIMMIN
 10
0.0
 20
0.0
  9
$LIMMAX
 10
11.6929133858000007
 20
8.2677165353999982
  9
$ORTHOMODE
 70
     0
  9
$REGENMODE
 70
     1
  9
$FILLMODE
 70
     1
  9
$QTEXTMODE
 70
     0
  9
$MIRRTEXT
 70
     0
  9
$DRAGMODE
 70
     2
  9
$LTSCALE
 40
0.6431102362
  9
$OSMODE
 70
     7
  9
$ATTMODE
 70
     1
  9
$TEXTSIZE
 40
0.2
  9
$TRACEWID
 40
0.05
  9
$TEXTSTYLE
  7
STANDARD
  9
$CLAYER
  8
0
  9
$CELTYPE
  6
BYLAYER
  9
$CECOLOR
 62
   256
  9
$DIMSCALE
 40
1.0
  9
$DIMASZ
 40
0.1875
  9
$DIMEXO
 40
0.0625
  9
$DIMDLI
 40
0.4443307087
  9
$DIMRND
 40
0.0
  9
$DIMDLE
 40
0.0
  9
$DIMEXE
 40
0.125
  9
$DIMTP
 40
0.01
  9
$DIMTM
 40
0.01
  9
$DIMTXT
 40
2.0
  9
$DIMCEN
 40
0.1052362205
  9
$DIMTSZ
 40
0.0
  9
$DIMTOL
 70
     1
  9
$DIMLIM
 70
     0
  9
$DIMTIH
 70
     1
  9
$DIMTOH
 70
     1
  9
$DIMSE1
 70
     0
  9
$DIMSE2
 70
     0
  9
$DIMTAD
 70
     0
  9
$DIMZIN
 70
     0
  9
$DIMBLK
  1

  9
$DIMASO
 70
     1
  9
$DIMSHO
 70
     1
  9
$DIMPOST
  1
\X
  9
$DIMAPOST
  1

  9
$DIMALT
 70
     1
  9
$DIMALTD
 70
     2
  9
$DIMALTF
 40
25.3999999999999986
  9
$DIMLFAC
 40
1.0
  9
$DIMTOFL
 70
     0
  9
$DIMTVP
 40
0.0
  9
$DIMTIX
 70
     0
  9
$DIMSOXD
 70
     0
  9
$DIMSAH
 70
     0
  9
$DIMBLK1
  1

  9
$DIMBLK2
  1

  9
$DIMSTYLE
  2
STANDARD
  9
$DIMCLRD
 70
     0
  9
$DIMCLRE
 70
     0
  9
$DIMCLRT
 70
     0
  9
$DIMTFAC
 40
1.0
  9
$DIMGAP
 40
0.09
  9
$LUNITS
 70
     2
  9
$LUPREC
 70
     4
  9
$SKETCHINC
 40
0.1
  9
$FILLETRAD
 40
0.0
  9
$AUNITS
 70
     0
  9
$AUPREC
 70
     0
  9
$MENU
  1
.
  9
$ELEVATION
 40
0.0
  9
$PELEVATION
 40
0.0
  9
$THICKNESS
 40
0.0
  9
$LIMCHECK
 70
     0
  9
$BLIPMODE
 70
     0
  9
$CHAMFERA
 40
0.0
  9
$CHAMFERB
 40
0.0
  9
$SKPOLY
 70
     0
  9
$TDCREATE
 40
2458060.468368056230247
  9
$TDUPDATE
 40
2459580.022997684776783
  9
$TDINDWG
 40
0.4532825231
  9
$TDUSRTIMER
 40
0.4532825231
  9
$USRTIMER
 70
     1
  9
$ANGBASE
 50
0.0
  9
$ANGDIR
 70
     0
  9
$PDMODE
 70
     0
  9
$PDSIZE
 40
0.3125
  9
$PLINEWID
 40
0.0
  9
$COORDS
 70
     1
  9
$SPLFRAME
 70
     0
  9
$SPLINETYPE
 70
     6
  9
$SPLINESEGS
 70
     8
  9
$ATTDIA
 70
     1
  9
$ATTREQ
 70
     1
  9
$HANDLING
 70
     1
  9
$HANDSEED
  5
F677
  9
$SURFTAB1
 70
     6
  9
$SURFTAB2
 70
     6
  9
$SURFTYPE
 70
     6
  9
$SURFU
 70
     6
  9
$SURFV
 70
     6
  9
$UCSNAME
  2

  9
$UCSORG
 10
0.0
 20
0.0
 30
0.0
  9
$UCSXDIR
 10
1.0
 20
0.0
 30
0.0
  9
$UCSYDIR
 10
0.0
 20
1.0
 30
0.0
  9
$PUCSNAME
  2

  9
$PUCSORG
 10
0.0
 20
0.0
 30
0.0
  9
$PUCSXDIR
 10
1.0
 20
0.0
 30
0.0
  9
$PUCSYDIR
 10
0.0
 20
1.0
 30
0.0
  9
$USERI1
 70
     0
  9
$USERI2
 70
     0
  9
$USERI3
 70
     0
  9
$USERI4
 70
     0
  9
$USERI5
 70
     0
  9
$USERR1
 40
0.0
  9
$USERR2
 40
0.0
  9
$USERR3
 40
0.0
  9
$USERR4
 40
0.0
  9
$USERR5
 40
0.0
  9
$WORLDVIEW
 70
     1
  9
$SHADEDGE
 70
     3
  9
$SHADEDIF
 70
    70
  9
$TILEMODE
 70
     1
  9
$MAXACTVP
 70
    64
  9
$PLIMCHECK
 70
     0
  9
$PEXTMIN
 10
1.0000000000000000E+20
 20
1.0000000000000000E+20
 30
1.0000000000000000E+20
  9
$PEXTMAX
 10
-1.0000000000000000E+20
 20
-1.0000000000000000E+20
 30
-1.0000000000000000E+20
  9
$PLIMMIN
 10
0.0
 20
0.0
  9
$PLIMMAX
 10
12.0
 20
9.0
  9
$UNITMODE
 70
     0
  9
$VISRETAIN
 70
     1
  9
$PLINEGEN
 70
     0
  9
$PSLTSCALE
 70
     1
  0
ENDSEC
  0
SECTION
  2
TABLES
  0
TABLE
  2
VPORT
 70
     1
  0
VPORT
  2
*ACTIVE
 70
     0
 10
0.0
 20
0.0
 11
1.0
 21
1.0
 12
538.2642686688685671
 22
81.5115068434738674
 13
0.0
 23
0.0
 14
1.0
 24
1.0
 15
0.0
 25
0.0
 16
0.0
 26
0.0
 36
17.1152628219792007
 17
3803.5440673828129547
 27
125.9952621967499056
 37
0.0
 40
6.306176311816813
 41
2.2831541218637992
 42
50.0
 43
0.0
 44
0.0
 50
0.0
 51
0.0
 71
     0
 72
   100
 73
     1
 74
     1
 75
     0
 76
     0
 77
     0
 78
     0
  0
ENDTAB
  0
TABLE
  2
LTYPE
 70
     2
  0
LTYPE
  2
CONTINUOUS
 70
     0
  3
Solid line
 72
    65
 73
     0
 40
0.0
  0
LTYPE
  2
PHANTOM2
 70
     0
  3
___ _ _ ___ _ _ ___ _ _ ___ _ _
 72
    65
 73
     6
 40
1.25
 49
0.625
 49
-0.125
 49
0.125
 49
-0.125
 49
0.125
 49
-0.125
  0
ENDTAB
  0
TABLE
  2
LAYER
 70
     2
  0
LAYER
  2
0
 70
     0
 62
   255
  6
CONTINUOUS
  0
LAYER
  2
DEFPOINTS
 70
     0
 62
     7
  6
CONTINUOUS
  0
ENDTAB
  0
TABLE
  2
STYLE
 70
     1
  0
STYLE
  2
STANDARD
 70
     0
 40
0.0
 41
0.8
 50
0.0
 71
     0
 42
0.2
  3
txt
  4

  0
ENDTAB
  0
TABLE
  2
VIEW
 70
     0
  0
ENDTAB
  0
TABLE
  2
UCS
 70
     0
  0
ENDTAB
  0
TABLE
  2
APPID
 70
     9
  0
APPID
  2
ACAD
 70
     0
  0
APPID
  2
ACAD_MLEADERVER
 70
     0
  0
APPID
  2
ACAD_EXEMPT_FROM_CAD_STANDARDS
 70
     0
  0
APPID
  2
ACAD_NAV_VCDISPLAY
 70
     0
  0
APPID
  2
ACAECLAYERSTANDARD
 70
     0
  0
APPID
  2
ACCMTRANSPARENCY
 70
     0
  0
APPID
  2
ACAD_DSTYLE_DIMJAG
 70
     0
  0
APPID
  2
ACAD_DSTYLE_DIMTALN
 70
     0
  0
APPID
  2
ACDBATTR
 70
     0
  0
ENDTAB
  0
TABLE
  2
DIMSTYLE
 70
     1
  0
DIMSTYLE
  2
STANDARD
 70
     0
  3

  4

  5

  6

  7

 40
1.0
 41
0.1875
 42
0.0625
 43
0.38
 44
0.125
 45
0.0
 46
0.0
 47
0.01
 48
0.01
140
0.15625
141
0.09
142
0.0
143
25.3999999999999986
144
1.0
145
0.0
146
1.0
147
0.09
 71
     1
 72
     0
 73
     1
 74
     1
 75
     0
 76
     0
 77
     0
 78
     4
170
     0
171
     2
172
     0
173
     0
174
     0
175
     0
176
     0
177
     0
178
     0
  0
ENDTAB
  0
ENDSEC
  0
SECTION
  2
BLOCKS
  0
BLOCK
  8
0
  2
$MODEL_SPACE
 70
     0
 10
0.0
 20
0.0
 30
0.0
  3
$MODEL_SPACE
  1

  0
ENDBLK
  5
21
  8
0
  0
BLOCK
 67
     1
  8
0
  2
$PAPER_SPACE
 70
     0
 10
0.0
 20
0.0
 30
0.0
  3
$PAPER_SPACE
  1

  0
ENDBLK
  5
1D
 67
     1
  8
0
  0
ENDSEC
  0
SECTION
  2
ENTITIES
  0
ATTDEF
  5
3930
  8
DEFPOINTS
 10
4341.7004226269837091
 20
207.513798535445801
 30
0.0
 40
0.001
  1
P21383-LV
  3

  2
MODELNUMBER
 70
     0
1001
ACDBATTR
1070
     0
1070
     1
  0
ATTDEF
  5
3931
  8
DEFPOINTS
 10
4341.7004226269837091
 20
207.5121318687791074
 30
0.0
 40
0.001
  1
CENTRAL PARK WEST
  3

  2
TRADENAME
 70
     0
1001
ACDBATTR
1070
     0
1070
     1
  0
ATTDEF
  5
3932
  8
DEFPOINTS
 10
4341.7004226269837091
 20
207.5104652021124991
 30
0.0
 40
0.001
  1
VALVE TRIM
  3

  2
PRODUCT
 70
     0
1001
ACDBATTR
1070
     0
1070
     1
  0
CIRCLE
  5
F548
  8
0
 10
4341.7003976820678872
 20
207.5104314567539063
 30
0.0
 40
0.3885000000000005
  0
ARC
  5
F549
  8
0
 10
4341.7003976820678872
 20
207.5104314567539063
 30
0.0
 40
0.4620000000000001
 50
128.4805304899809073
 51
135.5194695052626059
  0
ARC
  5
F54A
  8
0
 10
4341.7003976820678872
 20
207.5104314567539063
 30
0.0
 40
0.4620000000000001
 50
140.4805304899832095
 51
147.5194695052898908
  0
ARC
  5
F54B
  8
0
 10
4341.7003976820678872
 20
207.5104314567539063
 30
0.0
 40
0.4620000000000001
 50
152.4805304899838916
 51
159.5194695052676934
  0
ARC
  5
F54C
  8
0
 10
4341.7003976820678872
 20
207.5104314567539063
 30
0.0
 40
0.4620000000000001
 50
164.4805304899788894
 51
171.5194695052778968
  0
ARC
  5
F54D
  8
0
 10
4341.7003976820678872
 20
207.5104314567539063
 30
0.0
 40
0.4620000000000001
 50
176.4805304899782072
 51
183.5194695052759926
  0
ARC
  5
F54E
  8
0
 10
4341.7003976820678872
 20
207.5104314567539063
 30
0.0
 40
0.4620000000000001
 50
188.4805304899803104
 51
195.5194695052821032
  0
ARC
  5
F54F
  8
0
 10
4341.7003976820678872
 20
207.5104314567539063
 30
0.0
 40
0.4620000000000001
 50
200.4805304899857106
 51
207.5194695052730083
  0
ARC
  5
F550
  8
0
 10
4341.7003976820678872
 20
207.5104314567539063
 30
0.0
 40
0.4620000000000001
 50
212.4805304899902012
 51
219.5194695052709051
  0
ARC
  5
F551
  8
0
 10
4341.7003976820678872
 20
207.5104314567539063
 30
0.0
 40
0.4620000000000001
 50
224.4805304899851137
 51
231.5194695052855991
  0
ARC
  5
F552
  8
0
 10
4341.7003976820678872
 20
207.5104314567539063
 30
0.0
 40
0.4620000000000001
 50
308.4805304899809926
 51
315.5194695052625775
  0
ARC
  5
F553
  8
0
 10
4341.7003976820678872
 20
207.5104314567539063
 30
0.0
 40
0.4620000000000001
 50
320.4805304899830958
 51
327.5194695052620091
  0
ARC
  5
F554
  8
0
 10
4341.7003976820678872
 20
207.5104314567539063
 30
0.0
 40
0.4620000000000001
 50
332.4805304899840053
 51
339.5194695052676934
  0
ARC
  5
F555
  8
0
 10
4341.7003976820678872
 20
207.5104314567539063
 30
0.0
 40
0.4620000000000001
 50
344.4805304899788894
 51
351.5194695052779821
  0
ARC
  5
F556
  8
0
 10
4341.7003976820678872
 20
207.5104314567539063
 30
0.0
 40
0.4620000000000001
 50
356.4805304899782072
 51
3.5194695052759979
  0
ARC
  5
F557
  8
0
 10
4341.7003976820678872
 20
207.5104314567539063
 30
0.0
 40
0.4620000000000001
 50
8.4805304899803016
 51
15.5194695052820908
  0
ARC
  5
F558
  8
0
 10
4341.7003976820678872
 20
207.5104314567539063
 30
0.0
 40
0.4620000000000001
 50
20.4805304899857283
 51
27.5194695052730296
  0
ARC
  5
F559
  8
0
 10
4341.7003976820678872
 20
207.5104314567539063
 30
0.0
 40
0.4620000000000001
 50
32.4805304899902225
 51
39.5194695052709122
  0
ARC
  5
F55A
  8
0
 10
4341.7003976820678872
 20
207.5104314567539063
 30
0.0
 40
0.4620000000000001
 50
44.4805304899850498
 51
51.5194695052856275
  0
ARC
  5
F55B
  8
0
 10
4341.3570647727692631
 20
207.819569796853898
 30
0.0
 40
0.0200000000000002
 50
229.2402650212013953
 51
46.7597349740533872
  0
ARC
  5
F55C
  8
0
 10
4341.3002939455973319
 20
207.7414314567315898
 30
0.0
 40
0.0200000000000002
 50
241.2402650212229105
 51
58.7597349740456281
  0
ARC
  5
F55D
  8
0
 10
4341.2610095716199794
 20
207.6531973081492879
 30
0.0
 40
0.0200000000000002
 50
253.2402650211801927
 51
70.7597349740386932
  0
ARC
  5
F55E
  8
0
 10
4341.2409285664871277
 20
207.5587236067945014
 30
0.0
 40
0.0200000000000002
 50
265.2402650212197273
 51
82.7597349740338188
  0
ARC
  5
F55F
  8
0
 10
4341.2409285664843992
 20
207.4621393067513964
 30
0.0
 40
0.0200000000000002
 50
277.2402650211867012
 51
94.7597349740739645
  0
ARC
  5
F560
  8
0
 10
4341.261009571608156
 20
207.3676656053949046
 30
0.0
 40
0.0200000000000002
 50
289.2402650212150093
 51
106.7597349740340036
  0
ARC
  5
F561
  8
0
 10
4341.3002939455782325
 20
207.279431456809391
 30
0.0
 40
0.0200000000000002
 50
301.2402650212030153
 51
118.7597349740698007
  0
ARC
  5
F562
  8
0
 10
4341.3570647727428877
 20
207.2012931166823932
 30
0.0
 40
0.0200000000000002
 50
313.240265021214384
 51
130.7597349740528898
  0
ARC
  5
F563
  8
0
 10
4341.4288408955399063
 20
207.1366656054267992
 30
0.0
 40
0.0200000000000002
 50
101.3709718479960031
 51
142.7597349740456991
  0
ARC
  5
F564
  8
0
 10
4341.9719544685667643
 20
207.1366656054042892
 30
0.0
 40
0.0200000000000003
 50
37.2402650212121884
 51
78.6290280615376389
  0
ARC
  5
F565
  8
0
 10
4342.0437305913692398
 20
207.2012931166538863
 30
0.0
 40
0.0200000000000003
 50
49.2402650212014024
 51
226.7597349740534014
  0
ARC
  5
F566
  8
0
 10
4342.1005014185402615
 20
207.2794314567761944
 30
0.0
 40
0.0200000000000003
 50
61.2402650212228394
 51
238.7597349740456991
  0
ARC
  5
F567
  8
0
 10
4342.1397857925167045
 20
207.3676656053584964
 30
0.0
 40
0.0200000000000003
 50
73.2402650211806474
 51
250.7597349740387074
  0
ARC
  5
F568
  8
0
 10
4342.1598667976495562
 20
207.4621393067133965
 30
0.0
 40
0.0200000000000003
 50
85.2402650212197557
 51
262.7597349740337904
  0
ARC
  5
F569
  8
0
 10
4342.1598667976531942
 20
207.5587236067565016
 30
0.0
 40
0.0200000000000003
 50
97.2402650211866444
 51
274.7597349740739787
  0
ARC
  5
F56A
  8
0
 10
4342.1397857925294375
 20
207.6531973081129934
 30
0.0
 40
0.0200000000000003
 50
109.240265021214995
 51
286.7597349740340178
  0
ARC
  5
F56B
  8
0
 10
4342.1005014185593609
 20
207.741431456698507
 30
0.0
 40
0.0200000000000003
 50
121.2402650212030011
 51
298.7597349740697723
  0
ARC
  5
F56C
  8
0
 10
4342.0437305913937962
 20
207.8195697968255047
 30
0.0
 40
0.0200000000000003
 50
133.2402650212144124
 51
310.7597349740528898
  0
ARC
  5
F56D
  8
0
 10
4341.9719544685967776
 20
207.8841973080810135
 30
0.0
 40
0.0200000000000003
 50
281.3709718479963726
 51
322.7597349740457275
  0
ARC
  5
F56E
  8
0
 10
4341.4288408955699197
 20
207.8841973081034951
 30
0.0
 40
0.0200000000000004
 50
217.2402650212121955
 51
258.6290280615378947
  0
LINE
  5
F56F
  8
0
 10
4341.9758976820676253
 20
208.396341456337808
 30
0.0
 11
4341.9758976820676253
 21
207.7843511530153933
 31
0.0
  0
LINE
  5
F570
  8
0
 10
4341.9758976820676253
 20
207.236511760492391
 30
0.0
 11
4341.9758976820676253
 21
204.8533414567538955
 31
0.0
  0
LINE
  5
F571
  8
0
 10
4341.4256236348692255
 20
206.8968792850243972
 30
0.0
 11
4341.4256236348692255
 21
204.8533414567538955
 31
0.0
  0
LINE
  5
F572
  8
0
 10
4341.9603976820681055
 20
204.8333414567539137
 30
0.0
 11
4341.4403976820685784
 21
204.8333414567539137
 31
0.0
  0
LINE
  5
F573
  8
0
 10
4341.973322750668558
 20
206.8601890643977015
 30
0.0
 11
4341.973322750668558
 21
204.8533414466321858
 31
0.0
  0
LINE
  5
F574
  8
0
 10
4341.965011763369148
 20
206.8461716381455915
 30
0.0
 11
4341.965011763369148
 21
204.8528305223786958
 31
0.0
  0
LINE
  5
F575
  8
0
 10
4341.9344425141680404
 20
206.8694991812446915
 30
0.0
 11
4341.9344425141680404
 21
204.8533414567538955
 31
0.0
  0
LINE
  5
F576
  8
0
 10
4341.9109465974688646
 20
206.8677539542404986
 30
0.0
 11
4341.9109465974688646
 21
204.8533414567538102
 31
0.0
  0
LINE
  5
F577
  8
0
 10
4341.8550937998688823
 20
206.865877768927902
 30
0.0
 11
4341.8550937998688823
 21
204.8528651985787121
 31
0.0
  0
LINE
  5
F578
  8
0
 10
4341.8204756113700569
 20
206.8658777739447032
 30
0.0
 11
4341.8204756113700569
 21
204.8533414567538955
 31
0.0
  0
LINE
  5
F579
  8
0
 10
4341.7489967214678472
 20
206.8644335820474964
 30
0.0
 11
4341.7489967214678472
 21
204.853341456754805
 31
0.0
  0
LINE
  5
F57A
  8
0
 10
4341.7092420603676146
 20
206.8644335820474964
 30
0.0
 11
4341.7092420603676146
 21
204.8533414560409938
 31
0.0
  0
ARC
  5
F57B
  8
0
 10
4339.3097796165438922
 20
206.851882910909012
 30
0.0
 40
2.663556085298008
 50
0.1786740338842707
 51
2.8717174080592431
  0
ARC
  5
F57C
  8
0
 10
4343.9483210797461652
 20
206.8448742072031052
 30
0.0
 40
1.983309740750212
 50
175.9390664802641027
 51
179.9625185511945062
  0
ARC
  5
F57D
  8
0
 10
4341.226398374229575
 20
206.8597483703669013
 30
0.0
 40
0.7081112782711866
 50
0.7889974142538857
 51
10.2150324321471295
  0
ARC
  5
F57E
  8
0
 10
4342.5618816394708119
 20
206.8588745818391033
 30
0.0
 40
0.6509956007231722
 50
168.7994055413689978
 51
179.2184796044400912
  0
ARC
  5
F57F
  8
0
 10
4341.3863834484272957
 20
206.8589367400751939
 30
0.0
 40
0.46876174271208
 50
0.8484186237368225
 51
15.64199028339549
  0
ARC
  5
F580
  8
0
 10
4342.2891859627361555
 20
206.8589367400751939
 30
0.0
 40
0.46876174271208
 50
164.3580097166044993
 51
179.151580762997412
  0
ARC
  5
F581
  8
0
 10
4341.3404897859536504
 20
206.8593474934664869
 30
0.0
 40
0.4085385962919077
 50
0.7133204566168632
 51
17.9607870042214586
  0
ARC
  5
F582
  8
0
 10
4342.117748996382943
 20
206.8593474933489063
 30
0.0
 40
0.4085385967934255
 50
162.0392130012328096
 51
179.2866795277633116
  0
ARC
  5
F583
  8
0
 10
4341.9558976820680982
 20
204.8533414567538955
 30
0.0
 40
0.0200000000000005
 50
270.0
 51
359.9999999999968168
  0
ARC
  5
F584
  8
0
 10
4341.9532800831821078
 20
204.8533763853737071
 30
0.0
 40
0.0200426979396476
 50
271.5953834082940261
 51
359.900121059275989
  0
ARC
  5
F585
  8
0
 10
4341.9445437434333144
 20
204.85308598991179
 30
0.0
 40
0.0204696141577849
 50
285.2955975483541238
 51
359.2849112181518763
  0
ARC
  5
F586
  8
0
 10
4341.9127732817933065
 20
204.8548751882655949
 30
0.0
 40
0.0217234427323317
 50
277.5776820424550806
 51
355.9514007767087946
  0
ARC
  5
F587
  8
0
 10
4341.8841550496981654
 20
204.853730649170501
 30
0.0
 40
0.0267943744597213
 50
310.4519370749533209
 51
359.1677407096321986
  0
ARC
  5
F588
  8
0
 10
4341.8345309366413858
 20
204.8531033267283021
 30
0.0
 40
0.0205642420021944
 50
286.0580009996090212
 51
359.3365161289999037
  0
ARC
  5
F589
  8
0
 10
4341.7684248887580907
 20
204.8549475131432871
 30
0.0
 40
0.0520754946356884
 50
341.6089660905332721
 51
358.2326649537562275
  0
ARC
  5
F58A
  8
0
 10
4341.8215836509052679
 20
204.8372731853648929
 30
0.0
 40
0.0039444648030117
 50
161.6089658905823967
 51
265.3944626008329237
  0
ARC
  5
F58B
  8
0
 10
4341.7286508174920527
 20
204.8534111688526878
 30
0.0
 40
0.0203460234055779
 50
279.4534409455554282
 51
359.8036856255430962
  0
LINE
  5
F58C
  8
0
 10
4341.7092420603676146
 20
204.8533414560409085
 30
0.0
 11
4341.7089100747898556
 21
204.8418397711539001
 31
0.0
  0
ARC
  5
F58D
  8
0
 10
4341.7185753535732147
 20
204.8409645700469071
 30
0.0
 40
0.0097048230773271
 50
174.8259180405428026
 51
231.7667050922217129
  0
LINE
  5
F58E
  8
0
 10
4341.4412497270677704
 20
206.8904234352465892
 30
0.0
 11
4341.4412497270677704
 21
204.8533414567538955
 31
0.0
  0
LINE
  5
F58F
  8
0
 10
4341.4575084715679623
 20
206.88867820824251
 30
0.0
 11
4341.4575084715679623
 21
204.8533414567538102
 31
0.0
  0
LINE
  5
F590
  8
0
 10
4341.501684854967607
 20
206.8750025666988108
 30
0.0
 11
4341.501684854967607
 21
204.8528651985787121
 31
0.0
  0
LINE
  5
F591
  8
0
 10
4341.5313910594686604
 20
206.875002571715612
 30
0.0
 11
4341.5313910594686604
 21
204.8533414567538955
 31
0.0
  0
LINE
  5
F592
  8
0
 10
4341.5964792359700368
 20
206.8671457009151027
 30
0.0
 11
4341.5964792359700368
 21
204.8533414567538955
 31
0.0
  0
LINE
  5
F593
  8
0
 10
4341.6344964276677274
 20
206.8671457009151027
 30
0.0
 11
4341.6344964276677274
 21
204.8533414560409085
 31
0.0
  0
ARC
  5
F594
  8
0
 10
4342.1492938670080548
 20
206.880672624368799
 30
0.0
 40
0.7081112782711866
 50
171.5009179168912112
 51
179.2110025857460869
  0
ARC
  5
F595
  8
0
 10
4340.806573429566015
 20
206.8797988358410009
 30
0.0
 40
0.6509956007231722
 50
0.7815203955598219
 51
9.3289597912575797
  0
ARC
  5
F596
  8
0
 10
4341.9703952064110126
 20
206.8680615378461027
 30
0.0
 40
0.46876174271208
 50
165.5130271892869018
 51
179.1515813762632092
  0
ARC
  5
F597
  8
0
 10
4341.0626807081007428
 20
206.8680615378461027
 30
0.0
 40
0.46876174271208
 50
0.8484192370025848
 51
14.4869728107130893
  0
ARC
  5
F598
  8
0
 10
4342.0049861714842336
 20
206.8620596123340931
 30
0.0
 40
0.4085385962919077
 50
162.4386134709235137
 51
179.2866795433830873
  0
ARC
  5
F599
  8
0
 10
4341.2259894916551275
 20
206.8620596122165125
 30
0.0
 40
0.4085385967934255
 50
0.7133204722366542
 51
17.5613865241292189
  0
ARC
  5
F59A
  8
0
 10
4341.4456236348687526
 20
204.8533414567538955
 30
0.0
 40
0.0200000000000005
 50
180.0000000000015916
 51
270.0
  0
ARC
  5
F59B
  8
0
 10
4341.4629189594452328
 20
204.8548751882655949
 30
0.0
 40
0.0217234427323317
 50
184.0485992232895001
 51
262.4223179575448057
  0
ARC
  5
F59C
  8
0
 10
4341.4843000193386615
 20
204.853730649170501
 30
0.0
 40
0.0267943744597213
 50
180.8322592903678014
 51
229.5480629250465938
  0
ARC
  5
F59D
  8
0
 10
4341.522247718196013
 20
204.8531033267283021
 30
0.0
 40
0.0205642420021944
 50
180.6634838710000963
 51
253.9419990003910073
  0
ARC
  5
F59E
  8
0
 10
4341.5834417820797171
 20
204.8549475131432871
 30
0.0
 40
0.0520754946356884
 50
181.7673350462436872
 51
198.3910339094651079
  0
ARC
  5
F59F
  8
0
 10
4341.5302830199343589
 20
204.8372731853648929
 30
0.0
 40
0.0039444648030117
 50
274.6055373991670194
 51
18.3910341094176317
  0
ARC
  5
F5A0
  8
0
 10
4341.6168251399458313
 20
204.8534111688526878
 30
0.0
 40
0.0203460234055779
 50
180.1963143744567901
 51
260.5465590544445718
  0
LINE
  5
F5A1
  8
0
 10
4341.6344964276677274
 20
204.8533414560409085
 30
0.0
 11
4341.6348284132482149
 21
204.8418397711539001
 31
0.0
  0
ARC
  5
F5A2
  8
0
 10
4341.6251631344639463
 20
204.8409645700469071
 30
0.0
 40
0.0097048230773271
 50
308.2332949077783155
 51
5.1740819594571814
  0
ARC
  5
F5A3
  8
0
 10
4341.7003976820678872
 20
207.5104314567539063
 30
0.0
 40
3.125
 50
271.4669322133573246
 51
268.5330677866426754
  0
ARC
  5
F5A4
  8
0
 10
4341.7003976820678872
 20
207.5104314567539063
 30
0.0
 40
0.9000000000000004
 50
287.8250234986501255
 51
72.1749765013499598
  0
ARC
  5
F5A5
  8
0
 10
4341.7003976820678872
 20
207.5104314567539063
 30
0.0
 40
0.9000000000000004
 50
107.8250234986499976
 51
252.2235158990004038
  0
ARC
  5
F5A6
  8
0
 10
4333.5046874355602995
 20
206.8761103708889948
 30
0.0
 40
7.9209634275958507
 50
0.1502307767751867
 51
0.7901358565946754
  0
LINE
  5
F5A7
  8
0
 10
4341.4248976820690586
 20
206.9853407348539065
 30
0.0
 11
4341.4248976820690586
 21
207.236511760492391
 31
0.0
  0
LINE
  5
F5A8
  8
0
 10
4341.4248976820690586
 20
207.7843511530153933
 30
0.0
 11
4341.4248976820690586
 21
208.396341456337808
 31
0.0
  0
LINE
  5
F5A9
  8
0
 10
4341.4448928311712734
 20
208.4163414567539974
 30
0.0
 11
4341.95590253296632
 21
208.4163414567539974
 31
0.0
  0
ARC
  5
F5AA
  8
0
 10
4341.4448976830726679
 20
208.396341456337808
 30
0.0
 40
0.0200000010046697
 50
90.0138996758985854
 51
180.0000000000129887
  0
ARC
  5
F5AB
  8
0
 10
4341.9558976810640161
 20
208.396341456337808
 30
0.0
 40
0.0200000010046697
 50
359.9999999999869829
 51
89.9861003241014146
  0
ARC
  5
F5AC
  8
0
 10
4341.7003976820678872
 20
207.5104314567547874
 30
0.0
 40
3.1236035948008278
 50
268.5324118519969829
 51
271.4675881480030171
  0
LINE
  5
F5AD
  8
0
 10
4341.6203976820706885
 20
204.3878524877848974
 30
0.0
 11
4341.6203976820706885
 21
204.3864556245810036
 31
0.0
  0
LINE
  5
F5AE
  8
0
 10
4341.780397682066905
 20
204.3878524877848974
 30
0.0
 11
4341.780397682066905
 21
204.3864556245810036
 31
0.0
  0
ARC
  5
F5AF
  8
0
 10
4341.7003976820678872
 20
207.5104314567539063
 30
0.0
 40
0.6200000000000001
 50
116.382068920540604
 51
243.6552740836428086
  0
ARC
  5
F5B0
  8
0
 10
4341.7003976820678872
 20
207.5104314567539063
 30
0.0
 40
0.6200000000000001
 50
296.3820689205405756
 51
63.6179310794593533
  0
ENDSEC
  0
EOF
