  0
SECTION
  2
HEADER
  9
$ACADVER
  1
AC1009
  9
$INSBASE
 10
4325.6829062798888117
 20
184.6745807628082048
 30
0.0
  9
$EXTMIN
 10
4321.2945082798896692
 20
183.4645807628081968
 30
0.0
  9
$EXTMAX
 10
4325.6935780137710026
 20
185.8845807628082127
 30
0.0
  9
$LIMMIN
 10
0.0
 20
0.0
  9
$LIMMAX
 10
11.6929133858000007
 20
8.2677165353999982
  9
$ORTHOMODE
 70
     0
  9
$REGENMODE
 70
     1
  9
$FILLMODE
 70
     1
  9
$QTEXTMODE
 70
     0
  9
$MIRRTEXT
 70
     0
  9
$DRAGMODE
 70
     2
  9
$LTSCALE
 40
0.6431102362
  9
$OSMODE
 70
     7
  9
$ATTMODE
 70
     1
  9
$TEXTSIZE
 40
0.2
  9
$TRACEWID
 40
0.05
  9
$TEXTSTYLE
  7
STANDARD
  9
$CLAYER
  8
0
  9
$CELTYPE
  6
BYLAYER
  9
$CECOLOR
 62
   256
  9
$DIMSCALE
 40
1.0
  9
$DIMASZ
 40
0.1875
  9
$DIMEXO
 40
0.0625
  9
$DIMDLI
 40
0.4443307087
  9
$DIMRND
 40
0.0
  9
$DIMDLE
 40
0.0
  9
$DIMEXE
 40
0.125
  9
$DIMTP
 40
0.01
  9
$DIMTM
 40
0.01
  9
$DIMTXT
 40
2.0
  9
$DIMCEN
 40
0.1052362205
  9
$DIMTSZ
 40
0.0
  9
$DIMTOL
 70
     1
  9
$DIMLIM
 70
     0
  9
$DIMTIH
 70
     1
  9
$DIMTOH
 70
     1
  9
$DIMSE1
 70
     0
  9
$DIMSE2
 70
     0
  9
$DIMTAD
 70
     0
  9
$DIMZIN
 70
     0
  9
$DIMBLK
  1

  9
$DIMASO
 70
     1
  9
$DIMSHO
 70
     1
  9
$DIMPOST
  1
\X
  9
$DIMAPOST
  1

  9
$DIMALT
 70
     1
  9
$DIMALTD
 70
     2
  9
$DIMALTF
 40
25.3999999999999986
  9
$DIMLFAC
 40
1.0
  9
$DIMTOFL
 70
     0
  9
$DIMTVP
 40
0.0
  9
$DIMTIX
 70
     0
  9
$DIMSOXD
 70
     0
  9
$DIMSAH
 70
     0
  9
$DIMBLK1
  1

  9
$DIMBLK2
  1

  9
$DIMSTYLE
  2
STANDARD
  9
$DIMCLRD
 70
     0
  9
$DIMCLRE
 70
     0
  9
$DIMCLRT
 70
     0
  9
$DIMTFAC
 40
1.0
  9
$DIMGAP
 40
0.09
  9
$LUNITS
 70
     2
  9
$LUPREC
 70
     4
  9
$SKETCHINC
 40
0.1
  9
$FILLETRAD
 40
0.0
  9
$AUNITS
 70
     0
  9
$AUPREC
 70
     0
  9
$MENU
  1
.
  9
$ELEVATION
 40
0.0
  9
$PELEVATION
 40
0.0
  9
$THICKNESS
 40
0.0
  9
$LIMCHECK
 70
     0
  9
$BLIPMODE
 70
     0
  9
$CHAMFERA
 40
0.0
  9
$CHAMFERB
 40
0.0
  9
$SKPOLY
 70
     0
  9
$TDCREATE
 40
2458060.468368056230247
  9
$TDUPDATE
 40
2459579.6155902780592442
  9
$TDINDWG
 40
0.4499028935
  9
$TDUSRTIMER
 40
0.4499028935
  9
$USRTIMER
 70
     1
  9
$ANGBASE
 50
0.0
  9
$ANGDIR
 70
     0
  9
$PDMODE
 70
     0
  9
$PDSIZE
 40
0.3125
  9
$PLINEWID
 40
0.0
  9
$COORDS
 70
     1
  9
$SPLFRAME
 70
     0
  9
$SPLINETYPE
 70
     6
  9
$SPLINESEGS
 70
     8
  9
$ATTDIA
 70
     1
  9
$ATTREQ
 70
     1
  9
$HANDLING
 70
     1
  9
$HANDSEED
  5
F866
  9
$SURFTAB1
 70
     6
  9
$SURFTAB2
 70
     6
  9
$SURFTYPE
 70
     6
  9
$SURFU
 70
     6
  9
$SURFV
 70
     6
  9
$UCSNAME
  2

  9
$UCSORG
 10
0.0
 20
0.0
 30
0.0
  9
$UCSXDIR
 10
1.0
 20
0.0
 30
0.0
  9
$UCSYDIR
 10
0.0
 20
1.0
 30
0.0
  9
$PUCSNAME
  2

  9
$PUCSORG
 10
0.0
 20
0.0
 30
0.0
  9
$PUCSXDIR
 10
1.0
 20
0.0
 30
0.0
  9
$PUCSYDIR
 10
0.0
 20
1.0
 30
0.0
  9
$USERI1
 70
     0
  9
$USERI2
 70
     0
  9
$USERI3
 70
     0
  9
$USERI4
 70
     0
  9
$USERI5
 70
     0
  9
$USERR1
 40
0.0
  9
$USERR2
 40
0.0
  9
$USERR3
 40
0.0
  9
$USERR4
 40
0.0
  9
$USERR5
 40
0.0
  9
$WORLDVIEW
 70
     1
  9
$SHADEDGE
 70
     3
  9
$SHADEDIF
 70
    70
  9
$TILEMODE
 70
     1
  9
$MAXACTVP
 70
    64
  9
$PLIMCHECK
 70
     0
  9
$PEXTMIN
 10
1.0000000000000000E+20
 20
1.0000000000000000E+20
 30
1.0000000000000000E+20
  9
$PEXTMAX
 10
-1.0000000000000000E+20
 20
-1.0000000000000000E+20
 30
-1.0000000000000000E+20
  9
$PLIMMIN
 10
0.0
 20
0.0
  9
$PLIMMAX
 10
12.0
 20
9.0
  9
$UNITMODE
 70
     0
  9
$VISRETAIN
 70
     1
  9
$PLINEGEN
 70
     0
  9
$PSLTSCALE
 70
     1
  0
ENDSEC
  0
SECTION
  2
TABLES
  0
TABLE
  2
VPORT
 70
     1
  0
VPORT
  2
*ACTIVE
 70
     0
 10
0.0
 20
0.0
 11
1.0
 21
1.0
 12
519.9499757640178359
 22
58.6793185660582495
 13
0.0
 23
0.0
 14
1.0
 24
1.0
 15
0.0
 25
0.0
 16
0.0
 26
0.0
 36
17.1152628219792007
 17
3803.5440673828129547
 27
125.9952621967499056
 37
0.0
 40
2.4373269689737631
 41
2.2831541218637992
 42
50.0
 43
0.0
 44
0.0
 50
0.0
 51
0.0
 71
     0
 72
   100
 73
     1
 74
     1
 75
     0
 76
     0
 77
     0
 78
     0
  0
ENDTAB
  0
TABLE
  2
LTYPE
 70
     2
  0
LTYPE
  2
CONTINUOUS
 70
     0
  3
Solid line
 72
    65
 73
     0
 40
0.0
  0
LTYPE
  2
PHANTOM2
 70
     0
  3
___ _ _ ___ _ _ ___ _ _ ___ _ _
 72
    65
 73
     6
 40
1.25
 49
0.625
 49
-0.125
 49
0.125
 49
-0.125
 49
0.125
 49
-0.125
  0
ENDTAB
  0
TABLE
  2
LAYER
 70
     2
  0
LAYER
  2
0
 70
     0
 62
   255
  6
CONTINUOUS
  0
LAYER
  2
DEFPOINTS
 70
     0
 62
     7
  6
CONTINUOUS
  0
ENDTAB
  0
TABLE
  2
STYLE
 70
     1
  0
STYLE
  2
STANDARD
 70
     0
 40
0.0
 41
0.8
 50
0.0
 71
     0
 42
0.2
  3
txt
  4

  0
ENDTAB
  0
TABLE
  2
VIEW
 70
     0
  0
ENDTAB
  0
TABLE
  2
UCS
 70
     0
  0
ENDTAB
  0
TABLE
  2
APPID
 70
     9
  0
APPID
  2
ACAD
 70
     0
  0
APPID
  2
ACAD_MLEADERVER
 70
     0
  0
APPID
  2
ACAD_EXEMPT_FROM_CAD_STANDARDS
 70
     0
  0
APPID
  2
ACAD_NAV_VCDISPLAY
 70
     0
  0
APPID
  2
ACAECLAYERSTANDARD
 70
     0
  0
APPID
  2
ACCMTRANSPARENCY
 70
     0
  0
APPID
  2
ACAD_DSTYLE_DIMJAG
 70
     0
  0
APPID
  2
ACAD_DSTYLE_DIMTALN
 70
     0
  0
APPID
  2
ACDBATTR
 70
     0
  0
ENDTAB
  0
TABLE
  2
DIMSTYLE
 70
     1
  0
DIMSTYLE
  2
STANDARD
 70
     0
  3

  4

  5

  6

  7

 40
1.0
 41
0.1875
 42
0.0625
 43
0.38
 44
0.125
 45
0.0
 46
0.0
 47
0.01
 48
0.01
140
0.15625
141
0.09
142
0.0
143
25.3999999999999986
144
1.0
145
0.0
146
1.0
147
0.09
 71
     1
 72
     0
 73
     1
 74
     1
 75
     0
 76
     0
 77
     0
 78
     4
170
     0
171
     2
172
     0
173
     0
174
     0
175
     0
176
     0
177
     0
178
     0
  0
ENDTAB
  0
ENDSEC
  0
SECTION
  2
BLOCKS
  0
BLOCK
  8
0
  2
$MODEL_SPACE
 70
     0
 10
0.0
 20
0.0
 30
0.0
  3
$MODEL_SPACE
  1

  0
ENDBLK
  5
21
  8
0
  0
BLOCK
 67
     1
  8
0
  2
$PAPER_SPACE
 70
     0
 10
0.0
 20
0.0
 30
0.0
  3
$PAPER_SPACE
  1

  0
ENDBLK
  5
1D
 67
     1
  8
0
  0
ENDSEC
  0
SECTION
  2
ENTITIES
  0
ATTDEF
  5
3930
  8
DEFPOINTS
 10
4325.6829113471021628
 20
184.6779220630459122
 30
0.0
 40
0.001
  1
P21356-LV
  3

  2
MODELNUMBER
 70
     0
1001
ACDBATTR
1070
     0
1070
     1
  0
ATTDEF
  5
3931
  8
DEFPOINTS
 10
4325.6829113471021628
 20
184.6762553963791902
 30
0.0
 40
0.001
  1
CENTRAL PARK WEST
  3

  2
TRADENAME
 70
     0
1001
ACDBATTR
1070
     0
1070
     1
  0
ATTDEF
  5
3932
  8
DEFPOINTS
 10
4325.6829113471021628
 20
184.6745887297126103
 30
0.0
 40
0.001
  1
BATH FAUCET HANDLES
  3

  2
PRODUCT
 70
     0
1001
ACDBATTR
1070
     0
1070
     1
  0
CIRCLE
  5
F699
  8
0
 10
4321.7125082798893345
 20
184.6745807628082048
 30
0.0
 40
0.3335000000000008
  0
CIRCLE
  5
F69A
  8
0
 10
4321.7125082798893345
 20
184.6745807628082048
 30
0.0
 40
0.3375000000000003
  0
LINE
  5
F69B
  8
0
 10
4325.6829062798888117
 20
185.8745807628081081
 30
0.0
 11
4325.6829062798888117
 21
183.4745807628081025
 31
0.0
  0
LINE
  5
F69C
  8
0
 10
4325.4899062798904197
 20
185.8645807628082025
 30
0.0
 11
4325.4899062798904197
 21
183.4845807628082071
 31
0.0
  0
LINE
  5
F69D
  8
0
 10
4325.1879062798889208
 20
185.5277503988081946
 30
0.0
 11
4325.1879062798889208
 21
183.8214111267978979
 31
0.0
  0
LINE
  5
F69E
  8
0
 10
4325.5099062798890373
 20
185.8845807628082127
 30
0.0
 11
4325.6729062798904124
 21
185.8845807628082127
 31
0.0
  0
ARC
  5
F69F
  8
0
 10
4325.5099062798890373
 20
185.8645807628082025
 30
0.0
 40
0.0199999999999996
 50
90.0
 51
180.0000000000015916
  0
ARC
  5
F6A0
  8
0
 10
4325.6729062798904124
 20
185.8745807628081081
 30
0.0
 40
0.0100000000000007
 50
0.0000000000032569
 51
90.0
  0
LINE
  5
F6A1
  8
0
 10
4325.155906279888768
 20
185.4418807628082106
 30
0.0
 11
4322.8645082798893782
 21
185.4418807628082106
 31
0.0
  0
LINE
  5
F6A2
  8
0
 10
4322.8145082798891963
 20
185.4418807628082106
 30
0.0
 11
4322.7345082798883595
 21
185.4418807628082106
 31
0.0
  0
ARC
  5
F6A3
  8
0
 10
4325.155906279888768
 20
185.4738807628081076
 30
0.0
 40
0.0320000000000071
 50
270.0
 51
0.0
  0
ARC
  5
F6A4
  8
0
 10
4325.2079062798429732
 20
185.527750398818398
 30
0.0
 40
0.0199999999540821
 50
93.8744228894373123
 51
180.0000000513774125
  0
ARC
  5
F6A5
  8
0
 10
4325.1879425934721439
 20
185.7956955666712986
 30
0.0
 40
0.2486883438673497
 50
274.2921336798384004
 51
301.4455092391946209
  0
ARC
  5
F6A6
  8
0
 10
4325.2520202683517709
 20
185.6986736467686114
 30
0.0
 40
0.1325488119297848
 50
299.6937551056265079
 51
350.6540823350790106
  0
ARC
  5
F6A7
  8
0
 10
4325.4026443067286891
 20
185.6745806553188061
 30
0.0
 40
0.0200002139178914
 50
90.1869173303694254
 51
172.6235891580795112
  0
LINE
  5
F6A8
  8
0
 10
4325.382809612589881
 20
185.6771484293041112
 30
0.0
 11
4325.382809612589881
 21
183.672013095935597
 31
0.0
  0
LINE
  5
F6A9
  8
0
 10
4325.4579062798893574
 20
185.6945807628081013
 30
0.0
 11
4325.4025790597152081
 21
185.6945807628081013
 31
0.0
  0
ARC
  5
F6AA
  8
0
 10
4325.4579062798893574
 20
185.726580762808112
 30
0.0
 40
0.0319999999999707
 50
270.0
 51
0.0
  0
LINE
  5
F6AB
  8
0
 10
4322.7195082798898511
 20
185.4268807628081106
 30
0.0
 11
4322.7195082798898511
 21
183.9222807628082137
 31
0.0
  0
LINE
  5
F6AC
  8
0
 10
4322.8295082798886142
 20
185.4268807628081106
 30
0.0
 11
4322.8295082798886142
 21
183.9222807628081
 31
0.0
  0
LINE
  5
F6AD
  8
0
 10
4322.8495082798890508
 20
185.4268807628081106
 30
0.0
 11
4322.8495082798890508
 21
183.9222807628081
 31
0.0
  0
LINE
  5
F6AE
  8
0
 10
4322.8295082798886142
 20
185.3645807628080888
 30
0.0
 11
4322.8495082798890508
 21
185.3645807628080888
 31
0.0
  0
ARC
  5
F6AF
  8
0
 10
4322.8145082798891963
 20
185.4268807628081106
 30
0.0
 40
0.0149999999999997
 50
359.9999999999869829
 51
90.0
  0
ARC
  5
F6B0
  8
0
 10
4322.8645082798893782
 20
185.4268807628081106
 30
0.0
 40
0.0149999999999961
 50
90.0
 51
180.0000000000129887
  0
ARC
  5
F6B1
  8
0
 10
4322.7345082798883595
 20
185.4268807628081106
 30
0.0
 40
0.0150000000000077
 50
90.0
 51
179.9999999999756142
  0
LINE
  5
F6B2
  8
0
 10
4322.6375082798886069
 20
185.2106813909647087
 30
0.0
 11
4322.6375082798886069
 21
184.1384801346515872
 31
0.0
  0
LINE
  5
F6B3
  8
0
 10
4322.3925082798887161
 20
185.2106813909641971
 30
0.0
 11
4322.3925082798887161
 21
184.1384801346524966
 31
0.0
  0
LINE
  5
F6B4
  8
0
 10
4322.3105082798902004
 20
185.1045807628080979
 30
0.0
 11
4322.3105082798902004
 21
184.2445807628081127
 31
0.0
  0
LINE
  5
F6B5
  8
0
 10
4322.2015082798889125
 20
185.0485807628080863
 30
0.0
 11
4322.2015082798889125
 21
184.3005807628080959
 31
0.0
  0
LINE
  5
F6B6
  8
0
 10
4322.1305082798889998
 20
185.1380807628081016
 30
0.0
 11
4322.1305082798889998
 21
184.2110807628081091
 31
0.0
  0
LINE
  5
F6B7
  8
0
 10
4321.2945082798896692
 20
185.1380807628081016
 30
0.0
 11
4321.2945082798896692
 21
184.2110807628081091
 31
0.0
  0
LINE
  5
F6B8
  8
0
 10
4321.3095082798899966
 20
185.1530807628082016
 30
0.0
 11
4322.1155082798886724
 21
185.1530807628082016
 31
0.0
  0
ARC
  5
F6B9
  8
0
 10
4321.3095082798899966
 20
185.1380807628081016
 30
0.0
 40
0.0150000000000006
 50
90.0
 51
180.0
  0
ARC
  5
F6BA
  8
0
 10
4322.1155082798886724
 20
185.1380807628081016
 30
0.0
 40
0.0149999999999997
 50
359.9999999999968168
 51
90.0
  0
ARC
  5
F6BB
  8
0
 10
4322.1405082798892181
 20
185.0685807628080966
 30
0.0
 40
0.0099999999999972
 50
180.0
 51
270.0
  0
LINE
  5
F6BC
  8
0
 10
4322.1405082798892181
 20
185.0585807628081056
 30
0.0
 11
4322.1915082798886942
 21
185.0585807628081056
 31
0.0
  0
ARC
  5
F6BD
  8
0
 10
4322.1915082798886942
 20
185.0485807628080863
 30
0.0
 40
0.0099999999999998
 50
0.0
 51
90.0
  0
ARC
  5
F6BE
  8
0
 10
4322.2115082798900403
 20
184.9880807628082096
 30
0.0
 40
0.0099999999999928
 50
180.0
 51
270.0
  0
LINE
  5
F6BF
  8
0
 10
4322.2115082798900403
 20
184.978080762808105
 30
0.0
 11
4322.3005082798899821
 21
184.978080762808105
 31
0.0
  0
ARC
  5
F6C0
  8
0
 10
4322.3005082798899821
 20
184.9880807628080959
 30
0.0
 40
0.0099999999999752
 50
269.9999999999478746
 51
0.0
  0
ARC
  5
F6C1
  8
0
 10
4322.3205082798885996
 20
185.1045807628080979
 30
0.0
 40
0.0100000000000007
 50
90.0
 51
179.9999999999901945
  0
LINE
  5
F6C2
  8
0
 10
4322.3205082798885996
 20
185.1145807628082025
 30
0.0
 11
4322.3825082798894073
 21
185.1145807628082025
 31
0.0
  0
ARC
  5
F6C3
  8
0
 10
4322.3825082798894073
 20
185.1245807628081934
 30
0.0
 40
0.0099999999999998
 50
270.0
 51
0.0
  0
ARC
  5
F6C4
  8
0
 10
4322.4125047731140512
 20
185.2101530608318001
 30
0.0
 40
0.0200679900829191
 50
90.0104975780429442
 51
159.9727994582422923
  0
ARC
  5
F6C5
  8
0
 10
4322.6174914178245672
 20
185.2101146355184085
 30
0.0
 40
0.0201064221606124
 50
20.3568627078765516
 51
89.951846124835825
  0
ARC
  5
F6C6
  8
0
 10
4322.6188339395648654
 20
185.2106127646353002
 30
0.0
 40
0.0186744664209933
 50
0.2105553015455462
 51
20.3568627078734892
  0
ARC
  5
F6C7
  8
0
 10
4322.6475082798897347
 20
185.1245807628081934
 30
0.0
 40
0.0099999999999953
 50
180.0
 51
270.0
  0
LINE
  5
F6C8
  8
0
 10
4322.6475082798897347
 20
185.1145807628082025
 30
0.0
 11
4322.7095082798887233
 21
185.1145807628082025
 31
0.0
  0
ARC
  5
F6C9
  8
0
 10
4322.7095082798887233
 20
185.1045807628080979
 30
0.0
 40
0.0099999999999998
 50
0.0
 51
90.0
  0
LINE
  5
F6CA
  8
0
 10
4322.628947062034058
 20
184.7633682728082078
 30
0.0
 11
4322.4010694977441744
 21
184.7633682728082078
 31
0.0
  0
LINE
  5
F6CB
  8
0
 10
4322.6292931899770338
 20
184.8025933382081121
 30
0.0
 11
4322.4007233698021082
 21
184.8025933382081121
 31
0.0
  0
LINE
  5
F6CC
  8
0
 10
4322.6175082804356862
 20
184.8687404935081133
 30
0.0
 11
4322.4125082793416368
 21
184.8687404935081133
 31
0.0
  0
LINE
  5
F6CD
  8
0
 10
4322.61756795941983
 20
184.9056896971081017
 30
0.0
 11
4322.412448600359312
 21
184.9056896971081017
 31
0.0
  0
LINE
  5
F6CE
  8
0
 10
4322.6175082798899894
 20
184.9666512646082026
 30
0.0
 11
4322.4125082798900621
 21
184.9666512646082026
 31
0.0
  0
LINE
  5
F6CF
  8
0
 10
4322.620141149205665
 20
184.9999046693081084
 30
0.0
 11
4322.409875410571658
 21
184.9999046693081084
 31
0.0
  0
LINE
  5
F6D0
  8
0
 10
4322.6175082798899894
 20
185.0533379301081141
 30
0.0
 11
4322.4125082798900621
 21
185.0533379301081141
 31
0.0
  0
LINE
  5
F6D1
  8
0
 10
4322.6175082798899894
 20
185.0816176263082014
 30
0.0
 11
4322.4125082798891526
 21
185.0816176263082014
 31
0.0
  0
LINE
  5
F6D2
  8
0
 10
4322.6175082798899894
 20
185.1254691701155934
 30
0.0
 11
4322.4125082436421508
 21
185.1254691701155934
 31
0.0
  0
LINE
  5
F6D3
  8
0
 10
4322.6175082798899894
 20
185.1476883848245905
 30
0.0
 11
4322.4125082436394223
 21
185.1476883848245905
 31
0.0
  0
LINE
  5
F6D4
  8
0
 10
4322.6175082798899894
 20
185.1802730214830035
 30
0.0
 11
4322.4125082798900621
 21
185.1802730214830035
 31
0.0
  0
LINE
  5
F6D5
  8
0
 10
4322.6175082798899894
 20
185.195577882765491
 30
0.0
 11
4322.4125082798900621
 21
185.195577882765491
 31
0.0
  0
LINE
  5
F6D6
  8
0
 10
4322.6175082798899894
 20
185.2156434029450054
 30
0.0
 11
4322.4125082798900621
 21
185.2156434029450054
 31
0.0
  0
LINE
  5
F6D7
  8
0
 10
4322.6175082798899894
 20
185.2234457535649028
 30
0.0
 11
4322.4125082798900621
 21
185.2234457535649028
 31
0.0
  0
LINE
  5
F6D8
  8
0
 10
4322.4125010963107343
 20
185.2302210505779101
 30
0.0
 11
4322.6175083161379007
 21
185.2302210505779101
 31
0.0
  0
ARC
  5
F6D9
  8
0
 10
4322.6174914178245672
 20
185.2033393384749047
 30
0.0
 40
0.0201064221606124
 50
5.409895127835604
 51
89.951846124835825
  0
ARC
  5
F6DA
  8
0
 10
4322.6174914178245672
 20
185.1955369878550073
 30
0.0
 40
0.0201064221606124
 50
5.409895127835604
 51
89.951846124835825
  0
ARC
  5
F6DB
  8
0
 10
4322.6174914178245672
 20
185.1754714676754929
 30
0.0
 40
0.0201064221606124
 50
5.409895127835604
 51
89.951846124835825
  0
ARC
  5
F6DC
  8
0
 10
4322.6174914178245672
 20
185.1601666063930054
 30
0.0
 40
0.0201064221606124
 50
5.409895127835604
 51
89.951846124835825
  0
ARC
  5
F6DD
  8
0
 10
4322.6174914178245672
 20
185.127581969734706
 30
0.0
 40
0.0201064221606124
 50
5.409895127835604
 51
89.951846124835825
  0
ARC
  5
F6DE
  8
0
 10
4322.6174914178245672
 20
185.105362755025709
 30
0.0
 40
0.0201064221606124
 50
5.409895127835604
 51
89.951846124835825
  0
ARC
  5
F6DF
  8
0
 10
4322.6172458036407988
 20
185.0612006887685084
 30
0.0
 40
0.0204186246422069
 50
7.090392949928825
 51
89.2634569808962794
  0
ARC
  5
F6E0
  8
0
 10
4322.6156736553093651
 20
185.0149450398205033
 30
0.0
 40
0.0384366995459632
 50
55.3844513051631822
 51
87.2641719696663642
  0
ARC
  5
F6E1
  8
0
 10
4322.6188247140926251
 20
184.9803167394804007
 30
0.0
 40
0.0196321164508832
 50
17.8833409549068207
 51
86.1551361431019558
  0
ARC
  5
F6E2
  8
0
 10
4322.6112824870360782
 20
184.8431192364058973
 30
0.0
 40
0.123688813109454
 50
77.7586324790908208
 51
87.1148364853231669
  0
ARC
  5
F6E3
  8
0
 10
4322.6175381174052745
 20
184.8852824713951861
 30
0.0
 40
0.0204072475323024
 50
11.8797307826914604
 51
89.9162149558443389
  0
LINE
  5
F6E4
  8
0
 10
4322.6175082798899894
 20
184.8687404935353982
 30
0.0
 11
4322.6375082798886069
 21
184.8677419546708052
 31
0.0
  0
ARC
  5
F6E5
  8
0
 10
4322.6234007349403328
 20
184.7879498824347024
 30
0.0
 40
0.0157845438116747
 50
26.6507986938315611
 51
68.0803867118619763
  0
ARC
  5
F6E6
  8
0
 10
4322.6268392136416878
 20
184.7754397460460041
 30
0.0
 40
0.0122541213874428
 50
279.9047858707249929
 51
330.5344087261623258
  0
ARC
  5
F6E7
  8
0
 10
4322.4109790017264459
 20
185.21063146426809
 30
0.0
 40
0.018470789312874
 50
159.7461980037377884
 51
179.8451288434719118
  0
ARC
  5
F6E8
  8
0
 10
4322.3825082798894073
 20
185.1245807628081934
 30
0.0
 40
0.0099999999999953
 50
270.0
 51
0.0
  0
ARC
  5
F6E9
  8
0
 10
4322.4125251419836786
 20
185.2033393384596138
 30
0.0
 40
0.0201064221923761
 50
90.0480506658584829
 51
174.5901048371727029
  0
ARC
  5
F6EA
  8
0
 10
4322.4125251419527558
 20
185.1955369878550073
 30
0.0
 40
0.0201064221606122
 50
90.0480505791470591
 51
174.5901048721692064
  0
ARC
  5
F6EB
  8
0
 10
4322.4125251419527558
 20
185.1754714676754929
 30
0.0
 40
0.0201064221606124
 50
90.0480505791470591
 51
174.5901048721611062
  0
ARC
  5
F6EC
  8
0
 10
4322.4125251419527558
 20
185.1601666063930054
 30
0.0
 40
0.0201064221606116
 50
90.0480505791470591
 51
174.5901048721611062
  0
ARC
  5
F6ED
  8
0
 10
4322.4125251420091445
 20
185.127581969706597
 30
0.0
 40
0.0201064222191325
 50
90.0481540349862541
 51
174.5901048077018061
  0
ARC
  5
F6EE
  8
0
 10
4322.4125251420091445
 20
185.1053627549976
 30
0.0
 40
0.0201064222191308
 50
90.0481540349341429
 51
174.5901048076985091
  0
ARC
  5
F6EF
  8
0
 10
4322.4127707561374336
 20
185.0612006887685084
 30
0.0
 40
0.0204186246422096
 50
90.7365430191037348
 51
172.9096070500696101
  0
ARC
  5
F6F0
  8
0
 10
4322.4143429044697768
 20
185.0149450398205033
 30
0.0
 40
0.0384366995459632
 50
92.7358280303336358
 51
124.6155486948368036
  0
ARC
  5
F6F1
  8
0
 10
4322.4111918456846979
 20
184.9803167394804007
 30
0.0
 40
0.0196321164508832
 50
93.8448638568980584
 51
162.116659045085413
  0
ARC
  5
F6F2
  8
0
 10
4322.4187340727430637
 20
184.8431192364058973
 30
0.0
 40
0.123688813109454
 50
92.8851635146768615
 51
102.241367520909094
  0
ARC
  5
F6F3
  8
0
 10
4322.4124784423729579
 20
184.8852824713951861
 30
0.0
 40
0.0204072475323024
 50
90.0837850441556469
 51
168.120269217308504
  0
LINE
  5
F6F4
  8
0
 10
4322.4125082798900621
 20
184.8687404935353982
 30
0.0
 11
4322.3925082798887161
 21
184.8677419546708052
 31
0.0
  0
ARC
  5
F6F5
  8
0
 10
4322.4066158248388092
 20
184.7879498824347024
 30
0.0
 40
0.0157845438116747
 50
111.9196132881379953
 51
153.3492013061683963
  0
ARC
  5
F6F6
  8
0
 10
4322.4031773461383636
 20
184.7754397460460041
 30
0.0
 40
0.0122541213874428
 50
209.4655912738377026
 51
260.0952141292748934
  0
LINE
  5
F6F7
  8
0
 10
4325.155906279888768
 20
183.9072807628081136
 30
0.0
 11
4322.8645082798893782
 21
183.9072807628081136
 31
0.0
  0
LINE
  5
F6F8
  8
0
 10
4322.8145082798891963
 20
183.9072807628081136
 30
0.0
 11
4322.7345082798883595
 21
183.9072807628081136
 31
0.0
  0
LINE
  5
F6F9
  8
0
 10
4322.8295082798886142
 20
183.9845807628082071
 30
0.0
 11
4322.8495082798890508
 21
183.9845807628082071
 31
0.0
  0
ARC
  5
F6FA
  8
0
 10
4322.8145082798891963
 20
183.9222807628081
 30
0.0
 40
0.0149999999999997
 50
270.0
 51
0.0000000000130276
  0
ARC
  5
F6FB
  8
0
 10
4322.8645082798893782
 20
183.9222807628081
 30
0.0
 40
0.0149999999999961
 50
179.9999999999870113
 51
270.0
  0
ARC
  5
F6FC
  8
0
 10
4322.7345082798883595
 20
183.9222807628082137
 30
0.0
 40
0.0150000000000077
 50
180.0000000000227942
 51
270.0
  0
LINE
  5
F6FD
  8
0
 10
4321.3095082798899966
 20
184.196080762808208
 30
0.0
 11
4322.1155082798886724
 21
184.196080762808208
 31
0.0
  0
ARC
  5
F6FE
  8
0
 10
4321.3095082798899966
 20
184.2110807628081091
 30
0.0
 40
0.0150000000000006
 50
180.0
 51
270.0
  0
ARC
  5
F6FF
  8
0
 10
4322.1155082798886724
 20
184.2110807628081091
 30
0.0
 40
0.0149999999999997
 50
270.0
 51
0.0000000000032569
  0
ARC
  5
F700
  8
0
 10
4322.1405082798892181
 20
184.2805807628081141
 30
0.0
 40
0.0099999999999972
 50
90.0
 51
180.0
  0
LINE
  5
F701
  8
0
 10
4322.1405082798892181
 20
184.290580762808105
 30
0.0
 11
4322.1915082798886942
 21
184.290580762808105
 31
0.0
  0
ARC
  5
F702
  8
0
 10
4322.1915082798886942
 20
184.3005807628080959
 30
0.0
 40
0.0099999999999998
 50
270.0
 51
0.0
  0
ARC
  5
F703
  8
0
 10
4322.2115082798900403
 20
184.3610807628080863
 30
0.0
 40
0.0099999999999928
 50
90.0
 51
180.0
  0
LINE
  5
F704
  8
0
 10
4322.2115082798900403
 20
184.3710807628081056
 30
0.0
 11
4322.3005082798899821
 21
184.3710807628081056
 31
0.0
  0
ARC
  5
F705
  8
0
 10
4322.3005082798899821
 20
184.3610807628082
 30
0.0
 40
0.0099999999999752
 50
0.0
 51
90.0000000000521254
  0
ARC
  5
F706
  8
0
 10
4322.3205082798885996
 20
184.2445807628081127
 30
0.0
 40
0.0100000000000007
 50
180.0000000000098055
 51
270.0
  0
LINE
  5
F707
  8
0
 10
4322.3205082798885996
 20
184.2345807628080934
 30
0.0
 11
4322.3825082798894073
 21
184.2345807628080934
 31
0.0
  0
ARC
  5
F708
  8
0
 10
4322.3825082798894073
 20
184.2245807628081025
 30
0.0
 40
0.0099999999999998
 50
0.0
 51
90.0
  0
ARC
  5
F709
  8
0
 10
4322.6475082798897347
 20
184.2245807628081877
 30
0.0
 40
0.0099999999999953
 50
90.0
 51
180.0
  0
LINE
  5
F70A
  8
0
 10
4322.6475082798897347
 20
184.2345807628080934
 30
0.0
 11
4322.7095082798887233
 21
184.2345807628080934
 31
0.0
  0
ARC
  5
F70B
  8
0
 10
4322.7095082798887233
 20
184.2445807628081127
 30
0.0
 40
0.0099999999999998
 50
270.0
 51
0.0
  0
LINE
  5
F70C
  8
0
 10
4322.628947062034058
 20
184.694577527808093
 30
0.0
 11
4322.4010694977441744
 21
184.694577527808093
 31
0.0
  0
ARC
  5
F70D
  8
0
 10
4322.6268392136416878
 20
184.6825060545702968
 30
0.0
 40
0.0122541213874428
 50
29.4655912738376706
 51
80.0952141292749644
  0
ARC
  5
F70E
  8
0
 10
4322.3825082798894073
 20
184.2245807628081877
 30
0.0
 40
0.0099999999999953
 50
0.0
 51
90.0
  0
ARC
  5
F70F
  8
0
 10
4322.4031773461383636
 20
184.6825060545702968
 30
0.0
 40
0.0122541213874428
 50
99.9047858707250498
 51
150.5344087261622974
  0
LINE
  5
F711
  8
0
 10
4325.5099062798890373
 20
183.4645807628081968
 30
0.0
 11
4325.6729062798904124
 21
183.4645807628081968
 31
0.0
  0
ARC
  5
F712
  8
0
 10
4325.5099062798890373
 20
183.4845807628082071
 30
0.0
 40
0.0199999999999996
 50
179.9999999999984084
 51
270.0
  0
ARC
  5
F713
  8
0
 10
4325.6729062798904124
 20
183.4745807628081025
 30
0.0
 40
0.0100000000000007
 50
270.0
 51
359.9999999999968168
  0
ARC
  5
F714
  8
0
 10
4325.155906279888768
 20
183.875280762808103
 30
0.0
 40
0.0320000000000071
 50
0.0
 51
90.0
  0
ARC
  5
F715
  8
0
 10
4325.2079062798429732
 20
183.8214111267978979
 30
0.0
 40
0.0199999999540821
 50
179.9999999486225875
 51
266.1255771105626877
  0
ARC
  5
F716
  8
0
 10
4325.1879425934721439
 20
183.5534659589449973
 30
0.0
 40
0.2486883438673497
 50
58.5544907608054004
 51
85.7078663201615569
  0
ARC
  5
F717
  8
0
 10
4325.2520202683517709
 20
183.6504878788477129
 30
0.0
 40
0.1325488119297848
 50
9.3459176649209983
 51
60.3062448943734708
  0
ARC
  5
F718
  8
0
 10
4325.4026443067286891
 20
183.6745808702974898
 30
0.0
 40
0.0200002139178914
 50
187.3764108419204888
 51
269.8130826696304894
  0
LINE
  5
F719
  8
0
 10
4325.4579062798893574
 20
183.6545807628081093
 30
0.0
 11
4325.4025790597152081
 21
183.6545807628081093
 31
0.0
  0
ARC
  5
F71A
  8
0
 10
4325.4579062798893574
 20
183.6225807628082123
 30
0.0
 40
0.0319999999999707
 50
0.0
 51
90.0
  0
ARC
  5
F71B
  8
0
 10
4321.4393210730886494
 20
184.8658685043081107
 30
0.0
 40
0.0199999999999996
 50
236.7182719648052966
 51
53.2817280475443695
  0
ARC
  5
F71C
  8
0
 10
4321.38691356149684
 20
184.7467633740239137
 30
0.0
 40
0.0199999999999996
 50
259.2182719648134253
 51
75.7817280475411366
  0
ARC
  5
F71D
  8
0
 10
4321.3840748942557184
 20
184.6166690955190006
 30
0.0
 40
0.0199999999999996
 50
281.7182719647938143
 51
98.2817280475120043
  0
ARC
  5
F71E
  8
0
 10
4321.431237232721287
 20
184.4953913433882917
 30
0.0
 40
0.0199999999999996
 50
304.2182719648027955
 51
120.7817280475190955
  0
ARC
  5
F71F
  8
0
 10
4321.5212205383886612
 20
184.4013935560082018
 30
0.0
 40
0.0199999999999996
 50
326.7182719647831846
 51
143.281728047525803
  0
ARC
  5
F720
  8
0
 10
4321.6403256686726309
 20
184.3489860444151134
 30
0.0
 40
0.0199999999999996
 50
349.2182719647939848
 51
165.7817280475360064
  0
ARC
  5
F721
  8
0
 10
4321.7704199471791071
 20
184.3461473771739065
 30
0.0
 40
0.0199999999999996
 50
11.7182719647907305
 51
188.2817280475360917
  0
ARC
  5
F722
  8
0
 10
4321.8916976993086791
 20
184.3933097156395036
 30
0.0
 40
0.0199999999999996
 50
34.218271964794738
 51
210.7817280475431971
  0
ARC
  5
F723
  8
0
 10
4321.9856954866900196
 20
184.4832930213080999
 30
0.0
 40
0.0199999999999996
 50
56.7182719648052611
 51
233.2817280475443908
  0
ARC
  5
F724
  8
0
 10
4322.0381029982818291
 20
184.6023981515924106
 30
0.0
 40
0.0199999999999996
 50
79.2182719648134253
 51
255.7817280475410939
  0
ARC
  5
F725
  8
0
 10
4322.0409416655229506
 20
184.7324924300972953
 30
0.0
 40
0.0199999999999995
 50
101.7182719647937006
 51
278.2817280475119901
  0
ARC
  5
F726
  8
0
 10
4321.993779327057382
 20
184.8537701822280042
 30
0.0
 40
0.0199999999999995
 50
124.2182719648027955
 51
300.7817280475192092
  0
ARC
  5
F727
  8
0
 10
4321.9037960213900078
 20
184.9477679696082077
 30
0.0
 40
0.0199999999999995
 50
146.718271964783213
 51
323.2817280475259167
  0
ARC
  5
F728
  8
0
 10
4321.7846908911051287
 20
185.0001754812012109
 30
0.0
 40
0.0199999999999995
 50
169.2182719647940132
 51
345.781728047535978
  0
ARC
  5
F729
  8
0
 10
4321.6545966125995619
 20
185.0030141484423041
 30
0.0
 40
0.0199999999999995
 50
191.7182719647906879
 51
8.2817280475361539
  0
ARC
  5
F72A
  8
0
 10
4321.5333188604699899
 20
184.9558518099767923
 30
0.0
 40
0.0199999999999995
 50
214.2182719647946954
 51
30.78172804754319
  0
ARC
  5
F72B
  8
0
 10
4322.4125047731140512
 20
184.1390084647844105
 30
0.0
 40
0.0200679900829191
 50
200.0272005417577077
 51
269.9895024219571269
  0
ARC
  5
F72C
  8
0
 10
4322.6174914178245672
 20
184.1390468900978874
 30
0.0
 40
0.0201064221606124
 50
270.0481538751641892
 51
339.6431372921235265
  0
ARC
  5
F72D
  8
0
 10
4322.6188339395648654
 20
184.1385487609809957
 30
0.0
 40
0.0186744664209933
 50
339.6431372921265961
 51
359.7894446984544174
  0
LINE
  5
F72E
  8
0
 10
4322.628947062034058
 20
184.585793252808088
 30
0.0
 11
4322.4010694977441744
 21
184.585793252808088
 31
0.0
  0
LINE
  5
F72F
  8
0
 10
4322.6292931899770338
 20
184.5465681874080985
 30
0.0
 11
4322.4007233698021082
 21
184.5465681874080985
 31
0.0
  0
LINE
  5
F730
  8
0
 10
4322.6175082804356862
 20
184.480421032108211
 30
0.0
 11
4322.4125082793416368
 21
184.480421032108211
 31
0.0
  0
LINE
  5
F731
  8
0
 10
4322.61756795941983
 20
184.443471828508109
 30
0.0
 11
4322.412448600359312
 21
184.443471828508109
 31
0.0
  0
LINE
  5
F732
  8
0
 10
4322.6175082798899894
 20
184.382510261008207
 30
0.0
 11
4322.4125082798900621
 21
184.382510261008207
 31
0.0
  0
LINE
  5
F733
  8
0
 10
4322.620141149205665
 20
184.3492568563081022
 30
0.0
 11
4322.409875410571658
 21
184.3492568563081022
 31
0.0
  0
LINE
  5
F734
  8
0
 10
4322.6175082798899894
 20
184.2958235955082102
 30
0.0
 11
4322.4125082798900621
 21
184.2958235955082102
 31
0.0
  0
LINE
  5
F735
  8
0
 10
4322.6175082798899894
 20
184.2675438993080945
 30
0.0
 11
4322.4125082798891526
 21
184.2675438993080945
 31
0.0
  0
LINE
  5
F736
  8
0
 10
4322.6175082798899894
 20
184.2236923555005887
 30
0.0
 11
4322.4125082436421508
 21
184.2236923555005887
 31
0.0
  0
LINE
  5
F737
  8
0
 10
4322.6175082798899894
 20
184.2014731407915917
 30
0.0
 11
4322.4125082436394223
 21
184.2014731407915917
 31
0.0
  0
LINE
  5
F738
  8
0
 10
4322.6175082798899894
 20
184.1688885041332924
 30
0.0
 11
4322.4125082798900621
 21
184.1688885041332924
 31
0.0
  0
LINE
  5
F739
  8
0
 10
4322.6175082798899894
 20
184.1535836428508048
 30
0.0
 11
4322.4125082798900621
 21
184.1535836428508048
 31
0.0
  0
LINE
  5
F73A
  8
0
 10
4322.6175082798899894
 20
184.1335181226712905
 30
0.0
 11
4322.4125082798900621
 21
184.1335181226712905
 31
0.0
  0
LINE
  5
F73B
  8
0
 10
4322.6175082798899894
 20
184.1257157720513931
 30
0.0
 11
4322.4125082798900621
 21
184.1257157720513931
 31
0.0
  0
LINE
  5
F73C
  8
0
 10
4322.4125010963107343
 20
184.1189404750384142
 30
0.0
 11
4322.6175083161379007
 21
184.1189404750384142
 31
0.0
  0
ARC
  5
F73D
  8
0
 10
4322.6174914178245672
 20
184.1458221871413912
 30
0.0
 40
0.0201064221606124
 50
270.0481538751641892
 51
354.5901048721643747
  0
ARC
  5
F73E
  8
0
 10
4322.6174914178245672
 20
184.1536245377612886
 30
0.0
 40
0.0201064221606124
 50
270.0481538751641892
 51
354.5901048721643747
  0
ARC
  5
F73F
  8
0
 10
4322.6174914178245672
 20
184.1736900579408029
 30
0.0
 40
0.0201064221606124
 50
270.0481538751641892
 51
354.5901048721643747
  0
ARC
  5
F740
  8
0
 10
4322.6174914178245672
 20
184.1889949192232905
 30
0.0
 40
0.0201064221606124
 50
270.0481538751641892
 51
354.5901048721643747
  0
ARC
  5
F741
  8
0
 10
4322.6174914178245672
 20
184.2215795558815898
 30
0.0
 40
0.0201064221606124
 50
270.0481538751641892
 51
354.5901048721643747
  0
ARC
  5
F742
  8
0
 10
4322.6174914178245672
 20
184.2437987705905869
 30
0.0
 40
0.0201064221606124
 50
270.0481538751641892
 51
354.5901048721643747
  0
ARC
  5
F743
  8
0
 10
4322.6172458036407988
 20
184.2879608368477875
 30
0.0
 40
0.0204186246422069
 50
270.7365430191038058
 51
352.909607050071088
  0
ARC
  5
F744
  8
0
 10
4322.6156736553093651
 20
184.3342164857957926
 30
0.0
 40
0.0384366995459632
 50
272.735828030333721
 51
304.6155486948367752
  0
ARC
  5
F745
  8
0
 10
4322.6188247140926251
 20
184.3688447861358952
 30
0.0
 40
0.0196321164508832
 50
273.8448638568979732
 51
342.1166590450931722
  0
ARC
  5
F746
  8
0
 10
4322.6112824870360782
 20
184.5060422892103986
 30
0.0
 40
0.123688813109454
 50
272.8851635146767762
 51
282.2413675209091934
  0
ARC
  5
F747
  8
0
 10
4322.6175381174052745
 20
184.4638790542211098
 30
0.0
 40
0.0204072475323024
 50
270.083785044155718
 51
348.1202692173084756
  0
LINE
  5
F748
  8
0
 10
4322.6175082798899894
 20
184.4804210320808124
 30
0.0
 11
4322.6375082798886069
 21
184.4814195709454907
 31
0.0
  0
ARC
  5
F749
  8
0
 10
4322.6234007349403328
 20
184.5612116431815934
 30
0.0
 40
0.0157845438116747
 50
291.9196132881380095
 51
333.3492013061684247
  0
ARC
  5
F74A
  8
0
 10
4322.6268392136416878
 20
184.5737217795702918
 30
0.0
 40
0.0122541213874428
 50
29.4655912738376706
 51
80.0952141292749644
  0
ARC
  5
F74B
  8
0
 10
4322.4109790017264459
 20
184.1385300613482059
 30
0.0
 40
0.018470789312874
 50
180.1548711565280882
 51
200.2538019962622116
  0
ARC
  5
F74C
  8
0
 10
4322.4125251419836786
 20
184.1458221871567105
 30
0.0
 40
0.0201064221923761
 50
185.4098951628272118
 51
269.9519493341416023
  0
ARC
  5
F74D
  8
0
 10
4322.4125251419527558
 20
184.1536245377612886
 30
0.0
 40
0.0201064221606122
 50
185.4098951278307084
 51
269.9519494208529977
  0
ARC
  5
F74E
  8
0
 10
4322.4125251419527558
 20
184.1736900579408029
 30
0.0
 40
0.0201064221606124
 50
185.4098951278371885
 51
269.9519494208529977
  0
ARC
  5
F74F
  8
0
 10
4322.4125251419527558
 20
184.1889949192232905
 30
0.0
 40
0.0201064221606116
 50
185.4098951278388085
 51
269.9519494208529977
  0
ARC
  5
F750
  8
0
 10
4322.4125251420091445
 20
184.2215795559096989
 30
0.0
 40
0.0201064222191325
 50
185.4098951922981939
 51
269.9518459650137743
  0
ARC
  5
F751
  8
0
 10
4322.4125251420091445
 20
184.2437987706186959
 30
0.0
 40
0.0201064222191308
 50
185.409895192299814
 51
269.9518459650658997
  0
ARC
  5
F752
  8
0
 10
4322.4127707561374336
 20
184.2879608368477875
 30
0.0
 40
0.0204186246422096
 50
187.0903929499303899
 51
269.2634569808963079
  0
ARC
  5
F753
  8
0
 10
4322.4143429044697768
 20
184.3342164857957926
 30
0.0
 40
0.0384366995459632
 50
235.3844513051631964
 51
267.264171969666279
  0
ARC
  5
F754
  8
0
 10
4322.4111918456846979
 20
184.3688447861358952
 30
0.0
 40
0.0196321164508832
 50
197.8833409549145017
 51
266.1551361431020268
  0
ARC
  5
F755
  8
0
 10
4322.4187340727430637
 20
184.5060422892103986
 30
0.0
 40
0.123688813109454
 50
257.7586324790908066
 51
267.1148364853232238
  0
ARC
  5
F756
  8
0
 10
4322.4124784423729579
 20
184.4638790542211098
 30
0.0
 40
0.0204072475323024
 50
191.8797307826914107
 51
269.916214955844282
  0
LINE
  5
F757
  8
0
 10
4322.4125082798900621
 20
184.4804210320808124
 30
0.0
 11
4322.3925082798887161
 21
184.4814195709454907
 31
0.0
  0
ARC
  5
F758
  8
0
 10
4322.4066158248388092
 20
184.5612116431815934
 30
0.0
 40
0.0157845438116747
 50
206.6507986938316037
 51
248.0803867118619905
  0
ARC
  5
F759
  8
0
 10
4322.4031773461383636
 20
184.5737217795702918
 30
0.0
 40
0.0122541213874428
 50
99.9047858707250498
 51
150.5344087261622974
  0
LINE
  5
F75A
  8
0
 10
4322.628947062034058
 20
184.6545839978082029
 30
0.0
 11
4322.4010694977441744
 21
184.6545839978082029
 31
0.0
  0
ARC
  5
F75B
  8
0
 10
4322.6268392136416878
 20
184.6666554710459991
 30
0.0
 40
0.0122541213874428
 50
279.9047858707249929
 51
330.5344087261623258
  0
ARC
  5
F75C
  8
0
 10
4322.4031773461383636
 20
184.6666554710459991
 30
0.0
 40
0.0122541213874428
 50
209.4655912738377026
 51
260.0952141292748934
  0
ENDSEC
  0
EOF
