  0
SECTION
  2
HEADER
  9
$ACADVER
  1
AC1009
  9
$INSBASE
 10
4325.8669771383456464
 20
193.9820343580437054
 30
0.0
  9
$EXTMIN
 10
4318.8050995772609895
 20
189.5922774623882958
 30
-0.0000000000112498
  9
$EXTMAX
 10
4333.0197370669875454
 20
193.9881136617412096
 30
0.0000000000002956
  9
$LIMMIN
 10
0.0
 20
0.0
  9
$LIMMAX
 10
11.6929133858000007
 20
8.2677165353999982
  9
$ORTHOMODE
 70
     0
  9
$REGENMODE
 70
     1
  9
$FILLMODE
 70
     1
  9
$QTEXTMODE
 70
     0
  9
$MIRRTEXT
 70
     0
  9
$DRAGMODE
 70
     2
  9
$LTSCALE
 40
0.6431102362
  9
$OSMODE
 70
     7
  9
$ATTMODE
 70
     1
  9
$TEXTSIZE
 40
0.2
  9
$TRACEWID
 40
0.05
  9
$TEXTSTYLE
  7
STANDARD
  9
$CLAYER
  8
0
  9
$CELTYPE
  6
BYLAYER
  9
$CECOLOR
 62
   256
  9
$DIMSCALE
 40
1.0
  9
$DIMASZ
 40
0.1875
  9
$DIMEXO
 40
0.0625
  9
$DIMDLI
 40
0.4443307087
  9
$DIMRND
 40
0.0
  9
$DIMDLE
 40
0.0
  9
$DIMEXE
 40
0.125
  9
$DIMTP
 40
0.01
  9
$DIMTM
 40
0.01
  9
$DIMTXT
 40
2.0
  9
$DIMCEN
 40
0.1052362205
  9
$DIMTSZ
 40
0.0
  9
$DIMTOL
 70
     1
  9
$DIMLIM
 70
     0
  9
$DIMTIH
 70
     1
  9
$DIMTOH
 70
     1
  9
$DIMSE1
 70
     0
  9
$DIMSE2
 70
     0
  9
$DIMTAD
 70
     0
  9
$DIMZIN
 70
     0
  9
$DIMBLK
  1

  9
$DIMASO
 70
     1
  9
$DIMSHO
 70
     1
  9
$DIMPOST
  1
\X
  9
$DIMAPOST
  1

  9
$DIMALT
 70
     1
  9
$DIMALTD
 70
     2
  9
$DIMALTF
 40
25.3999999999999986
  9
$DIMLFAC
 40
1.0
  9
$DIMTOFL
 70
     0
  9
$DIMTVP
 40
0.0
  9
$DIMTIX
 70
     0
  9
$DIMSOXD
 70
     0
  9
$DIMSAH
 70
     0
  9
$DIMBLK1
  1

  9
$DIMBLK2
  1

  9
$DIMSTYLE
  2
STANDARD
  9
$DIMCLRD
 70
     0
  9
$DIMCLRE
 70
     0
  9
$DIMCLRT
 70
     0
  9
$DIMTFAC
 40
1.0
  9
$DIMGAP
 40
0.09
  9
$LUNITS
 70
     2
  9
$LUPREC
 70
     4
  9
$SKETCHINC
 40
0.1
  9
$FILLETRAD
 40
0.0
  9
$AUNITS
 70
     0
  9
$AUPREC
 70
     0
  9
$MENU
  1
.
  9
$ELEVATION
 40
0.0
  9
$PELEVATION
 40
0.0
  9
$THICKNESS
 40
0.0
  9
$LIMCHECK
 70
     0
  9
$BLIPMODE
 70
     0
  9
$CHAMFERA
 40
0.0
  9
$CHAMFERB
 40
0.0
  9
$SKPOLY
 70
     0
  9
$TDCREATE
 40
2458060.468368056230247
  9
$TDUPDATE
 40
2459579.6158564807847142
  9
$TDINDWG
 40
0.4493357639
  9
$TDUSRTIMER
 40
0.4493357639
  9
$USRTIMER
 70
     1
  9
$ANGBASE
 50
0.0
  9
$ANGDIR
 70
     0
  9
$PDMODE
 70
     0
  9
$PDSIZE
 40
0.3125
  9
$PLINEWID
 40
0.0
  9
$COORDS
 70
     1
  9
$SPLFRAME
 70
     0
  9
$SPLINETYPE
 70
     6
  9
$SPLINESEGS
 70
     8
  9
$ATTDIA
 70
     1
  9
$ATTREQ
 70
     1
  9
$HANDLING
 70
     1
  9
$HANDSEED
  5
F696
  9
$SURFTAB1
 70
     6
  9
$SURFTAB2
 70
     6
  9
$SURFTYPE
 70
     6
  9
$SURFU
 70
     6
  9
$SURFV
 70
     6
  9
$UCSNAME
  2

  9
$UCSORG
 10
0.0
 20
0.0
 30
0.0
  9
$UCSXDIR
 10
1.0
 20
0.0
 30
0.0
  9
$UCSYDIR
 10
0.0
 20
1.0
 30
0.0
  9
$PUCSNAME
  2

  9
$PUCSORG
 10
0.0
 20
0.0
 30
0.0
  9
$PUCSXDIR
 10
1.0
 20
0.0
 30
0.0
  9
$PUCSYDIR
 10
0.0
 20
1.0
 30
0.0
  9
$USERI1
 70
     0
  9
$USERI2
 70
     0
  9
$USERI3
 70
     0
  9
$USERI4
 70
     0
  9
$USERI5
 70
     0
  9
$USERR1
 40
0.0
  9
$USERR2
 40
0.0
  9
$USERR3
 40
0.0
  9
$USERR4
 40
0.0
  9
$USERR5
 40
0.0
  9
$WORLDVIEW
 70
     1
  9
$SHADEDGE
 70
     3
  9
$SHADEDIF
 70
    70
  9
$TILEMODE
 70
     1
  9
$MAXACTVP
 70
    64
  9
$PLIMCHECK
 70
     0
  9
$PEXTMIN
 10
1.0000000000000000E+20
 20
1.0000000000000000E+20
 30
1.0000000000000000E+20
  9
$PEXTMAX
 10
-1.0000000000000000E+20
 20
-1.0000000000000000E+20
 30
-1.0000000000000000E+20
  9
$PLIMMIN
 10
0.0
 20
0.0
  9
$PLIMMAX
 10
12.0
 20
9.0
  9
$UNITMODE
 70
     0
  9
$VISRETAIN
 70
     1
  9
$PLINEGEN
 70
     0
  9
$PSLTSCALE
 70
     1
  0
ENDSEC
  0
SECTION
  2
TABLES
  0
TABLE
  2
VPORT
 70
     1
  0
VPORT
  2
*ACTIVE
 70
     0
 10
0.0
 20
0.0
 11
1.0
 21
1.0
 12
522.3683509393122222
 22
65.7949333653148329
 13
0.0
 23
0.0
 14
1.0
 24
1.0
 15
0.0
 25
0.0
 16
0.0
 26
0.0
 36
17.1152628219792007
 17
3803.5440673828129547
 27
125.9952621967499056
 37
0.0
 40
6.2454014998422638
 41
2.2831541218637992
 42
50.0
 43
0.0
 44
0.0
 50
0.0
 51
0.0
 71
     0
 72
   100
 73
     1
 74
     1
 75
     0
 76
     0
 77
     0
 78
     0
  0
ENDTAB
  0
TABLE
  2
LTYPE
 70
     2
  0
LTYPE
  2
CONTINUOUS
 70
     0
  3
Solid line
 72
    65
 73
     0
 40
0.0
  0
LTYPE
  2
PHANTOM2
 70
     0
  3
___ _ _ ___ _ _ ___ _ _ ___ _ _
 72
    65
 73
     6
 40
1.25
 49
0.625
 49
-0.125
 49
0.125
 49
-0.125
 49
0.125
 49
-0.125
  0
ENDTAB
  0
TABLE
  2
LAYER
 70
     2
  0
LAYER
  2
0
 70
     0
 62
   255
  6
CONTINUOUS
  0
LAYER
  2
DEFPOINTS
 70
     0
 62
     7
  6
CONTINUOUS
  0
ENDTAB
  0
TABLE
  2
STYLE
 70
     1
  0
STYLE
  2
STANDARD
 70
     0
 40
0.0
 41
0.8
 50
0.0
 71
     0
 42
0.2
  3
txt
  4

  0
ENDTAB
  0
TABLE
  2
VIEW
 70
     0
  0
ENDTAB
  0
TABLE
  2
UCS
 70
     0
  0
ENDTAB
  0
TABLE
  2
APPID
 70
     9
  0
APPID
  2
ACAD
 70
     0
  0
APPID
  2
ACAD_MLEADERVER
 70
     0
  0
APPID
  2
ACAD_EXEMPT_FROM_CAD_STANDARDS
 70
     0
  0
APPID
  2
ACAD_NAV_VCDISPLAY
 70
     0
  0
APPID
  2
ACAECLAYERSTANDARD
 70
     0
  0
APPID
  2
ACCMTRANSPARENCY
 70
     0
  0
APPID
  2
ACAD_DSTYLE_DIMJAG
 70
     0
  0
APPID
  2
ACAD_DSTYLE_DIMTALN
 70
     0
  0
APPID
  2
ACDBATTR
 70
     0
  0
ENDTAB
  0
TABLE
  2
DIMSTYLE
 70
     1
  0
DIMSTYLE
  2
STANDARD
 70
     0
  3

  4

  5

  6

  7

 40
1.0
 41
0.1875
 42
0.0625
 43
0.38
 44
0.125
 45
0.0
 46
0.0
 47
0.01
 48
0.01
140
0.15625
141
0.09
142
0.0
143
25.3999999999999986
144
1.0
145
0.0
146
1.0
147
0.09
 71
     1
 72
     0
 73
     1
 74
     1
 75
     0
 76
     0
 77
     0
 78
     4
170
     0
171
     2
172
     0
173
     0
174
     0
175
     0
176
     0
177
     0
178
     0
  0
ENDTAB
  0
ENDSEC
  0
SECTION
  2
BLOCKS
  0
BLOCK
  8
0
  2
$MODEL_SPACE
 70
     0
 10
0.0
 20
0.0
 30
0.0
  3
$MODEL_SPACE
  1

  0
ENDBLK
  5
21
  8
0
  0
BLOCK
 67
     1
  8
0
  2
$PAPER_SPACE
 70
     0
 10
0.0
 20
0.0
 30
0.0
  3
$PAPER_SPACE
  1

  0
ENDBLK
  5
1D
 67
     1
  8
0
  0
ENDSEC
  0
SECTION
  2
ENTITIES
  0
ATTDEF
  5
3930
  8
DEFPOINTS
 10
4325.8669822055589975
 20
193.9853756582814128
 30
0.0
 40
0.001
  1
P21356-LV
  3

  2
MODELNUMBER
 70
     0
1001
ACDBATTR
1070
     0
1070
     1
  0
ATTDEF
  5
3931
  8
DEFPOINTS
 10
4325.8669822055589975
 20
193.9837089916148045
 30
0.0
 40
0.001
  1
CENTRAL PARK WEST
  3

  2
TRADENAME
 70
     0
1001
ACDBATTR
1070
     0
1070
     1
  0
ATTDEF
  5
3932
  8
DEFPOINTS
 10
4325.8669822055589975
 20
193.9820423249481109
 30
0.0
 40
0.001
  1
BATH FAUCET HANDLES
  3

  2
PRODUCT
 70
     0
1001
ACDBATTR
1070
     0
1070
     1
  0
LINE
  5
F34A
  8
0
 10
4329.0996771383470332
 20
193.4550343580436902
 30
0.0
 11
4329.0996771383470332
 21
191.1636363580437035
 31
0.0
  0
LINE
  5
F34B
  8
0
 10
4329.0996771383470332
 20
191.1136363580436921
 30
0.0
 11
4329.0996771383470332
 21
191.033636358043708
 31
0.0
  0
LINE
  5
F34C
  8
0
 10
4329.1146771383464511
 20
191.0186363580436932
 30
0.0
 11
4330.6192771383457512
 21
191.0186363580436932
 31
0.0
  0
LINE
  5
F34D
  8
0
 10
4329.1146771383464511
 20
191.1286363580437069
 30
0.0
 11
4330.6192771383457512
 21
191.1286363580437069
 31
0.0
  0
LINE
  5
F34E
  8
0
 10
4329.1146771383464511
 20
191.1486363580436887
 30
0.0
 11
4330.6192771383457512
 21
191.1486363580436887
 31
0.0
  0
LINE
  5
F34F
  8
0
 10
4329.1769771383469561
 20
191.1286363580437069
 30
0.0
 11
4329.1769771383469561
 21
191.1486363580436887
 31
0.0
  0
ARC
  5
F350
  8
0
 10
4329.1146771383464511
 20
191.1136363580436921
 30
0.0
 40
0.0149999999999997
 50
90.0
 51
180.0
  0
ARC
  5
F351
  8
0
 10
4329.1146771383464511
 20
191.1636363580437035
 30
0.0
 40
0.0149999999999961
 50
179.9999999999870113
 51
270.0
  0
ARC
  5
F352
  8
0
 10
4329.1146771383464511
 20
191.033636358043708
 30
0.0
 40
0.0150000000000077
 50
180.0000000000163141
 51
270.0
  0
LINE
  5
F353
  8
0
 10
4329.4369771383471743
 20
190.6096363580437014
 30
0.0
 11
4330.2969771383459374
 21
190.6096363580437014
 31
0.0
  0
LINE
  5
F354
  8
0
 10
4329.4929771383458501
 20
190.5006363580436926
 30
0.0
 11
4330.2409771383463521
 21
190.5006363580436926
 31
0.0
  0
LINE
  5
F355
  8
0
 10
4329.4034771383458065
 20
190.4296363580436946
 30
0.0
 11
4330.3304771383463958
 21
190.4296363580436946
 31
0.0
  0
LINE
  5
F356
  8
0
 10
4329.4034771383458065
 20
189.5936363580437103
 30
0.0
 11
4330.3304771383463958
 21
189.5936363580437103
 31
0.0
  0
LINE
  5
F357
  8
0
 10
4329.388477138347298
 20
189.6086363580436966
 30
0.0
 11
4329.388477138347298
 21
189.6642185547636927
 31
0.0
  0
LINE
  5
F358
  8
0
 10
4329.388477138347298
 20
190.3590541613235985
 30
0.0
 11
4329.388477138347298
 21
190.4146363580437082
 31
0.0
  0
ARC
  5
F359
  8
0
 10
4329.4034771383458065
 20
189.6086363580436966
 30
0.0
 40
0.0150000000000006
 50
180.0
 51
270.0
  0
ARC
  5
F35A
  8
0
 10
4329.4034771383458065
 20
190.4146363580437082
 30
0.0
 40
0.0149999999999997
 50
90.0
 51
180.0000000000032117
  0
ARC
  5
F35B
  8
0
 10
4329.2094745978138235
 20
190.0116363580436882
 30
0.0
 40
0.3332795778696924
 50
336.0101112077601897
 51
23.9898887922397392
  0
ARC
  5
F35C
  8
0
 10
4328.9249044866501208
 20
190.1176017976605976
 30
0.0
 40
0.6366309091176767
 50
329.3706969496553256
 51
337.7101934961294774
  0
ARC
  5
F35D
  8
0
 10
4328.3323524612087567
 20
190.4659526022961984
 30
0.0
 40
1.323991057669538
 50
323.0512111233592236
 51
329.4635169297246762
  0
ARC
  5
F35E
  8
0
 10
4329.398351448550784
 20
189.6641775896038098
 30
0.0
 40
0.0098743951788386
 50
143.1440311034463946
 51
180.237699370367892
  0
ARC
  5
F35F
  8
0
 10
4328.9249044866501208
 20
189.9056709184268072
 30
0.0
 40
0.6366309091176767
 50
22.2898065038705191
 51
30.6293030503446992
  0
ARC
  5
F360
  8
0
 10
4328.3323524612087567
 20
189.5573201137910928
 30
0.0
 40
1.323991057669538
 50
30.5364830702752883
 51
36.9487888766408688
  0
ARC
  5
F361
  8
0
 10
4329.398351448550784
 20
190.3590951264835098
 30
0.0
 40
0.0098743951788386
 50
180.2376993695797864
 51
216.8559688965534917
  0
ARC
  5
F362
  8
0
 10
4329.4729771383472325
 20
190.4396363580437139
 30
0.0
 40
0.0099999999999972
 50
270.0
 51
0.0000000000048853
  0
LINE
  5
F363
  8
0
 10
4329.4829771383456318
 20
190.4396363580437139
 30
0.0
 11
4329.4829771383456318
 21
190.4906363580437016
 31
0.0
  0
ARC
  5
F364
  8
0
 10
4329.4929771383458501
 20
190.4906363580437016
 30
0.0
 40
0.0099999999999998
 50
90.0
 51
180.0
  0
ARC
  5
F365
  8
0
 10
4329.5534771383463521
 20
190.5106363580437119
 30
0.0
 40
0.0099999999999928
 50
270.0
 51
0.0000000000195413
  0
LINE
  5
F366
  8
0
 10
4329.5634771383456609
 20
190.5106363580437119
 30
0.0
 11
4329.5634771383456609
 21
190.5996363580437105
 31
0.0
  0
ARC
  5
F367
  8
0
 10
4329.5534771383472616
 20
190.5996363580437105
 30
0.0
 40
0.0099999999999752
 50
359.999999999933209
 51
90.0
  0
ARC
  5
F368
  8
0
 10
4329.4369771383471743
 20
190.6196363580436923
 30
0.0
 40
0.0100000000000007
 50
180.0
 51
270.0
  0
LINE
  5
F369
  8
0
 10
4329.4269771383460466
 20
190.6196363580436923
 30
0.0
 11
4329.4269771383460466
 21
190.6816363580437041
 31
0.0
  0
ARC
  5
F36A
  8
0
 10
4329.4169771383458283
 20
190.6816363580437041
 30
0.0
 40
0.0099999999999998
 50
359.9999999999984084
 51
90.0
  0
ARC
  5
F36B
  8
0
 10
4329.4169771383458283
 20
190.9466363580436905
 30
0.0
 40
0.0099999999999953
 50
270.0
 51
0.0000000000097707
  0
LINE
  5
F36C
  8
0
 10
4329.4269771383460466
 20
190.9466363580436905
 30
0.0
 11
4329.4269771383460466
 21
191.0086363580437023
 31
0.0
  0
ARC
  5
F36D
  8
0
 10
4329.4369771383471743
 20
191.0086363580437023
 30
0.0
 40
0.0099999999999998
 50
90.0
 51
180.0
  0
ARC
  5
F36E
  8
0
 10
4329.4169771383458283
 20
190.6816363580437041
 30
0.0
 40
0.0099999999999953
 50
359.9999999999902229
 51
90.0
  0
LINE
  5
F36F
  8
0
 10
4330.6342771383460786
 20
193.4550343580436902
 30
0.0
 11
4330.6342771383460786
 21
191.1636363580437035
 31
0.0
  0
LINE
  5
F370
  8
0
 10
4330.6342771383460786
 20
191.1136363580436921
 30
0.0
 11
4330.6342771383460786
 21
191.033636358043708
 31
0.0
  0
LINE
  5
F371
  8
0
 10
4330.5569771383470652
 20
191.1286363580437069
 30
0.0
 11
4330.5569771383470652
 21
191.1486363580436887
 31
0.0
  0
ARC
  5
F372
  8
0
 10
4330.6192771383457512
 20
191.1136363580436921
 30
0.0
 40
0.0149999999999997
 50
0.0
 51
90.0
  0
ARC
  5
F373
  8
0
 10
4330.6192771383457512
 20
191.1636363580437035
 30
0.0
 40
0.0149999999999961
 50
270.0
 51
0.0000000000130276
  0
ARC
  5
F374
  8
0
 10
4330.6192771383457512
 20
191.033636358043708
 30
0.0
 40
0.0150000000000077
 50
270.0
 51
359.9999999999836859
  0
LINE
  5
F375
  8
0
 10
4330.3454771383458137
 20
189.6086363580436966
 30
0.0
 11
4330.3454771383458137
 21
189.6642185547636927
 31
0.0
  0
LINE
  5
F376
  8
0
 10
4330.3454771383458137
 20
190.3590541613235985
 30
0.0
 11
4330.3454771383458137
 21
190.4146363580437082
 31
0.0
  0
ARC
  5
F377
  8
0
 10
4330.3304771383463958
 20
189.6086363580436966
 30
0.0
 40
0.0150000000000006
 50
270.0
 51
0.0
  0
ARC
  5
F378
  8
0
 10
4330.3304771383463958
 20
190.4146363580437082
 30
0.0
 40
0.0149999999999997
 50
359.9999999999968168
 51
90.0
  0
ARC
  5
F379
  8
0
 10
4330.5244796788811072
 20
190.0116363580436882
 30
0.0
 40
0.3332795778696924
 50
156.0101112077601897
 51
203.9898887922396966
  0
ARC
  5
F37A
  8
0
 10
4330.8090497900429909
 20
190.1176017976605976
 30
0.0
 40
0.6366309091176767
 50
202.2898065038704942
 51
210.6293030503447028
  0
ARC
  5
F37B
  8
0
 10
4331.4016018154852645
 20
190.4659526022961984
 30
0.0
 40
1.323991057669538
 50
210.5364830702752954
 51
216.9487888766408901
  0
ARC
  5
F37C
  8
0
 10
4330.3356028281432373
 20
189.6641775896038098
 30
0.0
 40
0.0098743951788386
 50
359.7623006296320227
 51
36.8559688965535628
  0
ARC
  5
F37D
  8
0
 10
4330.8090497900429909
 20
189.9056709184268072
 30
0.0
 40
0.6366309091176767
 50
149.3706969496552972
 51
157.7101934961295058
  0
ARC
  5
F37E
  8
0
 10
4331.4016018154852645
 20
189.5573201137910928
 30
0.0
 40
1.323991057669538
 50
143.0512111233591099
 51
149.4635169297247046
  0
ARC
  5
F37F
  8
0
 10
4330.3356028281432373
 20
190.3590951264835098
 30
0.0
 40
0.0098743951788386
 50
323.144031103446423
 51
359.7623006304202136
  0
ARC
  5
F380
  8
0
 10
4330.2609771383467887
 20
190.4396363580437139
 30
0.0
 40
0.0099999999999972
 50
179.9999999999951115
 51
270.0
  0
LINE
  5
F381
  8
0
 10
4330.2509771383465704
 20
190.4396363580437139
 30
0.0
 11
4330.2509771383465704
 21
190.4906363580437016
 31
0.0
  0
ARC
  5
F382
  8
0
 10
4330.2409771383463521
 20
190.4906363580437016
 30
0.0
 40
0.0099999999999998
 50
0.0
 51
90.0
  0
ARC
  5
F383
  8
0
 10
4330.1804771383458501
 20
190.5106363580437119
 30
0.0
 40
0.0099999999999928
 50
179.9999999999787974
 51
270.0
  0
LINE
  5
F384
  8
0
 10
4330.1704771383456318
 20
190.5106363580437119
 30
0.0
 11
4330.1704771383456318
 21
190.5996363580437105
 31
0.0
  0
ARC
  5
F385
  8
0
 10
4330.1804771383458501
 20
190.5996363580437105
 30
0.0
 40
0.0099999999999752
 50
90.0
 51
180.0000000000667058
  0
ARC
  5
F386
  8
0
 10
4330.2969771383459374
 20
190.6196363580436923
 30
0.0
 40
0.0100000000000007
 50
270.0
 51
0.0
  0
LINE
  5
F387
  8
0
 10
4330.3069771383470652
 20
190.6196363580436923
 30
0.0
 11
4330.3069771383470652
 21
190.6816363580437041
 31
0.0
  0
ARC
  5
F388
  8
0
 10
4330.316977138346374
 20
190.6816363580437041
 30
0.0
 40
0.0099999999999998
 50
90.0
 51
180.0
  0
ARC
  5
F389
  8
0
 10
4330.316977138346374
 20
190.9466363580436905
 30
0.0
 40
0.0099999999999953
 50
179.9999999999901945
 51
270.0
  0
LINE
  5
F38A
  8
0
 10
4330.3069771383470652
 20
190.9466363580436905
 30
0.0
 11
4330.3069771383470652
 21
191.0086363580437023
 31
0.0
  0
ARC
  5
F38B
  8
0
 10
4330.2969771383459374
 20
191.0086363580437023
 30
0.0
 40
0.0099999999999998
 50
359.9999999999984084
 51
90.0
  0
ARC
  5
F38C
  8
0
 10
4330.316977138346374
 20
190.6816363580437041
 30
0.0
 40
0.0099999999999953
 50
90.0
 51
180.0000000000098055
  0
LINE
  5
F38D
  8
0
 10
4329.3308765101901372
 20
190.9366363580436996
 30
0.0
 11
4330.4030777665029746
 21
190.9366363580436996
 31
0.0
  0
LINE
  5
F38E
  8
0
 10
4329.3308765101910467
 20
190.6916363580436951
 30
0.0
 11
4330.4030777665020651
 21
190.6916363580436951
 31
0.0
  0
ARC
  5
F38F
  8
0
 10
4329.3314048403226479
 20
190.711632851268007
 30
0.0
 40
0.0200679900829191
 50
180.0104975780641041
 51
249.9727994582192991
  0
ARC
  5
F390
  8
0
 10
4329.3314432656361532
 20
190.9166194959794041
 30
0.0
 40
0.0201064221606124
 50
110.3568627078774966
 51
179.951846124838994
  0
ARC
  5
F391
  8
0
 10
4329.3309451365194036
 20
190.9179620177197023
 30
0.0
 40
0.0186744664209933
 50
90.2105553015438772
 51
110.3568627078768998
  0
LINE
  5
F392
  8
0
 10
4329.7781896283458991
 20
190.928075140188696
 30
0.0
 11
4329.7781896283458991
 21
190.7001975758986134
 31
0.0
  0
LINE
  5
F393
  8
0
 10
4329.7389645629464212
 20
190.9284212681309896
 30
0.0
 11
4329.7389645629464212
 21
190.6998514479564051
 31
0.0
  0
LINE
  5
F394
  8
0
 10
4329.6728174076461073
 20
190.9166363585906936
 30
0.0
 11
4329.6728174076461073
 21
190.7116363574965874
 31
0.0
  0
LINE
  5
F395
  8
0
 10
4329.6358682040463464
 20
190.9166960375744111
 30
0.0
 11
4329.6358682040463464
 21
190.7115766785128983
 31
0.0
  0
LINE
  5
F396
  8
0
 10
4329.5749066365469844
 20
190.9166363580436894
 30
0.0
 11
4329.5749066365469844
 21
190.7116363580437053
 31
0.0
  0
LINE
  5
F397
  8
0
 10
4329.5416532318467944
 20
190.9192692273605019
 30
0.0
 11
4329.5416532318467944
 21
190.7090034887268928
 31
0.0
  0
LINE
  5
F398
  8
0
 10
4329.4882199710464192
 20
190.9166363580436894
 30
0.0
 11
4329.4882199710464192
 21
190.7116363580437053
 31
0.0
  0
LINE
  5
F399
  8
0
 10
4329.459940274847213
 20
190.9166363580436894
 30
0.0
 11
4329.459940274847213
 21
190.7116363580435063
 31
0.0
  0
LINE
  5
F39A
  8
0
 10
4329.4160887310390535
 20
190.9166363580436894
 30
0.0
 11
4329.4160887310390535
 21
190.7116363217959076
 31
0.0
  0
LINE
  5
F39B
  8
0
 10
4329.393869516329687
 20
190.9166363580436894
 30
0.0
 11
4329.393869516329687
 21
190.7116363217928949
 31
0.0
  0
LINE
  5
F39C
  8
0
 10
4329.3612848796719845
 20
190.9166363580436894
 30
0.0
 11
4329.3612848796719845
 21
190.7116363580437053
 31
0.0
  0
LINE
  5
F39D
  8
0
 10
4329.3459800183891275
 20
190.9166363580436894
 30
0.0
 11
4329.3459800183891275
 21
190.7116363580437053
 31
0.0
  0
LINE
  5
F39E
  8
0
 10
4329.3259144982102953
 20
190.9166363580436894
 30
0.0
 11
4329.3259144982102953
 21
190.7116363580437053
 31
0.0
  0
LINE
  5
F39F
  8
0
 10
4329.3181121475899999
 20
190.9166363580436894
 30
0.0
 11
4329.3181121475899999
 21
190.7116363580437053
 31
0.0
  0
LINE
  5
F3A0
  8
0
 10
4329.3113368505773906
 20
190.711629174465088
 30
0.0
 11
4329.3113368505773906
 21
190.9166363942927092
 31
0.0
  0
ARC
  5
F3A1
  8
0
 10
4329.3382185626787759
 20
190.9166194959794041
 30
0.0
 40
0.0201064221606124
 50
95.4098951278434839
 51
179.951846124838994
  0
ARC
  5
F3A2
  8
0
 10
4329.3460209132999807
 20
190.9166194959794041
 30
0.0
 40
0.0201064221606124
 50
95.4098951278434839
 51
179.951846124838994
  0
ARC
  5
F3A3
  8
0
 10
4329.3660864334797225
 20
190.9166194959794041
 30
0.0
 40
0.0201064221606124
 50
95.4098951278434839
 51
179.951846124838994
  0
ARC
  5
F3A4
  8
0
 10
4329.38139129476167
 20
190.9166194959794041
 30
0.0
 40
0.0201064221606124
 50
95.4098951278434839
 51
179.951846124838994
  0
ARC
  5
F3A5
  8
0
 10
4329.413975931420282
 20
190.9166194959794041
 30
0.0
 40
0.0201064221606124
 50
95.4098951278434839
 51
179.951846124838994
  0
ARC
  5
F3A6
  8
0
 10
4329.436195146128739
 20
190.9166194959794041
 30
0.0
 40
0.0201064221606124
 50
95.4098951278434839
 51
179.951846124838994
  0
ARC
  5
F3A7
  8
0
 10
4329.4803572123855702
 20
190.9163738817956926
 30
0.0
 40
0.0204186246422069
 50
97.0903929499496456
 51
179.2634569808880087
  0
ARC
  5
F3A8
  8
0
 10
4329.5266128613347973
 20
190.9148017334634062
 30
0.0
 40
0.0384366995459632
 50
145.3844513051863032
 51
177.2641719696603104
  0
ARC
  5
F3A9
  8
0
 10
4329.5612411616748432
 20
190.9179527922478883
 30
0.0
 40
0.0196321164508832
 50
107.8833409549078937
 51
176.1551361431237126
  0
ARC
  5
F3AA
  8
0
 10
4329.6984386647491192
 20
190.9104105651898067
 30
0.0
 40
0.123688813109454
 50
167.7586324791056995
 51
177.1148364853185058
  0
ARC
  5
F3AB
  8
0
 10
4329.6562754297601714
 20
190.9166661955592019
 30
0.0
 40
0.0204072475323024
 50
101.8797307826736045
 51
179.9162149558443105
  0
LINE
  5
F3AC
  8
0
 10
4329.672817407619732
 20
190.9166363580436894
 30
0.0
 11
4329.6738159464839555
 21
190.9366363580436996
 31
0.0
  0
ARC
  5
F3AD
  8
0
 10
4329.7536080187201151
 20
190.9225288130946865
 30
0.0
 40
0.0157845438116747
 50
116.650798693819894
 51
158.0803867118576989
  0
ARC
  5
F3AE
  8
0
 10
4329.766118155109325
 20
190.9259672917960131
 30
0.0
 40
0.0122541213874428
 50
9.9047858707080323
 51
60.5344087261696728
  0
ARC
  5
F3AF
  8
0
 10
4329.3309264368872391
 20
190.710107079880288
 30
0.0
 40
0.018470789312874
 50
249.7461980037527951
 51
269.8451288434588946
  0
ARC
  5
F3B0
  8
0
 10
4329.3382185626951468
 20
190.7116532201384018
 30
0.0
 40
0.0201064221923761
 50
180.0480506658632862
 51
264.5901048371910065
  0
ARC
  5
F3B1
  8
0
 10
4329.3460209132999807
 20
190.7116532201079053
 30
0.0
 40
0.0201064221606122
 50
180.0480505791340136
 51
264.5901048721567008
  0
ARC
  5
F3B2
  8
0
 10
4329.3660864334797225
 20
190.7116532201079053
 30
0.0
 40
0.0201064221606124
 50
180.0480505791340136
 51
264.5901048721564734
  0
ARC
  5
F3B3
  8
0
 10
4329.38139129476167
 20
190.7116532201079053
 30
0.0
 40
0.0201064221606116
 50
180.0480505791323935
 51
264.5901048721564734
  0
ARC
  5
F3B4
  8
0
 10
4329.4139759314475668
 20
190.711653220164095
 30
0.0
 40
0.0201064222191325
 50
180.0481540349618115
 51
264.590104807721616
  0
ARC
  5
F3B5
  8
0
 10
4329.4361951461569333
 20
190.711653220164095
 30
0.0
 40
0.0201064222191308
 50
180.0481540349568945
 51
264.590104807721616
  0
ARC
  5
F3B6
  8
0
 10
4329.4803572123855702
 20
190.7118988342915884
 30
0.0
 40
0.0204186246422096
 50
180.7365430191200062
 51
262.9096070500502833
  0
ARC
  5
F3B7
  8
0
 10
4329.5266128613347973
 20
190.7134709826239884
 30
0.0
 40
0.0384366995459632
 50
182.7358280303396043
 51
214.6155486948136968
  0
ARC
  5
F3B8
  8
0
 10
4329.5612411616748432
 20
190.7103199238395064
 30
0.0
 40
0.0196321164508832
 50
183.8448638568729905
 51
252.1166590450910974
  0
ARC
  5
F3B9
  8
0
 10
4329.6984386647491192
 20
190.7178621508975027
 30
0.0
 40
0.123688813109454
 50
182.8851635146814942
 51
192.2413675208943005
  0
ARC
  5
F3BA
  8
0
 10
4329.6562754297601714
 20
190.7116065205281927
 30
0.0
 40
0.0204072475323024
 50
180.0837850441540127
 51
258.1202692173263245
  0
LINE
  5
F3BB
  8
0
 10
4329.672817407619732
 20
190.7116363580437053
 30
0.0
 11
4329.6738159464839555
 21
190.6916363580436951
 31
0.0
  0
ARC
  5
F3BC
  8
0
 10
4329.7536080187201151
 20
190.7057439029927082
 30
0.0
 40
0.0157845438116747
 50
201.9196132881421875
 51
243.349201306180106
  0
ARC
  5
F3BD
  8
0
 10
4329.766118155109325
 20
190.70230542429141
 30
0.0
 40
0.0122541213874428
 50
299.4655912738302845
 51
350.0952141292918895
  0
LINE
  5
F3BE
  8
0
 10
4329.8469803733460139
 20
190.928075140188696
 30
0.0
 11
4329.8469803733460139
 21
190.7001975758986134
 31
0.0
  0
ARC
  5
F3BF
  8
0
 10
4329.859051846584407
 20
190.9259672917960131
 30
0.0
 40
0.0122541213874428
 50
119.4655912738302987
 51
170.0952141292920032
  0
ARC
  5
F3C0
  8
0
 10
4329.859051846584407
 20
190.70230542429141
 30
0.0
 40
0.0122541213874428
 50
189.9047858707079968
 51
240.5344087261696018
  0
ARC
  5
F3C1
  8
0
 10
4330.4025494363695543
 20
190.711632851268007
 30
0.0
 40
0.0200679900829191
 50
290.0272005417807009
 51
359.9895024219359243
  0
ARC
  5
F3C2
  8
0
 10
4330.4025110110569585
 20
190.9166194959794041
 30
0.0
 40
0.0201064221606124
 50
0.0481538751609443
 51
69.6431372921224465
  0
ARC
  5
F3C3
  8
0
 10
4330.4030091401727987
 20
190.9179620177197023
 30
0.0
 40
0.0186744664209933
 50
69.643137292123015
 51
89.789444698456137
  0
LINE
  5
F3C4
  8
0
 10
4329.9557646483472126
 20
190.928075140188696
 30
0.0
 11
4329.9557646483472126
 21
190.7001975758986134
 31
0.0
  0
LINE
  5
F3C5
  8
0
 10
4329.994989713745781
 20
190.9284212681309896
 30
0.0
 11
4329.994989713745781
 21
190.6998514479564051
 31
0.0
  0
LINE
  5
F3C6
  8
0
 10
4330.0611368690470044
 20
190.9166363585906936
 30
0.0
 11
4330.0611368690470044
 21
190.7116363574965874
 31
0.0
  0
LINE
  5
F3C7
  8
0
 10
4330.0980860726467654
 20
190.9166960375744111
 30
0.0
 11
4330.0980860726467654
 21
190.7115766785128983
 31
0.0
  0
LINE
  5
F3C8
  8
0
 10
4330.1590476401470369
 20
190.9166363580436894
 30
0.0
 11
4330.1590476401470369
 21
190.7116363580437053
 31
0.0
  0
LINE
  5
F3C9
  8
0
 10
4330.1923010448472269
 20
190.9192692273605019
 30
0.0
 11
4330.1923010448472269
 21
190.7090034887268928
 31
0.0
  0
LINE
  5
F3CA
  8
0
 10
4330.2457343056466925
 20
190.9166363580436894
 30
0.0
 11
4330.2457343056466925
 21
190.7116363580437053
 31
0.0
  0
LINE
  5
F3CB
  8
0
 10
4330.2740140018458987
 20
190.9166363580436894
 30
0.0
 11
4330.2740140018458987
 21
190.7116363580435063
 31
0.0
  0
LINE
  5
F3CC
  8
0
 10
4330.3178655456540582
 20
190.9166363580436894
 30
0.0
 11
4330.3178655456540582
 21
190.7116363217959076
 31
0.0
  0
LINE
  5
F3CD
  8
0
 10
4330.3400847603634247
 20
190.9166363580436894
 30
0.0
 11
4330.3400847603634247
 21
190.7116363217928949
 31
0.0
  0
LINE
  5
F3CE
  8
0
 10
4330.3726693970211272
 20
190.9166363580436894
 30
0.0
 11
4330.3726693970211272
 21
190.7116363580437053
 31
0.0
  0
LINE
  5
F3CF
  8
0
 10
4330.3879742583039842
 20
190.9166363580436894
 30
0.0
 11
4330.3879742583039842
 21
190.7116363580437053
 31
0.0
  0
LINE
  5
F3D0
  8
0
 10
4330.4080397784828165
 20
190.9166363580436894
 30
0.0
 11
4330.4080397784828165
 21
190.7116363580437053
 31
0.0
  0
LINE
  5
F3D1
  8
0
 10
4330.4158421291031118
 20
190.9166363580436894
 30
0.0
 11
4330.4158421291031118
 21
190.7116363580437053
 31
0.0
  0
LINE
  5
F3D2
  8
0
 10
4330.4226174261157212
 20
190.711629174465088
 30
0.0
 11
4330.4226174261157212
 21
190.9166363942927092
 31
0.0
  0
ARC
  5
F3D3
  8
0
 10
4330.3957357140134263
 20
190.9166194959794041
 30
0.0
 40
0.0201064221606124
 50
0.0481538751609443
 51
84.5901048721565161
  0
ARC
  5
F3D4
  8
0
 10
4330.3879333633940405
 20
190.9166194959794041
 30
0.0
 40
0.0201064221606124
 50
0.0481538751609443
 51
84.5901048721565161
  0
ARC
  5
F3D5
  8
0
 10
4330.3678678432142988
 20
190.9166194959794041
 30
0.0
 40
0.0201064221606124
 50
0.0481538751609443
 51
84.5901048721565161
  0
ARC
  5
F3D6
  8
0
 10
4330.3525629819314418
 20
190.9166194959794041
 30
0.0
 40
0.0201064221606124
 50
0.0481538751609443
 51
84.5901048721565161
  0
ARC
  5
F3D7
  8
0
 10
4330.3199783452737393
 20
190.9166194959794041
 30
0.0
 40
0.0201064221606124
 50
0.0481538751609443
 51
84.5901048721565161
  0
ARC
  5
F3D8
  8
0
 10
4330.2977591305643728
 20
190.9166194959794041
 30
0.0
 40
0.0201064221606124
 50
0.0481538751609443
 51
84.5901048721565161
  0
ARC
  5
F3D9
  8
0
 10
4330.2535970643084511
 20
190.9163738817956926
 30
0.0
 40
0.0204186246422069
 50
0.736543019111929
 51
82.9096070500503686
  0
ARC
  5
F3DA
  8
0
 10
4330.2073414153583144
 20
190.9148017334634062
 30
0.0
 40
0.0384366995459632
 50
2.7358280303396758
 51
34.6155486948136613
  0
ARC
  5
F3DB
  8
0
 10
4330.1727131150191781
 20
190.9179527922478883
 30
0.0
 40
0.0196321164508832
 50
3.844863856876271
 51
72.1166590450920921
  0
ARC
  5
F3DC
  8
0
 10
4330.035515611944902
 20
190.9104105651898067
 30
0.0
 40
0.123688813109454
 50
2.8851635146814729
 51
12.2413675208943005
  0
ARC
  5
F3DD
  8
0
 10
4330.0776788469338499
 20
190.9166661955592019
 30
0.0
 40
0.0204072475323024
 50
0.0837850441540086
 51
78.1202692173263245
  0
LINE
  5
F3DE
  8
0
 10
4330.0611368690742893
 20
190.9166363580436894
 30
0.0
 11
4330.0601383302091563
 21
190.9366363580436996
 31
0.0
  0
ARC
  5
F3DF
  8
0
 10
4329.9803462579729967
 20
190.9225288130946865
 30
0.0
 40
0.0157845438116747
 50
21.9196132881422692
 51
63.3492013061800989
  0
ARC
  5
F3E0
  8
0
 10
4329.9678361215846962
 20
190.9259672917960131
 30
0.0
 40
0.0122541213874428
 50
119.4655912738302987
 51
170.0952141292920032
  0
ARC
  5
F3E1
  8
0
 10
4330.4030278398058726
 20
190.710107079880288
 30
0.0
 40
0.018470789312874
 50
270.1548711565411054
 51
290.2538019962472049
  0
ARC
  5
F3E2
  8
0
 10
4330.3957357139979649
 20
190.7116532201384018
 30
0.0
 40
0.0201064221923761
 50
275.4098951628089935
 51
359.9519493341366001
  0
ARC
  5
F3E3
  8
0
 10
4330.3879333633940405
 20
190.7116532201079053
 30
0.0
 40
0.0201064221606122
 50
275.4098951278432992
 51
359.9519494208643096
  0
ARC
  5
F3E4
  8
0
 10
4330.3678678432142988
 20
190.7116532201079053
 30
0.0
 40
0.0201064221606124
 50
275.4098951278435266
 51
359.9519494208643096
  0
ARC
  5
F3E5
  8
0
 10
4330.3525629819314418
 20
190.7116532201079053
 30
0.0
 40
0.0201064221606116
 50
275.4098951278435266
 51
359.9519494208676065
  0
ARC
  5
F3E6
  8
0
 10
4330.3199783452446354
 20
190.711653220164095
 30
0.0
 40
0.0201064222191325
 50
275.409895192278384
 51
359.9518459650382169
  0
ARC
  5
F3E7
  8
0
 10
4330.2977591305361784
 20
190.711653220164095
 30
0.0
 40
0.0201064222191308
 50
275.409895192278384
 51
359.9518459650431055
  0
ARC
  5
F3E8
  8
0
 10
4330.2535970643084511
 20
190.7118988342915884
 30
0.0
 40
0.0204186246422096
 50
277.0903929499497167
 51
359.2634569808799938
  0
ARC
  5
F3E9
  8
0
 10
4330.2073414153583144
 20
190.7134709826239884
 30
0.0
 40
0.0384366995459632
 50
325.3844513051863032
 51
357.2641719696603104
  0
ARC
  5
F3EA
  8
0
 10
4330.1727131150191781
 20
190.7103199238395064
 30
0.0
 40
0.0196321164508832
 50
287.8833409549088742
 51
356.1551361431269811
  0
ARC
  5
F3EB
  8
0
 10
4330.035515611944902
 20
190.7178621508975027
 30
0.0
 40
0.123688813109454
 50
347.7586324791056995
 51
357.1148364853185058
  0
ARC
  5
F3EC
  8
0
 10
4330.0776788469338499
 20
190.7116065205281927
 30
0.0
 40
0.0204072475323024
 50
281.8797307826736755
 51
359.9162149558459873
  0
LINE
  5
F3ED
  8
0
 10
4330.0611368690742893
 20
190.7116363580437053
 30
0.0
 11
4330.0601383302091563
 21
190.6916363580436951
 31
0.0
  0
ARC
  5
F3EE
  8
0
 10
4329.9803462579729967
 20
190.7057439029927082
 30
0.0
 40
0.0157845438116747
 50
296.6507986938199224
 51
338.0803867118577273
  0
ARC
  5
F3EF
  8
0
 10
4329.9678361215846962
 20
190.70230542429141
 30
0.0
 40
0.0122541213874428
 50
189.9047858707079968
 51
240.5344087261696018
  0
LINE
  5
F3F0
  8
0
 10
4329.8869739033470978
 20
190.928075140188696
 30
0.0
 11
4329.8869739033470978
 21
190.7001975758986134
 31
0.0
  0
ARC
  5
F3F1
  8
0
 10
4329.8749024301077952
 20
190.9259672917960131
 30
0.0
 40
0.0122541213874428
 50
9.9047858707080323
 51
60.5344087261696728
  0
ARC
  5
F3F2
  8
0
 10
4329.8749024301077952
 20
190.70230542429141
 30
0.0
 40
0.0122541213874428
 50
299.4655912738302845
 51
350.0952141292918895
  0
LINE
  5
F3F3
  8
0
 10
4328.6669771383458283
 20
193.9820343580437054
 30
0.0
 11
4331.066977138346374
 21
193.9820343580437054
 31
0.0
  0
LINE
  5
F3F4
  8
0
 10
4328.6769771383460466
 20
193.7890343580436934
 30
0.0
 11
4331.0569771383470652
 21
193.7890343580436934
 31
0.0
  0
LINE
  5
F3F5
  8
0
 10
4329.0138075023469355
 20
193.4870343580437009
 30
0.0
 11
4330.7201467743570902
 21
193.4870343580437009
 31
0.0
  0
LINE
  5
F3F6
  8
0
 10
4328.65697713834561
 20
193.8090343580437036
 30
0.0
 11
4328.65697713834561
 21
193.9720343580436861
 31
0.0
  0
ARC
  5
F3F7
  8
0
 10
4328.6769771383460466
 20
193.8090343580437036
 30
0.0
 40
0.0199999999999996
 50
179.9999999999984084
 51
270.0
  0
ARC
  5
F3F8
  8
0
 10
4328.6669771383458283
 20
193.9720343580436861
 30
0.0
 40
0.0100000000000007
 50
90.0
 51
179.9999999999951115
  0
ARC
  5
F3F9
  8
0
 10
4329.0676771383459709
 20
193.4550343580436902
 30
0.0
 40
0.0320000000000071
 50
359.9999999999968168
 51
90.0
  0
ARC
  5
F3FA
  8
0
 10
4329.0138075023369311
 20
193.50703435799781
 30
0.0
 40
0.0199999999540821
 50
183.8744228894165076
 51
270.0000000513805958
  0
ARC
  5
F3FB
  8
0
 10
4328.7458623344837179
 20
193.4870706716264124
 30
0.0
 40
0.2486883438673497
 50
4.2921336798127383
 51
31.445509239195701
  0
ARC
  5
F3FC
  8
0
 10
4328.8428842543862629
 20
193.5511483465056131
 30
0.0
 40
0.1325488119297848
 50
29.6937551056210509
 51
80.6540823350533174
  0
ARC
  5
F3FD
  8
0
 10
4328.8669772458360967
 20
193.7017723848827018
 30
0.0
 40
0.0200002139178914
 50
180.1869173303597051
 51
262.6235891580764132
  0
LINE
  5
F3FE
  8
0
 10
4328.8644094718511042
 20
193.6819376907436947
 30
0.0
 11
4330.8695448052203574
 21
193.6819376907436947
 31
0.0
  0
LINE
  5
F3FF
  8
0
 10
4328.8469771383461193
 20
193.7570343580437111
 30
0.0
 11
4328.8469771383461193
 21
193.7017071378685102
 31
0.0
  0
ARC
  5
F400
  8
0
 10
4328.8149771383459665
 20
193.7570343580437111
 30
0.0
 40
0.0319999999999707
 50
359.9999999999805027
 51
90.0
  0
LINE
  5
F401
  8
0
 10
4331.0769771383465923
 20
193.8090343580437036
 30
0.0
 11
4331.0769771383465923
 21
193.9720343580436861
 31
0.0
  0
ARC
  5
F402
  8
0
 10
4331.0569771383470652
 20
193.8090343580437036
 30
0.0
 40
0.0199999999999996
 50
270.0
 51
0.0000000000016284
  0
ARC
  5
F403
  8
0
 10
4331.066977138346374
 20
193.9720343580436861
 30
0.0
 40
0.0100000000000007
 50
0.0000000000048853
 51
90.0
  0
ARC
  5
F404
  8
0
 10
4330.6662771383471409
 20
193.4550343580436902
 30
0.0
 40
0.0320000000000071
 50
90.0
 51
180.0000000000032117
  0
ARC
  5
F405
  8
0
 10
4330.7201467743570902
 20
193.50703435799781
 30
0.0
 40
0.0199999999540821
 50
269.9999999486192905
 51
356.1255771105834924
  0
ARC
  5
F406
  8
0
 10
4330.9880919422103034
 20
193.4870706716264124
 30
0.0
 40
0.2486883438673497
 50
148.554490760804299
 51
175.7078663201872075
  0
ARC
  5
F407
  8
0
 10
4330.8910700223059393
 20
193.5511483465056131
 30
0.0
 40
0.1325488119297848
 50
99.3459176649466684
 51
150.3062448943790059
  0
ARC
  5
F408
  8
0
 10
4330.8669770308570151
 20
193.7017723848827018
 30
0.0
 40
0.0200002139178914
 50
277.3764108419237004
 51
359.8130826696403233
  0
LINE
  5
F409
  8
0
 10
4330.8869771383469924
 20
193.7570343580437111
 30
0.0
 11
4330.8869771383469924
 21
193.7017071378685102
 31
0.0
  0
ARC
  5
F40A
  8
0
 10
4330.9189771383471452
 20
193.7570343580437111
 30
0.0
 40
0.0319999999999707
 50
90.0
 51
180.0000000000194973
  0
LINE
  5
F40B
  8
0
 10
4328.8493867383467659
 20
189.6781363580437016
 30
0.0
 11
4329.3964473282576364
 21
189.6781363580437016
 31
0.0
  0
LINE
  5
F40C
  8
0
 10
4330.3375069484345659
 20
189.6781363580437016
 30
0.0
 11
4332.7631771383457817
 21
189.6781363580437016
 31
0.0
  0
LINE
  5
F40D
  8
0
 10
4328.849386777989821
 20
190.3451363580437032
 30
0.0
 11
4329.3964473282576364
 21
190.3451363580437032
 31
0.0
  0
LINE
  5
F40E
  8
0
 10
4330.3375069484345659
 20
190.3451363580437032
 30
0.0
 11
4332.7631771383457817
 21
190.3451363580437032
 31
0.0
  0
LINE
  5
F40F
  8
0
 10
4328.8293867383472389
 20
189.6981363580437119
 30
0.0
 11
4328.8293867383472389
 21
190.3251836185258128
 31
0.0
  0
ARC
  5
F410
  8
0
 10
4328.8493867383467659
 20
189.6981363580437119
 30
0.0
 40
0.0199999999999978
 50
179.9999999999951115
 51
270.0
  0
ARC
  5
F411
  8
0
 10
4328.849386777989821
 20
190.3251362623348086
 30
0.0
 40
0.0200000957089006
 50
89.9999999997915552
 51
179.8643350278935031
  0
LINE
  5
F412
  8
0
 10
4332.7831771383471278
 20
189.6981363580437119
 30
0.0
 11
4332.7831771383471278
 21
190.325136358043693
 31
0.0
  0
ARC
  5
F413
  8
0
 10
4332.7631771383457817
 20
189.6981363580437119
 30
0.0
 40
0.0199999999999996
 50
270.0
 51
0.0
  0
ARC
  5
F414
  8
0
 10
4332.7631771383457817
 20
190.325136358043693
 30
0.0
 40
0.019999999999996
 50
0.0
 51
90.0
  0
LINE
  5
F415
  8
0
 10
4330.5498165378548947
 20
190.3429505562421866
 30
0.0
 11
4332.7633793719987807
 21
190.3429505562421866
 31
0.0
  0
LINE
  5
F416
  8
0
 10
4330.5570274303972838
 20
190.3360077523782081
 30
0.0
 11
4332.7631771383457817
 21
190.3360077523782081
 31
0.0
  0
LINE
  5
F417
  8
0
 10
4330.5494325622139513
 20
190.3031427834438034
 30
0.0
 11
4332.7631771383457817
 21
190.3031427834438034
 31
0.0
  0
LINE
  5
F418
  8
0
 10
4330.5554575039132033
 20
190.2816604630104109
 30
0.0
 11
4332.7631771395599571
 21
190.2816604630104109
 31
0.0
  0
LINE
  5
F419
  8
0
 10
4330.5536080543743083
 20
190.2189557998906082
 30
0.0
 11
4332.7655035950592719
 21
190.2189557998906082
 31
0.0
  0
LINE
  5
F41A
  8
0
 10
4330.556082883768795
 20
190.1862044514359127
 30
0.0
 11
4332.7631771383457817
 21
190.1862044514359127
 31
0.0
  0
LINE
  5
F41B
  8
0
 10
4330.5742691337536598
 20
190.1032063106715952
 30
0.0
 11
4332.7724122095842176
 21
190.1032063106715952
 31
0.0
  0
LINE
  5
F41C
  8
0
 10
4330.5742691339273733
 20
190.064172030106306
 30
0.0
 11
4332.7631771370652132
 21
190.064172030106306
 31
0.0
  0
ARC
  5
F41D
  8
0
 10
4330.5864968381456492
 20
188.1941107424279096
 30
0.0
 40
2.1491528540014699
 50
90.9779334397771606
 51
93.182566228425955
  0
ARC
  5
F41E
  8
0
 10
4330.5901022853013274
 20
192.1160786828203015
 30
0.0
 40
1.7803781798909499
 50
266.0410158951240192
 51
268.9355303070774994
  0
ARC
  5
F41F
  8
0
 10
4330.5863048502797028
 20
189.6742579789346053
 30
0.0
 40
0.6299648108979616
 50
93.3554804472080235
 51
100.900051946734294
  0
ARC
  5
F420
  8
0
 10
4330.5893173208251028
 20
190.9022018369477109
 30
0.0
 40
0.6214644671816344
 50
258.6658752913601802
 51
266.8767551208146074
  0
ARC
  5
F421
  8
0
 10
4330.5883925966891184
 20
189.7884675605602069
 30
0.0
 40
0.4318912925561384
 50
94.6196079620544452
 51
106.2992086404596961
  0
ARC
  5
F422
  8
0
 10
4330.5896300110089214
 20
190.6074426475825874
 30
0.0
 40
0.4225719200786519
 50
253.1557379737967892
 51
265.4466128463337782
  0
ARC
  5
F423
  8
0
 10
4330.5955570095466101
 20
190.4798431284247897
 30
0.0
 40
0.416215852203877
 50
252.0349630616026957
 51
267.068257186135213
  0
ARC
  5
F424
  8
0
 10
4330.598723135799446
 20
189.6605261370347932
 30
0.0
 40
0.4433550883288326
 50
93.1618505005954347
 51
107.2583524485286972
  0
ARC
  5
F425
  8
0
 10
4332.7632782550253978
 20
190.3232831188597061
 30
0.0
 40
0.0196676973191245
 50
12.8269217562256497
 51
89.7054255344832683
  0
ARC
  5
F426
  8
0
 10
4332.7532319210949936
 20
190.3210566925517071
 30
0.0
 40
0.029957667013542
 50
1.651882652405507
 51
12.7131493885309208
  0
ARC
  5
F427
  8
0
 10
4332.7630515908658708
 20
190.3148704773427085
 30
0.0
 40
0.0211376478500985
 50
32.774511213033243
 51
89.6596885771654257
  0
ARC
  5
F428
  8
0
 10
4332.7674814467136457
 20
190.3177225362732088
 30
0.0
 40
0.0158690747066809
 50
8.4773749320789786
 51
32.7745112130359928
  0
ARC
  5
F429
  8
0
 10
4332.7627097835220411
 20
190.281867109390106
 30
0.0
 40
0.0212808065395016
 50
15.8928825049781608
 51
88.7416072840564567
  0
ARC
  5
F42A
  8
0
 10
4332.7624013831618868
 20
190.2534182361426076
 30
0.0
 40
0.0282528790822843
 50
42.663199422817307
 51
88.4265973630995461
  0
ARC
  5
F42B
  8
0
 10
4332.764340366241413
 20
190.1987781960370114
 30
0.0
 40
0.0202111058221119
 50
21.2510759895483687
 51
86.7005787713171259
  0
ARC
  5
F42C
  8
0
 10
4332.7588974983709704
 20
190.1124360541045917
 30
0.0
 40
0.0738924337341511
 50
70.8173374563832283
 51
86.6797331016981616
  0
ARC
  5
F42D
  8
0
 10
4332.7677946740150219
 20
190.0868091705939094
 30
0.0
 40
0.0170349005708286
 50
25.4451488818219715
 51
74.272453590839703
  0
ARC
  5
F42E
  8
0
 10
4332.7617536792840838
 20
190.1129101141603996
 30
0.0
 40
0.0487588665713322
 50
271.6729206067694804
 51
296.0640524215978076
  0
LINE
  5
F42F
  8
0
 10
4330.5498165378548947
 20
189.6823002787436963
 30
0.0
 11
4332.7633793719987807
 21
189.6823002787436963
 31
0.0
  0
LINE
  5
F430
  8
0
 10
4330.5570274303972838
 20
189.6909539703437133
 30
0.0
 11
4332.7631771383457817
 21
189.6909539703437133
 31
0.0
  0
LINE
  5
F431
  8
0
 10
4330.5494325622139513
 20
189.7274740263437138
 30
0.0
 11
4332.7631771383457817
 21
189.7274740263437138
 31
0.0
  0
LINE
  5
F432
  8
0
 10
4330.5554575039132033
 20
189.7504067674437067
 30
0.0
 11
4332.7631771395599571
 21
189.7504067674437067
 31
0.0
  0
LINE
  5
F433
  8
0
 10
4330.5536080543743083
 20
189.8159089130436996
 30
0.0
 11
4332.7655035950592719
 21
189.8159089130436996
 31
0.0
  0
LINE
  5
F434
  8
0
 10
4330.556082883768795
 20
189.8496294015436945
 30
0.0
 11
4332.7631771383457817
 21
189.8496294015436945
 31
0.0
  0
LINE
  5
F435
  8
0
 10
4330.5742691337536598
 20
189.9341415289437123
 30
0.0
 11
4332.7724122095842176
 21
189.9341415289437123
 31
0.0
  0
LINE
  5
F436
  8
0
 10
4330.5742691339273733
 20
189.9735161262437089
 30
0.0
 11
4332.7631771370652132
 21
189.9735161262437089
 31
0.0
  0
ARC
  5
F437
  8
0
 10
4330.5474150538102549
 20
190.367075020426995
 30
0.0
 40
0.6847789526358899
 50
263.2713072019745937
 51
270.200933720143496
  0
ARC
  5
F438
  8
0
 10
4330.5901022853013274
 20
187.9108830399015915
 30
0.0
 40
1.7803781798909499
 50
91.0644696929225432
 51
93.9589841048760093
  0
ARC
  5
F439
  8
0
 10
4330.5666838379493129
 20
190.1424817288215081
 30
0.0
 40
0.4153661031312283
 50
256.1397228737324099
 51
267.6196669135974844
  0
ARC
  5
F43A
  8
0
 10
4330.5893173208251028
 20
189.129865393506293
 30
0.0
 40
0.6214644671816344
 50
93.1232448791854353
 51
101.3341247086398056
  0
ARC
  5
F43B
  8
0
 10
4330.5787101345522387
 20
190.1732413901073073
 30
0.0
 40
0.358213084062629
 50
251.859447868808104
 51
265.981657187991118
  0
ARC
  5
F43C
  8
0
 10
4330.5896300110089214
 20
189.4283912053969914
 30
0.0
 40
0.4225719200786519
 50
94.5533871536661508
 51
106.8442620262031966
  0
ARC
  5
F43D
  8
0
 10
4330.5955570095466101
 20
189.5578450279251115
 30
0.0
 40
0.416215852203877
 50
92.9317428138648722
 51
107.9650369383972048
  0
ARC
  5
F43E
  8
0
 10
4330.5963522360871139
 20
190.3565964739246112
 30
0.0
 40
0.42303172924441
 50
252.2209653278007124
 51
267.0076856329417865
  0
ARC
  5
F43F
  8
0
 10
4332.7632782550253978
 20
189.7019677161262052
 30
0.0
 40
0.0196676973191245
 50
270.2945744655166891
 51
347.1730782437742846
  0
ARC
  5
F440
  8
0
 10
4332.7532319210949936
 20
189.7041941424340905
 30
0.0
 40
0.029957667013542
 50
347.2868506114691058
 51
358.3481173475944956
  0
ARC
  5
F441
  8
0
 10
4332.7630515908658708
 20
189.7120912453790993
 30
0.0
 40
0.0211376478500985
 50
270.3403114228344748
 51
327.225488786966821
  0
ARC
  5
F442
  8
0
 10
4332.7674814467136457
 20
189.7092391864487126
 30
0.0
 40
0.0158690747066809
 50
327.2254887869639788
 51
351.5226250679194209
  0
ARC
  5
F443
  8
0
 10
4332.7627097835220411
 20
189.7487497003974113
 30
0.0
 40
0.0212808065395016
 50
271.2583927159435007
 51
344.1071174950217824
  0
ARC
  5
F444
  8
0
 10
4332.7624013831618868
 20
189.7786489943113963
 30
0.0
 40
0.0282528790822843
 50
271.5734026369004255
 51
317.3368005771827143
  0
ARC
  5
F445
  8
0
 10
4332.764340366241413
 20
189.8360865168972111
 30
0.0
 40
0.0202111058221119
 50
273.2994212286828883
 51
338.7489240104516171
  0
ARC
  5
F446
  8
0
 10
4332.7588974983709704
 20
189.9233977988751008
 30
0.0
 40
0.0738924337341511
 50
273.3202668983017816
 51
289.1826625436166864
  0
ARC
  5
F447
  8
0
 10
4332.7677946740150219
 20
189.9505386690213982
 30
0.0
 40
0.0170349005708286
 50
285.7275464091603112
 51
334.5548511181794993
  0
ARC
  5
F448
  8
0
 10
4332.7617536792840838
 20
189.9247780421895868
 30
0.0
 40
0.0487588665713322
 50
63.9359475784021924
 51
88.3270793932305054
  0
LINE
  5
F44A
  8
0
 10
4322.6342771383469881
 20
193.4550343580436902
 30
0.0
 11
4322.6342771383469881
 21
191.1636363580437035
 31
0.0
  0
LINE
  5
F44B
  8
0
 10
4322.6342771383469881
 20
191.1136363580436921
 30
0.0
 11
4322.6342771383469881
 21
191.033636358043708
 31
0.0
  0
LINE
  5
F44C
  8
0
 10
4322.6192771383457512
 20
191.0186363580436932
 30
0.0
 11
4321.1146771383464511
 21
191.0186363580436932
 31
0.0
  0
LINE
  5
F44D
  8
0
 10
4322.6192771383457512
 20
191.1286363580437069
 30
0.0
 11
4321.1146771383464511
 21
191.1286363580437069
 31
0.0
  0
LINE
  5
F44E
  8
0
 10
4322.6192771383457512
 20
191.1486363580436887
 30
0.0
 11
4321.1146771383464511
 21
191.1486363580436887
 31
0.0
  0
LINE
  5
F44F
  8
0
 10
4322.5569771383461557
 20
191.1286363580437069
 30
0.0
 11
4322.5569771383461557
 21
191.1486363580436887
 31
0.0
  0
ARC
  5
F450
  8
0
 10
4322.6192771383457512
 20
191.1136363580436921
 30
0.0
 40
0.0149999999999997
 50
0.0
 51
90.0
  0
ARC
  5
F451
  8
0
 10
4322.6192771383457512
 20
191.1636363580437035
 30
0.0
 40
0.0149999999999961
 50
270.0
 51
0.0000000000130276
  0
ARC
  5
F452
  8
0
 10
4322.6192771383457512
 20
191.033636358043708
 30
0.0
 40
0.0150000000000077
 50
270.0
 51
359.9999999999836859
  0
LINE
  5
F453
  8
0
 10
4322.2969771383459374
 20
190.6096363580437014
 30
0.0
 11
4321.4369771383471743
 21
190.6096363580437014
 31
0.0
  0
LINE
  5
F454
  8
0
 10
4322.2409771383463521
 20
190.5006363580436926
 30
0.0
 11
4321.4929771383467596
 21
190.5006363580436926
 31
0.0
  0
LINE
  5
F455
  8
0
 10
4322.3304771383463958
 20
190.4296363580436946
 30
0.0
 11
4321.4034771383458065
 21
190.4296363580436946
 31
0.0
  0
LINE
  5
F456
  8
0
 10
4322.3304771383463958
 20
189.5936363580437103
 30
0.0
 11
4321.4034771383458065
 21
189.5936363580437103
 31
0.0
  0
LINE
  5
F457
  8
0
 10
4322.3454771383458137
 20
189.6086363580436966
 30
0.0
 11
4322.3454771383458137
 21
189.6642185547636927
 31
0.0
  0
LINE
  5
F458
  8
0
 10
4322.3454771383458137
 20
190.3590541613235985
 30
0.0
 11
4322.3454771383458137
 21
190.4146363580437082
 31
0.0
  0
ARC
  5
F459
  8
0
 10
4322.3304771383463958
 20
189.6086363580436966
 30
0.0
 40
0.0150000000000006
 50
270.0
 51
0.0
  0
ARC
  5
F45A
  8
0
 10
4322.3304771383463958
 20
190.4146363580437082
 30
0.0
 40
0.0149999999999997
 50
359.9999999999968168
 51
90.0
  0
ARC
  5
F45B
  8
0
 10
4322.5244796788801978
 20
190.0116363580436882
 30
0.0
 40
0.3332795778696924
 50
156.0101112077601897
 51
203.9898887922396966
  0
ARC
  5
F45C
  8
0
 10
4322.8090497900429909
 20
190.1176017976605976
 30
0.0
 40
0.6366309091176767
 50
202.2898065038704942
 51
210.6293030503447028
  0
ARC
  5
F45D
  8
0
 10
4323.4016018154852645
 20
190.4659526022961984
 30
0.0
 40
1.323991057669538
 50
210.5364830702752954
 51
216.9487888766408901
  0
ARC
  5
F45E
  8
0
 10
4322.3356028281432373
 20
189.6641775896038098
 30
0.0
 40
0.0098743951788386
 50
359.7623006296320227
 51
36.8559688965535628
  0
ARC
  5
F45F
  8
0
 10
4322.8090497900429909
 20
189.9056709184268072
 30
0.0
 40
0.6366309091176767
 50
149.3706969496552972
 51
157.7101934961295058
  0
ARC
  5
F460
  8
0
 10
4323.4016018154852645
 20
189.5573201137910928
 30
0.0
 40
1.323991057669538
 50
143.0512111233591099
 51
149.4635169297247046
  0
ARC
  5
F461
  8
0
 10
4322.3356028281432373
 20
190.3590951264835098
 30
0.0
 40
0.0098743951788386
 50
323.144031103446423
 51
359.7623006304202136
  0
ARC
  5
F462
  8
0
 10
4322.2609771383467887
 20
190.4396363580437139
 30
0.0
 40
0.0099999999999972
 50
179.9999999999951115
 51
270.0
  0
LINE
  5
F463
  8
0
 10
4322.2509771383456609
 20
190.4396363580437139
 30
0.0
 11
4322.2509771383456609
 21
190.4906363580437016
 31
0.0
  0
ARC
  5
F464
  8
0
 10
4322.2409771383463521
 20
190.4906363580437016
 30
0.0
 40
0.0099999999999998
 50
0.0
 51
90.0
  0
ARC
  5
F465
  8
0
 10
4322.1804771383458501
 20
190.5106363580437119
 30
0.0
 40
0.0099999999999928
 50
179.9999999999787974
 51
270.0
  0
LINE
  5
F466
  8
0
 10
4322.1704771383456318
 20
190.5106363580437119
 30
0.0
 11
4322.1704771383456318
 21
190.5996363580437105
 31
0.0
  0
ARC
  5
F467
  8
0
 10
4322.1804771383458501
 20
190.5996363580437105
 30
0.0
 40
0.0099999999999752
 50
90.0
 51
180.0000000000667058
  0
ARC
  5
F468
  8
0
 10
4322.2969771383459374
 20
190.6196363580436923
 30
0.0
 40
0.0100000000000007
 50
270.0
 51
0.0
  0
LINE
  5
F469
  8
0
 10
4322.3069771383470652
 20
190.6196363580436923
 30
0.0
 11
4322.3069771383470652
 21
190.6816363580437041
 31
0.0
  0
ARC
  5
F46A
  8
0
 10
4322.316977138346374
 20
190.6816363580437041
 30
0.0
 40
0.0099999999999998
 50
90.0
 51
180.0
  0
ARC
  5
F46B
  8
0
 10
4322.316977138346374
 20
190.9466363580436905
 30
0.0
 40
0.0099999999999953
 50
179.9999999999901945
 51
270.0
  0
LINE
  5
F46C
  8
0
 10
4322.3069771383470652
 20
190.9466363580436905
 30
0.0
 11
4322.3069771383470652
 21
191.0086363580437023
 31
0.0
  0
ARC
  5
F46D
  8
0
 10
4322.2969771383459374
 20
191.0086363580437023
 30
0.0
 40
0.0099999999999998
 50
0.0
 51
90.0
  0
ARC
  5
F46E
  8
0
 10
4322.316977138346374
 20
190.6816363580437041
 30
0.0
 40
0.0099999999999953
 50
90.0
 51
180.0000000000098055
  0
LINE
  5
F46F
  8
0
 10
4321.0996771383470332
 20
193.4550343580436902
 30
0.0
 11
4321.0996771383470332
 21
191.1636363580437035
 31
0.0
  0
LINE
  5
F470
  8
0
 10
4321.0996771383470332
 20
191.1136363580436921
 30
0.0
 11
4321.0996771383470332
 21
191.033636358043708
 31
0.0
  0
LINE
  5
F471
  8
0
 10
4321.1769771383469561
 20
191.1286363580437069
 30
0.0
 11
4321.1769771383469561
 21
191.1486363580436887
 31
0.0
  0
ARC
  5
F472
  8
0
 10
4321.1146771383464511
 20
191.1136363580436921
 30
0.0
 40
0.0149999999999997
 50
90.0
 51
180.0
  0
ARC
  5
F473
  8
0
 10
4321.1146771383464511
 20
191.1636363580437035
 30
0.0
 40
0.0149999999999961
 50
179.9999999999870113
 51
270.0
  0
ARC
  5
F474
  8
0
 10
4321.1146771383464511
 20
191.033636358043708
 30
0.0
 40
0.0150000000000077
 50
180.0000000000163141
 51
270.0
  0
LINE
  5
F475
  8
0
 10
4321.3884771383463885
 20
189.6086363580436966
 30
0.0
 11
4321.3884771383463885
 21
189.6642185547636927
 31
0.0
  0
LINE
  5
F476
  8
0
 10
4321.3884771383463885
 20
190.3590541613235985
 30
0.0
 11
4321.3884771383463885
 21
190.4146363580437082
 31
0.0
  0
ARC
  5
F477
  8
0
 10
4321.4034771383458065
 20
189.6086363580436966
 30
0.0
 40
0.0150000000000006
 50
180.0
 51
270.0
  0
ARC
  5
F478
  8
0
 10
4321.4034771383458065
 20
190.4146363580437082
 30
0.0
 40
0.0149999999999997
 50
90.0
 51
180.0000000000032117
  0
ARC
  5
F479
  8
0
 10
4321.2094745978138235
 20
190.0116363580436882
 30
0.0
 40
0.3332795778696924
 50
336.0101112077601897
 51
23.9898887922397392
  0
ARC
  5
F47A
  8
0
 10
4320.9249044866510303
 20
190.1176017976605976
 30
0.0
 40
0.6366309091176767
 50
329.3706969496553256
 51
337.7101934961294774
  0
ARC
  5
F47B
  8
0
 10
4320.3323524612087567
 20
190.4659526022961984
 30
0.0
 40
1.323991057669538
 50
323.0512111233592236
 51
329.4635169297246762
  0
ARC
  5
F47C
  8
0
 10
4321.3983514485498745
 20
189.6641775896038098
 30
0.0
 40
0.0098743951788386
 50
143.1440311034463946
 51
180.237699370367892
  0
ARC
  5
F47D
  8
0
 10
4320.9249044866510303
 20
189.9056709184268072
 30
0.0
 40
0.6366309091176767
 50
22.2898065038705191
 51
30.6293030503446992
  0
ARC
  5
F47E
  8
0
 10
4320.3323524612087567
 20
189.5573201137910928
 30
0.0
 40
1.323991057669538
 50
30.5364830702752883
 51
36.9487888766408688
  0
ARC
  5
F47F
  8
0
 10
4321.3983514485498745
 20
190.3590951264835098
 30
0.0
 40
0.0098743951788386
 50
180.2376993695797864
 51
216.8559688965534917
  0
ARC
  5
F480
  8
0
 10
4321.4729771383472325
 20
190.4396363580437139
 30
0.0
 40
0.0099999999999972
 50
270.0
 51
0.0000000000048853
  0
LINE
  5
F481
  8
0
 10
4321.4829771383456318
 20
190.4396363580437139
 30
0.0
 11
4321.4829771383456318
 21
190.4906363580437016
 31
0.0
  0
ARC
  5
F482
  8
0
 10
4321.4929771383467596
 20
190.4906363580437016
 30
0.0
 40
0.0099999999999998
 50
90.0
 51
180.0
  0
ARC
  5
F483
  8
0
 10
4321.5534771383472616
 20
190.5106363580437119
 30
0.0
 40
0.0099999999999928
 50
270.0
 51
0.0000000000195413
  0
LINE
  5
F484
  8
0
 10
4321.5634771383456609
 20
190.5106363580437119
 30
0.0
 11
4321.5634771383456609
 21
190.5996363580437105
 31
0.0
  0
ARC
  5
F485
  8
0
 10
4321.5534771383472616
 20
190.5996363580437105
 30
0.0
 40
0.0099999999999752
 50
359.999999999933209
 51
90.0
  0
ARC
  5
F486
  8
0
 10
4321.4369771383471743
 20
190.6196363580436923
 30
0.0
 40
0.0100000000000007
 50
180.0
 51
270.0
  0
LINE
  5
F487
  8
0
 10
4321.4269771383460466
 20
190.6196363580436923
 30
0.0
 11
4321.4269771383460466
 21
190.6816363580437041
 31
0.0
  0
ARC
  5
F488
  8
0
 10
4321.4169771383467378
 20
190.6816363580437041
 30
0.0
 40
0.0099999999999998
 50
0.0
 51
90.0
  0
ARC
  5
F489
  8
0
 10
4321.4169771383467378
 20
190.9466363580436905
 30
0.0
 40
0.0099999999999953
 50
270.0
 51
0.0000000000097707
  0
LINE
  5
F48A
  8
0
 10
4321.4269771383460466
 20
190.9466363580436905
 30
0.0
 11
4321.4269771383460466
 21
191.0086363580437023
 31
0.0
  0
ARC
  5
F48B
  8
0
 10
4321.4369771383471743
 20
191.0086363580437023
 30
0.0
 40
0.0099999999999998
 50
90.0
 51
180.0
  0
ARC
  5
F48C
  8
0
 10
4321.4169771383467378
 20
190.6816363580437041
 30
0.0
 40
0.0099999999999953
 50
359.9999999999902229
 51
90.0
  0
LINE
  5
F48D
  8
0
 10
4322.4030777665029746
 20
190.9366363580436996
 30
0.0
 11
4321.3308765101901372
 21
190.9366363580436996
 31
0.0
  0
LINE
  5
F48E
  8
0
 10
4322.4030777665029746
 20
190.6916363580436951
 30
0.0
 11
4321.3308765101910467
 21
190.6916363580436951
 31
0.0
  0
ARC
  5
F48F
  8
0
 10
4322.4025494363713733
 20
190.711632851268007
 30
0.0
 40
0.0200679900829191
 50
290.0272005417807009
 51
359.9895024219359243
  0
ARC
  5
F490
  8
0
 10
4322.402511011056049
 20
190.9166194959794041
 30
0.0
 40
0.0201064221606124
 50
0.0481538751609443
 51
69.6431372921224465
  0
ARC
  5
F491
  8
0
 10
4322.4030091401727987
 20
190.9179620177197023
 30
0.0
 40
0.0186744664209933
 50
69.643137292123015
 51
89.789444698456137
  0
LINE
  5
F492
  8
0
 10
4321.9557646483472126
 20
190.928075140188696
 30
0.0
 11
4321.9557646483472126
 21
190.7001975758986134
 31
0.0
  0
LINE
  5
F493
  8
0
 10
4321.994989713745781
 20
190.9284212681309896
 30
0.0
 11
4321.994989713745781
 21
190.6998514479564051
 31
0.0
  0
LINE
  5
F494
  8
0
 10
4322.0611368690470044
 20
190.9166363585906936
 30
0.0
 11
4322.0611368690470044
 21
190.7116363574965874
 31
0.0
  0
LINE
  5
F495
  8
0
 10
4322.0980860726467654
 20
190.9166960375744111
 30
0.0
 11
4322.0980860726467654
 21
190.7115766785128983
 31
0.0
  0
LINE
  5
F496
  8
0
 10
4322.1590476401470369
 20
190.9166363580436894
 30
0.0
 11
4322.1590476401470369
 21
190.7116363580437053
 31
0.0
  0
LINE
  5
F497
  8
0
 10
4322.1923010448472269
 20
190.9192692273605019
 30
0.0
 11
4322.1923010448472269
 21
190.7090034887268928
 31
0.0
  0
LINE
  5
F498
  8
0
 10
4322.2457343056466925
 20
190.9166363580436894
 30
0.0
 11
4322.2457343056466925
 21
190.7116363580437053
 31
0.0
  0
LINE
  5
F499
  8
0
 10
4322.2740140018458987
 20
190.9166363580436894
 30
0.0
 11
4322.2740140018458987
 21
190.7116363580435063
 31
0.0
  0
LINE
  5
F49A
  8
0
 10
4322.3178655456540582
 20
190.9166363580436894
 30
0.0
 11
4322.3178655456540582
 21
190.7116363217959076
 31
0.0
  0
LINE
  5
F49B
  8
0
 10
4322.3400847603634247
 20
190.9166363580436894
 30
0.0
 11
4322.3400847603634247
 21
190.7116363217928949
 31
0.0
  0
LINE
  5
F49C
  8
0
 10
4322.3726693970211272
 20
190.9166363580436894
 30
0.0
 11
4322.3726693970211272
 21
190.7116363580437053
 31
0.0
  0
LINE
  5
F49D
  8
0
 10
4322.3879742583039842
 20
190.9166363580436894
 30
0.0
 11
4322.3879742583039842
 21
190.7116363580437053
 31
0.0
  0
LINE
  5
F49E
  8
0
 10
4322.4080397784828165
 20
190.9166363580436894
 30
0.0
 11
4322.4080397784828165
 21
190.7116363580437053
 31
0.0
  0
LINE
  5
F49F
  8
0
 10
4322.4158421291022023
 20
190.9166363580436894
 30
0.0
 11
4322.4158421291022023
 21
190.7116363580437053
 31
0.0
  0
LINE
  5
F4A0
  8
0
 10
4322.4226174261157212
 20
190.711629174465088
 30
0.0
 11
4322.4226174261157212
 21
190.9166363942927092
 31
0.0
  0
ARC
  5
F4A1
  8
0
 10
4322.3957357140134263
 20
190.9166194959794041
 30
0.0
 40
0.0201064221606124
 50
0.0481538751609443
 51
84.5901048721565161
  0
ARC
  5
F4A2
  8
0
 10
4322.387933363393131
 20
190.9166194959794041
 30
0.0
 40
0.0201064221606124
 50
0.0481538751609443
 51
84.5901048721565161
  0
ARC
  5
F4A3
  8
0
 10
4322.3678678432142988
 20
190.9166194959794041
 30
0.0
 40
0.0201064221606124
 50
0.0481538751609443
 51
84.5901048721565161
  0
ARC
  5
F4A4
  8
0
 10
4322.3525629819314418
 20
190.9166194959794041
 30
0.0
 40
0.0201064221606124
 50
0.0481538751609443
 51
84.5901048721565161
  0
ARC
  5
F4A5
  8
0
 10
4322.3199783452728298
 20
190.9166194959794041
 30
0.0
 40
0.0201064221606124
 50
0.0481538751609443
 51
84.5901048721565161
  0
ARC
  5
F4A6
  8
0
 10
4322.2977591305643728
 20
190.9166194959794041
 30
0.0
 40
0.0201064221606124
 50
0.0481538751609443
 51
84.5901048721565161
  0
ARC
  5
F4A7
  8
0
 10
4322.2535970643084511
 20
190.9163738817956926
 30
0.0
 40
0.0204186246422069
 50
0.736543019111929
 51
82.9096070500503686
  0
ARC
  5
F4A8
  8
0
 10
4322.2073414153592239
 20
190.9148017334634062
 30
0.0
 40
0.0384366995459632
 50
2.7358280303396758
 51
34.6155486948136613
  0
ARC
  5
F4A9
  8
0
 10
4322.1727131150191781
 20
190.9179527922478883
 30
0.0
 40
0.0196321164508832
 50
3.844863856876271
 51
72.1166590450920921
  0
ARC
  5
F4AA
  8
0
 10
4322.035515611944902
 20
190.9104105651898067
 30
0.0
 40
0.123688813109454
 50
2.8851635146814729
 51
12.2413675208943005
  0
ARC
  5
F4AB
  8
0
 10
4322.0776788469329404
 20
190.9166661955592019
 30
0.0
 40
0.0204072475323024
 50
0.0837850441540086
 51
78.1202692173263245
  0
LINE
  5
F4AC
  8
0
 10
4322.0611368690742893
 20
190.9166363580436894
 30
0.0
 11
4322.0601383302091563
 21
190.9366363580436996
 31
0.0
  0
ARC
  5
F4AD
  8
0
 10
4321.9803462579729967
 20
190.9225288130946865
 30
0.0
 40
0.0157845438116747
 50
21.9196132881422692
 51
63.3492013061800989
  0
ARC
  5
F4AE
  8
0
 10
4321.9678361215846962
 20
190.9259672917960131
 30
0.0
 40
0.0122541213874428
 50
119.4655912738302987
 51
170.0952141292920032
  0
ARC
  5
F4AF
  8
0
 10
4322.4030278398067821
 20
190.710107079880288
 30
0.0
 40
0.018470789312874
 50
270.1548711565411054
 51
290.2538019962472049
  0
ARC
  5
F4B0
  8
0
 10
4322.3957357139979649
 20
190.7116532201384018
 30
0.0
 40
0.0201064221923761
 50
275.4098951628089935
 51
359.9519493341366001
  0
ARC
  5
F4B1
  8
0
 10
4322.387933363393131
 20
190.7116532201079053
 30
0.0
 40
0.0201064221606122
 50
275.4098951278432992
 51
359.9519494208660149
  0
ARC
  5
F4B2
  8
0
 10
4322.3678678432142988
 20
190.7116532201079053
 30
0.0
 40
0.0201064221606124
 50
275.4098951278435266
 51
359.9519494208660149
  0
ARC
  5
F4B3
  8
0
 10
4322.3525629819314418
 20
190.7116532201079053
 30
0.0
 40
0.0201064221606116
 50
275.4098951278435266
 51
359.9519494208676065
  0
ARC
  5
F4B4
  8
0
 10
4322.3199783452446354
 20
190.711653220164095
 30
0.0
 40
0.0201064222191325
 50
275.409895192278384
 51
359.9518459650382169
  0
ARC
  5
F4B5
  8
0
 10
4322.2977591305361784
 20
190.711653220164095
 30
0.0
 40
0.0201064222191308
 50
275.409895192278384
 51
359.9518459650431055
  0
ARC
  5
F4B6
  8
0
 10
4322.2535970643084511
 20
190.7118988342915884
 30
0.0
 40
0.0204186246422096
 50
277.0903929499497167
 51
359.2634569808799938
  0
ARC
  5
F4B7
  8
0
 10
4322.2073414153592239
 20
190.7134709826239884
 30
0.0
 40
0.0384366995459632
 50
325.3844513051863032
 51
357.2641719696603104
  0
ARC
  5
F4B8
  8
0
 10
4322.1727131150191781
 20
190.7103199238395064
 30
0.0
 40
0.0196321164508832
 50
287.8833409549088742
 51
356.1551361431269811
  0
ARC
  5
F4B9
  8
0
 10
4322.035515611944902
 20
190.7178621508975027
 30
0.0
 40
0.123688813109454
 50
347.7586324791056995
 51
357.1148364853185058
  0
ARC
  5
F4BA
  8
0
 10
4322.0776788469329404
 20
190.7116065205281927
 30
0.0
 40
0.0204072475323024
 50
281.8797307826736755
 51
359.9162149558459873
  0
LINE
  5
F4BB
  8
0
 10
4322.0611368690742893
 20
190.7116363580437053
 30
0.0
 11
4322.0601383302091563
 21
190.6916363580436951
 31
0.0
  0
ARC
  5
F4BC
  8
0
 10
4321.9803462579729967
 20
190.7057439029927082
 30
0.0
 40
0.0157845438116747
 50
296.6507986938199224
 51
338.0803867118577273
  0
ARC
  5
F4BD
  8
0
 10
4321.9678361215846962
 20
190.70230542429141
 30
0.0
 40
0.0122541213874428
 50
189.9047858707079968
 51
240.5344087261696018
  0
LINE
  5
F4BE
  8
0
 10
4321.8869739033470978
 20
190.928075140188696
 30
0.0
 11
4321.8869739033470978
 21
190.7001975758986134
 31
0.0
  0
ARC
  5
F4BF
  8
0
 10
4321.8749024301087047
 20
190.9259672917960131
 30
0.0
 40
0.0122541213874428
 50
9.9047858707080323
 51
60.5344087261696728
  0
ARC
  5
F4C0
  8
0
 10
4321.8749024301087047
 20
190.70230542429141
 30
0.0
 40
0.0122541213874428
 50
299.4655912738302845
 51
350.0952141292918895
  0
ARC
  5
F4C1
  8
0
 10
4321.3314048403226479
 20
190.711632851268007
 30
0.0
 40
0.0200679900829191
 50
180.0104975780641041
 51
249.9727994582192991
  0
ARC
  5
F4C2
  8
0
 10
4321.3314432656361532
 20
190.9166194959794041
 30
0.0
 40
0.0201064221606124
 50
110.3568627078774966
 51
179.951846124838994
  0
ARC
  5
F4C3
  8
0
 10
4321.3309451365194036
 20
190.9179620177197023
 30
0.0
 40
0.0186744664209933
 50
90.2105553015438772
 51
110.3568627078768998
  0
LINE
  5
F4C4
  8
0
 10
4321.7781896283458991
 20
190.928075140188696
 30
0.0
 11
4321.7781896283458991
 21
190.7001975758986134
 31
0.0
  0
LINE
  5
F4C5
  8
0
 10
4321.7389645629464212
 20
190.9284212681309896
 30
0.0
 11
4321.7389645629464212
 21
190.6998514479564051
 31
0.0
  0
LINE
  5
F4C6
  8
0
 10
4321.6728174076470168
 20
190.9166363585906936
 30
0.0
 11
4321.6728174076470168
 21
190.7116363574965874
 31
0.0
  0
LINE
  5
F4C7
  8
0
 10
4321.6358682040463464
 20
190.9166960375744111
 30
0.0
 11
4321.6358682040463464
 21
190.7115766785128983
 31
0.0
  0
LINE
  5
F4C8
  8
0
 10
4321.5749066365469844
 20
190.9166363580436894
 30
0.0
 11
4321.5749066365469844
 21
190.7116363580437053
 31
0.0
  0
LINE
  5
F4C9
  8
0
 10
4321.5416532318467944
 20
190.9192692273605019
 30
0.0
 11
4321.5416532318467944
 21
190.7090034887268928
 31
0.0
  0
LINE
  5
F4CA
  8
0
 10
4321.4882199710473287
 20
190.9166363580436894
 30
0.0
 11
4321.4882199710473287
 21
190.7116363580437053
 31
0.0
  0
LINE
  5
F4CB
  8
0
 10
4321.4599402748481225
 20
190.9166363580436894
 30
0.0
 11
4321.4599402748481225
 21
190.7116363580435063
 31
0.0
  0
LINE
  5
F4CC
  8
0
 10
4321.4160887310390535
 20
190.9166363580436894
 30
0.0
 11
4321.4160887310390535
 21
190.7116363217959076
 31
0.0
  0
LINE
  5
F4CD
  8
0
 10
4321.393869516329687
 20
190.9166363580436894
 30
0.0
 11
4321.393869516329687
 21
190.7116363217928949
 31
0.0
  0
LINE
  5
F4CE
  8
0
 10
4321.3612848796719845
 20
190.9166363580436894
 30
0.0
 11
4321.3612848796719845
 21
190.7116363580437053
 31
0.0
  0
LINE
  5
F4CF
  8
0
 10
4321.3459800183891275
 20
190.9166363580436894
 30
0.0
 11
4321.3459800183891275
 21
190.7116363580437053
 31
0.0
  0
LINE
  5
F4D0
  8
0
 10
4321.3259144982102953
 20
190.9166363580436894
 30
0.0
 11
4321.3259144982102953
 21
190.7116363580437053
 31
0.0
  0
LINE
  5
F4D1
  8
0
 10
4321.3181121475890905
 20
190.9166363580436894
 30
0.0
 11
4321.3181121475890905
 21
190.7116363580437053
 31
0.0
  0
LINE
  5
F4D2
  8
0
 10
4321.3113368505773906
 20
190.711629174465088
 30
0.0
 11
4321.3113368505773906
 21
190.9166363942927092
 31
0.0
  0
ARC
  5
F4D3
  8
0
 10
4321.3382185626787759
 20
190.9166194959794041
 30
0.0
 40
0.0201064221606124
 50
95.4098951278434839
 51
179.951846124838994
  0
ARC
  5
F4D4
  8
0
 10
4321.3460209132999807
 20
190.9166194959794041
 30
0.0
 40
0.0201064221606124
 50
95.4098951278434839
 51
179.951846124838994
  0
ARC
  5
F4D5
  8
0
 10
4321.3660864334797225
 20
190.9166194959794041
 30
0.0
 40
0.0201064221606124
 50
95.4098951278434839
 51
179.951846124838994
  0
ARC
  5
F4D6
  8
0
 10
4321.3813912947607605
 20
190.9166194959794041
 30
0.0
 40
0.0201064221606124
 50
95.4098951278434839
 51
179.951846124838994
  0
ARC
  5
F4D7
  8
0
 10
4321.4139759314193725
 20
190.9166194959794041
 30
0.0
 40
0.0201064221606124
 50
95.4098951278434839
 51
179.951846124838994
  0
ARC
  5
F4D8
  8
0
 10
4321.436195146128739
 20
190.9166194959794041
 30
0.0
 40
0.0201064221606124
 50
95.4098951278434839
 51
179.951846124838994
  0
ARC
  5
F4D9
  8
0
 10
4321.4803572123855702
 20
190.9163738817956926
 30
0.0
 40
0.0204186246422069
 50
97.0903929499496456
 51
179.2634569808880087
  0
ARC
  5
F4DA
  8
0
 10
4321.5266128613347973
 20
190.9148017334634062
 30
0.0
 40
0.0384366995459632
 50
145.3844513051863032
 51
177.2641719696603104
  0
ARC
  5
F4DB
  8
0
 10
4321.5612411616739337
 20
190.9179527922478883
 30
0.0
 40
0.0196321164508832
 50
107.8833409549078937
 51
176.1551361431237126
  0
ARC
  5
F4DC
  8
0
 10
4321.6984386647491192
 20
190.9104105651898067
 30
0.0
 40
0.123688813109454
 50
167.7586324791056995
 51
177.1148364853185058
  0
ARC
  5
F4DD
  8
0
 10
4321.6562754297601714
 20
190.9166661955592019
 30
0.0
 40
0.0204072475323024
 50
101.8797307826736045
 51
179.9162149558443105
  0
LINE
  5
F4DE
  8
0
 10
4321.6728174076188225
 20
190.9166363580436894
 30
0.0
 11
4321.6738159464839555
 21
190.9366363580436996
 31
0.0
  0
ARC
  5
F4DF
  8
0
 10
4321.7536080187192056
 20
190.9225288130946865
 30
0.0
 40
0.0157845438116747
 50
116.650798693819894
 51
158.0803867118576989
  0
ARC
  5
F4E0
  8
0
 10
4321.766118155109325
 20
190.9259672917960131
 30
0.0
 40
0.0122541213874428
 50
9.9047858707080323
 51
60.5344087261696728
  0
ARC
  5
F4E1
  8
0
 10
4321.3309264368872391
 20
190.710107079880288
 30
0.0
 40
0.018470789312874
 50
249.7461980037527951
 51
269.8451288434588946
  0
ARC
  5
F4E2
  8
0
 10
4321.3382185626951468
 20
190.7116532201384018
 30
0.0
 40
0.0201064221923761
 50
180.0480506658632862
 51
264.5901048371910065
  0
ARC
  5
F4E3
  8
0
 10
4321.3460209132999807
 20
190.7116532201079053
 30
0.0
 40
0.0201064221606122
 50
180.0480505791340136
 51
264.5901048721567008
  0
ARC
  5
F4E4
  8
0
 10
4321.3660864334797225
 20
190.7116532201079053
 30
0.0
 40
0.0201064221606124
 50
180.0480505791340136
 51
264.5901048721564734
  0
ARC
  5
F4E5
  8
0
 10
4321.3813912947607605
 20
190.7116532201079053
 30
0.0
 40
0.0201064221606116
 50
180.0480505791323935
 51
264.5901048721564734
  0
ARC
  5
F4E6
  8
0
 10
4321.4139759314475668
 20
190.711653220164095
 30
0.0
 40
0.0201064222191325
 50
180.0481540349618115
 51
264.590104807721616
  0
ARC
  5
F4E7
  8
0
 10
4321.4361951461569333
 20
190.711653220164095
 30
0.0
 40
0.0201064222191308
 50
180.0481540349568945
 51
264.590104807721616
  0
ARC
  5
F4E8
  8
0
 10
4321.4803572123855702
 20
190.7118988342915884
 30
0.0
 40
0.0204186246422096
 50
180.7365430191200062
 51
262.9096070500502833
  0
ARC
  5
F4E9
  8
0
 10
4321.5266128613347973
 20
190.7134709826239884
 30
0.0
 40
0.0384366995459632
 50
182.7358280303396043
 51
214.6155486948136968
  0
ARC
  5
F4EA
  8
0
 10
4321.5612411616739337
 20
190.7103199238395064
 30
0.0
 40
0.0196321164508832
 50
183.8448638568729905
 51
252.1166590450910974
  0
ARC
  5
F4EB
  8
0
 10
4321.6984386647491192
 20
190.7178621508975027
 30
0.0
 40
0.123688813109454
 50
182.8851635146814942
 51
192.2413675208943005
  0
ARC
  5
F4EC
  8
0
 10
4321.6562754297601714
 20
190.7116065205281927
 30
0.0
 40
0.0204072475323024
 50
180.0837850441540127
 51
258.1202692173263245
  0
LINE
  5
F4ED
  8
0
 10
4321.6728174076188225
 20
190.7116363580437053
 30
0.0
 11
4321.6738159464839555
 21
190.6916363580436951
 31
0.0
  0
ARC
  5
F4EE
  8
0
 10
4321.7536080187192056
 20
190.7057439029927082
 30
0.0
 40
0.0157845438116747
 50
201.9196132881421875
 51
243.349201306180106
  0
ARC
  5
F4EF
  8
0
 10
4321.766118155109325
 20
190.70230542429141
 30
0.0
 40
0.0122541213874428
 50
299.4655912738302845
 51
350.0952141292918895
  0
LINE
  5
F4F0
  8
0
 10
4321.8469803733460139
 20
190.928075140188696
 30
0.0
 11
4321.8469803733460139
 21
190.7001975758986134
 31
0.0
  0
ARC
  5
F4F1
  8
0
 10
4321.859051846584407
 20
190.9259672917960131
 30
0.0
 40
0.0122541213874428
 50
119.4655912738302987
 51
170.0952141292920032
  0
ARC
  5
F4F2
  8
0
 10
4321.859051846584407
 20
190.70230542429141
 30
0.0
 40
0.0122541213874428
 50
189.9047858707079968
 51
240.5344087261696018
  0
LINE
  5
F4F3
  8
0
 10
4323.066977138346374
 20
193.9820343580437054
 30
0.0
 11
4320.6669771383467378
 21
193.9820343580437054
 31
0.0
  0
LINE
  5
F4F4
  8
0
 10
4323.0569771383470652
 20
193.7890343580436934
 30
0.0
 11
4320.6769771383460466
 21
193.7890343580436934
 31
0.0
  0
LINE
  5
F4F5
  8
0
 10
4322.7201467743461762
 20
193.4870343580437009
 30
0.0
 11
4321.0138075023369311
 21
193.4870343580437009
 31
0.0
  0
LINE
  5
F4F6
  8
0
 10
4323.0769771383456828
 20
193.8090343580437036
 30
0.0
 11
4323.0769771383456828
 21
193.9720343580436861
 31
0.0
  0
ARC
  5
F4F7
  8
0
 10
4323.0569771383470652
 20
193.8090343580437036
 30
0.0
 40
0.0199999999999996
 50
270.0
 51
0.0000000000016284
  0
ARC
  5
F4F8
  8
0
 10
4323.066977138346374
 20
193.9720343580436861
 30
0.0
 40
0.0100000000000007
 50
0.0000000000048853
 51
90.0
  0
ARC
  5
F4F9
  8
0
 10
4322.6662771383471409
 20
193.4550343580436902
 30
0.0
 40
0.0320000000000071
 50
90.0
 51
180.0000000000032117
  0
ARC
  5
F4FA
  8
0
 10
4322.7201467743570902
 20
193.50703435799781
 30
0.0
 40
0.0199999999540821
 50
269.9999999486192905
 51
356.1255771105834924
  0
ARC
  5
F4FB
  8
0
 10
4322.9880919422093939
 20
193.4870706716264124
 30
0.0
 40
0.2486883438673497
 50
148.554490760804299
 51
175.7078663201872075
  0
ARC
  5
F4FC
  8
0
 10
4322.8910700223068488
 20
193.5511483465056131
 30
0.0
 40
0.1325488119297848
 50
99.3459176649466684
 51
150.3062448943790059
  0
ARC
  5
F4FD
  8
0
 10
4322.8669770308570151
 20
193.7017723848827018
 30
0.0
 40
0.0200002139178914
 50
277.3764108419237004
 51
359.8130826696403233
  0
LINE
  5
F4FE
  8
0
 10
4322.8695448048420076
 20
193.6819376907436947
 30
0.0
 11
4320.8644094714736639
 21
193.6819376907436947
 31
0.0
  0
LINE
  5
F4FF
  8
0
 10
4322.8869771383469924
 20
193.7570343580437111
 30
0.0
 11
4322.8869771383469924
 21
193.7017071378685102
 31
0.0
  0
ARC
  5
F500
  8
0
 10
4322.9189771383471452
 20
193.7570343580437111
 30
0.0
 40
0.0319999999999707
 50
90.0
 51
180.0000000000194973
  0
LINE
  5
F501
  8
0
 10
4320.65697713834561
 20
193.8090343580437036
 30
0.0
 11
4320.65697713834561
 21
193.9720343580436861
 31
0.0
  0
ARC
  5
F502
  8
0
 10
4320.6769771383460466
 20
193.8090343580437036
 30
0.0
 40
0.0199999999999996
 50
179.9999999999984084
 51
270.0
  0
ARC
  5
F503
  8
0
 10
4320.6669771383467378
 20
193.9720343580436861
 30
0.0
 40
0.0100000000000007
 50
90.0
 51
179.9999999999951115
  0
ARC
  5
F504
  8
0
 10
4321.0676771383468804
 20
193.4550343580436902
 30
0.0
 40
0.0320000000000071
 50
359.9999999999968168
 51
90.0
  0
ARC
  5
F505
  8
0
 10
4321.0138075023369311
 20
193.50703435799781
 30
0.0
 40
0.0199999999540821
 50
183.8744228894165076
 51
270.0000000513805958
  0
ARC
  5
F506
  8
0
 10
4320.7458623344837179
 20
193.4870706716264124
 30
0.0
 40
0.2486883438673497
 50
4.2921336798127383
 51
31.445509239195701
  0
ARC
  5
F507
  8
0
 10
4320.8428842543862629
 20
193.5511483465056131
 30
0.0
 40
0.1325488119297848
 50
29.6937551056210509
 51
80.6540823350533174
  0
ARC
  5
F508
  8
0
 10
4320.8669772458360967
 20
193.7017723848827018
 30
0.0
 40
0.0200002139178914
 50
180.1869173303597051
 51
262.6235891580764132
  0
LINE
  5
F509
  8
0
 10
4320.8469771383470288
 20
193.7570343580437111
 30
0.0
 11
4320.8469771383470288
 21
193.7017071378685102
 31
0.0
  0
ARC
  5
F50A
  8
0
 10
4320.8149771383459665
 20
193.7570343580437111
 30
0.0
 40
0.0319999999999707
 50
359.9999999999805027
 51
90.0
  0
LINE
  5
F50B
  8
0
 10
4322.8845675383481648
 20
189.6781363580437016
 30
0.0
 11
4322.3375069484345659
 21
189.6781363580437016
 31
0.0
  0
LINE
  5
F50C
  8
0
 10
4321.3964473282576364
 20
189.6781363580437016
 30
0.0
 11
4318.9707771383464205
 21
189.6781363580437016
 31
0.0
  0
LINE
  5
F50D
  8
0
 10
4322.8845674987032908
 20
190.3451363580437032
 30
0.0
 11
4322.3375069484345659
 21
190.3451363580437032
 31
0.0
  0
LINE
  5
F50E
  8
0
 10
4321.3964473282576364
 20
190.3451363580437032
 30
0.0
 11
4318.9707771383464205
 21
190.3451363580437032
 31
0.0
  0
LINE
  5
F50F
  8
0
 10
4322.9045675383467824
 20
189.6981363580437119
 30
0.0
 11
4322.9045675383467824
 21
190.3251836185258128
 31
0.0
  0
ARC
  5
F510
  8
0
 10
4322.8845675383481648
 20
189.6981363580437119
 30
0.0
 40
0.0199999999999978
 50
270.0
 51
0.0000000000048853
  0
ARC
  5
F511
  8
0
 10
4322.8845674987032908
 20
190.3251362623348086
 30
0.0
 40
0.0200000957089006
 50
0.1356649721064766
 51
90.0000000002084306
  0
LINE
  5
F512
  8
0
 10
4318.950777138345984
 20
189.6981363580437119
 30
0.0
 11
4318.950777138345984
 21
190.325136358043693
 31
0.0
  0
ARC
  5
F513
  8
0
 10
4318.9707771383464205
 20
189.6981363580437119
 30
0.0
 40
0.0199999999999996
 50
180.0
 51
270.0
  0
ARC
  5
F514
  8
0
 10
4318.9707771383464205
 20
190.325136358043693
 30
0.0
 40
0.019999999999996
 50
90.0
 51
180.0
  0
LINE
  5
F515
  8
0
 10
4321.184137738838217
 20
190.3429505562421866
 30
0.0
 11
4318.9705749046943311
 21
190.3429505562421866
 31
0.0
  0
LINE
  5
F516
  8
0
 10
4321.176926846295828
 20
190.3360077523782081
 30
0.0
 11
4318.9707771383464205
 21
190.3360077523782081
 31
0.0
  0
LINE
  5
F517
  8
0
 10
4321.1845217144800699
 20
190.3031427834438034
 30
0.0
 11
4318.9707771383464205
 21
190.3031427834438034
 31
0.0
  0
LINE
  5
F518
  8
0
 10
4321.178496772778999
 20
190.2816604630104109
 30
0.0
 11
4318.9707771371331546
 21
190.2816604630104109
 31
0.0
  0
LINE
  5
F519
  8
0
 10
4321.1803462223188035
 20
190.2189557998906082
 30
0.0
 11
4318.9684506816338398
 21
190.2189557998906082
 31
0.0
  0
LINE
  5
F51A
  8
0
 10
4321.1778713929243168
 20
190.1862044514359127
 30
0.0
 11
4318.9707771383464205
 21
190.1862044514359127
 31
0.0
  0
LINE
  5
F51B
  8
0
 10
4321.1596851429403614
 20
190.1032063106715952
 30
0.0
 11
4318.9615420671098036
 21
190.1032063106715952
 31
0.0
  0
LINE
  5
F51C
  8
0
 10
4321.1596851427657384
 20
190.064172030106306
 30
0.0
 11
4318.9707771396278986
 21
190.064172030106306
 31
0.0
  0
ARC
  5
F51D
  8
0
 10
4321.147457438548372
 20
188.1941107424279096
 30
0.0
 40
2.1491528540014699
 50
86.8174337715740734
 51
89.0220665602228536
  0
ARC
  5
F51E
  8
0
 10
4321.1438519913926939
 20
192.1160786828203015
 30
0.0
 40
1.7803781798909499
 50
271.0644696929226143
 51
273.9589841048759808
  0
ARC
  5
F51F
  8
0
 10
4321.1476494264143184
 20
189.6742579789346053
 30
0.0
 40
0.6299648108979616
 50
79.0999480532656349
 51
86.6445195527919907
  0
ARC
  5
F520
  8
0
 10
4321.1446369558689184
 20
190.9022018369477109
 30
0.0
 40
0.6214644671816344
 50
273.1232448791855063
 51
281.3341247086398198
  0
ARC
  5
F521
  8
0
 10
4321.1455616800039934
 20
189.7884675605602069
 30
0.0
 40
0.4318912925561384
 50
73.7007913595403323
 51
85.3803920379455548
  0
ARC
  5
F522
  8
0
 10
4321.1443242656832808
 20
190.6074426475825874
 30
0.0
 40
0.4225719200786519
 50
274.5533871536661081
 51
286.844262026203296
  0
ARC
  5
F523
  8
0
 10
4321.1383972671455922
 20
190.4798431284247897
 30
0.0
 40
0.416215852203877
 50
272.931742813864787
 51
287.9650369383973043
  0
ARC
  5
F524
  8
0
 10
4321.1352311408945752
 20
189.6605261370347932
 30
0.0
 40
0.4433550883288326
 50
72.7416475514712602
 51
86.8381494994045937
  0
ARC
  5
F525
  8
0
 10
4318.9706760216686234
 20
190.3232831188597061
 30
0.0
 40
0.0196676973191245
 50
90.2945744655167459
 51
167.173078243774313
  0
ARC
  5
F526
  8
0
 10
4318.9807223555990277
 20
190.3210566925517071
 30
0.0
 40
0.029957667013542
 50
167.2868506114691058
 51
178.3481173475944956
  0
ARC
  5
F527
  8
0
 10
4318.9709026858263314
 20
190.3148704773427085
 30
0.0
 40
0.0211376478500985
 50
90.3403114228345743
 51
147.2254887869667073
  0
ARC
  5
F528
  8
0
 10
4318.9664728299803755
 20
190.3177225362732088
 30
0.0
 40
0.0158690747066809
 50
147.2254887869640072
 51
171.5226250679193924
  0
ARC
  5
F529
  8
0
 10
4318.9712444931719801
 20
190.281867109390106
 30
0.0
 40
0.0212808065395016
 50
91.2583927159435433
 51
164.1071174950218108
  0
ARC
  5
F52A
  8
0
 10
4318.9715528935321345
 20
190.2534182361426076
 30
0.0
 40
0.0282528790822843
 50
91.5734026369004539
 51
137.3368005771826859
  0
ARC
  5
F52B
  8
0
 10
4318.9696139104498798
 20
190.1987781960370114
 30
0.0
 40
0.0202111058221119
 50
93.2994212286828741
 51
158.7489240104515886
  0
ARC
  5
F52C
  8
0
 10
4318.9750567783221413
 20
190.1124360541045917
 30
0.0
 40
0.0738924337341511
 50
93.3202668983018384
 51
109.1826625436168001
  0
ARC
  5
F52D
  8
0
 10
4318.9661596026789994
 20
190.0868091705939094
 30
0.0
 40
0.0170349005708286
 50
105.727546409160297
 51
154.5548511181779929
  0
ARC
  5
F52E
  8
0
 10
4318.972200597409028
 20
190.1129101141603996
 30
0.0
 40
0.0487588665713322
 50
243.9359475784021924
 51
268.3270793932305196
  0
LINE
  5
F52F
  8
0
 10
4321.184137738838217
 20
189.6823002787436963
 30
0.0
 11
4318.9705749046943311
 21
189.6823002787436963
 31
0.0
  0
LINE
  5
F530
  8
0
 10
4321.176926846295828
 20
189.6909539703437133
 30
0.0
 11
4318.9707771383464205
 21
189.6909539703437133
 31
0.0
  0
LINE
  5
F531
  8
0
 10
4321.1845217144800699
 20
189.7274740263437138
 30
0.0
 11
4318.9707771383464205
 21
189.7274740263437138
 31
0.0
  0
LINE
  5
F532
  8
0
 10
4321.178496772778999
 20
189.7504067674437067
 30
0.0
 11
4318.9707771371331546
 21
189.7504067674437067
 31
0.0
  0
LINE
  5
F533
  8
0
 10
4321.1803462223188035
 20
189.8159089130436996
 30
0.0
 11
4318.9684506816338398
 21
189.8159089130436996
 31
0.0
  0
LINE
  5
F534
  8
0
 10
4321.1778713929243168
 20
189.8496294015436945
 30
0.0
 11
4318.9707771383464205
 21
189.8496294015436945
 31
0.0
  0
LINE
  5
F535
  8
0
 10
4321.1596851429403614
 20
189.9341415289437123
 30
0.0
 11
4318.9615420671098036
 21
189.9341415289437123
 31
0.0
  0
LINE
  5
F536
  8
0
 10
4321.1596851427657384
 20
189.9735161262437089
 30
0.0
 11
4318.9707771396278986
 21
189.9735161262437089
 31
0.0
  0
ARC
  5
F537
  8
0
 10
4321.1865392228837663
 20
190.367075020426995
 30
0.0
 40
0.6847789526358899
 50
269.799066279856504
 51
276.72869279802552
  0
ARC
  5
F538
  8
0
 10
4321.1438519913926939
 20
187.9108830399015915
 30
0.0
 40
1.7803781798909499
 50
86.0410158951240049
 51
88.9355303070774852
  0
ARC
  5
F539
  8
0
 10
4321.1672704387437989
 20
190.1424817288215081
 30
0.0
 40
0.4153661031312283
 50
272.3803330864025156
 51
283.8602771262675901
  0
ARC
  5
F53A
  8
0
 10
4321.1446369558689184
 20
189.129865393506293
 30
0.0
 40
0.6214644671816344
 50
78.6658752913602228
 51
86.8767551208145505
  0
ARC
  5
F53B
  8
0
 10
4321.1552441421417825
 20
190.1732413901073073
 30
0.0
 40
0.358213084062629
 50
274.0183428120089957
 51
288.1405521311917823
  0
ARC
  5
F53C
  8
0
 10
4321.1443242656832808
 20
189.4283912053969914
 30
0.0
 40
0.4225719200786519
 50
73.1557379737967324
 51
85.446612846333835
  0
ARC
  5
F53D
  8
0
 10
4321.1383972671455922
 20
189.5578450279251115
 30
0.0
 40
0.416215852203877
 50
72.0349630616027099
 51
87.0682571861351278
  0
ARC
  5
F53E
  8
0
 10
4321.1376020406059979
 20
190.3565964739246112
 30
0.0
 40
0.42303172924441
 50
272.9923143670580998
 51
287.779034672199316
  0
ARC
  5
F53F
  8
0
 10
4318.9706760216686234
 20
189.7019677161262052
 30
0.0
 40
0.0196676973191245
 50
192.8269217562256017
 51
269.7054255344831972
  0
ARC
  5
F540
  8
0
 10
4318.9807223555990277
 20
189.7041941424340905
 30
0.0
 40
0.029957667013542
 50
181.6518826524055044
 51
192.7131493885308942
  0
ARC
  5
F541
  8
0
 10
4318.9709026858263314
 20
189.7120912453790993
 30
0.0
 40
0.0211376478500985
 50
212.7745112130332927
 51
269.6596885771654115
  0
ARC
  5
F542
  8
0
 10
4318.9664728299803755
 20
189.7092391864487126
 30
0.0
 40
0.0158690747066809
 50
188.4773749320806076
 51
212.7745112130359928
  0
ARC
  5
F543
  8
0
 10
4318.9712444931719801
 20
189.7487497003974113
 30
0.0
 40
0.0212808065395016
 50
195.892882504978104
 51
268.7416072840563857
  0
ARC
  5
F544
  8
0
 10
4318.9715528935321345
 20
189.7786489943113963
 30
0.0
 40
0.0282528790822843
 50
222.6631994228173141
 51
268.4265973630995745
  0
ARC
  5
F545
  8
0
 10
4318.9696139104498798
 20
189.8360865168972111
 30
0.0
 40
0.0202111058221119
 50
201.2510759895484114
 51
266.7005787713171117
  0
ARC
  5
F546
  8
0
 10
4318.9750567783221413
 20
189.9233977988751008
 30
0.0
 40
0.0738924337341511
 50
250.8173374563831999
 51
266.6797331016982184
  0
ARC
  5
F547
  8
0
 10
4318.9661596026789994
 20
189.9505386690213982
 30
0.0
 40
0.0170349005708286
 50
205.4451488818205007
 51
254.2724535908396888
  0
ARC
  5
F548
  8
0
 10
4318.972200597409028
 20
189.9247780421895868
 30
0.0
 40
0.0487588665713322
 50
91.672920606769523
 51
116.0640524215977933
  0
ENDSEC
  0
EOF
