  0
SECTION
  2
HEADER
  9
$ACADVER
  1
AC1009
  9
$INSBASE
 10
4325.585101184143241
 20
194.8663500061819889
 30
0.0
  9
$EXTMIN
 10
4317.0507393091684207
 20
192.8474329309129871
 30
0.0
  9
$EXTMAX
 10
4325.5957851609200588
 20
196.0763500061819968
 30
0.0
  9
$LIMMIN
 10
0.0
 20
0.0
  9
$LIMMAX
 10
11.6929133858000007
 20
8.2677165353999982
  9
$ORTHOMODE
 70
     0
  9
$REGENMODE
 70
     1
  9
$FILLMODE
 70
     1
  9
$QTEXTMODE
 70
     0
  9
$MIRRTEXT
 70
     0
  9
$DRAGMODE
 70
     2
  9
$LTSCALE
 40
0.6431102362
  9
$OSMODE
 70
     7
  9
$ATTMODE
 70
     1
  9
$TEXTSIZE
 40
0.2
  9
$TRACEWID
 40
0.05
  9
$TEXTSTYLE
  7
STANDARD
  9
$CLAYER
  8
0
  9
$CELTYPE
  6
BYLAYER
  9
$CECOLOR
 62
   256
  9
$DIMSCALE
 40
1.0
  9
$DIMASZ
 40
0.1875
  9
$DIMEXO
 40
0.0625
  9
$DIMDLI
 40
0.4443307087
  9
$DIMRND
 40
0.0
  9
$DIMDLE
 40
0.0
  9
$DIMEXE
 40
0.125
  9
$DIMTP
 40
0.01
  9
$DIMTM
 40
0.01
  9
$DIMTXT
 40
2.0
  9
$DIMCEN
 40
0.1052362205
  9
$DIMTSZ
 40
0.0
  9
$DIMTOL
 70
     1
  9
$DIMLIM
 70
     0
  9
$DIMTIH
 70
     1
  9
$DIMTOH
 70
     1
  9
$DIMSE1
 70
     0
  9
$DIMSE2
 70
     0
  9
$DIMTAD
 70
     0
  9
$DIMZIN
 70
     0
  9
$DIMBLK
  1

  9
$DIMASO
 70
     1
  9
$DIMSHO
 70
     1
  9
$DIMPOST
  1
\X
  9
$DIMAPOST
  1

  9
$DIMALT
 70
     1
  9
$DIMALTD
 70
     2
  9
$DIMALTF
 40
25.3999999999999986
  9
$DIMLFAC
 40
1.0
  9
$DIMTOFL
 70
     0
  9
$DIMTVP
 40
0.0
  9
$DIMTIX
 70
     0
  9
$DIMSOXD
 70
     0
  9
$DIMSAH
 70
     0
  9
$DIMBLK1
  1

  9
$DIMBLK2
  1

  9
$DIMSTYLE
  2
STANDARD
  9
$DIMCLRD
 70
     0
  9
$DIMCLRE
 70
     0
  9
$DIMCLRT
 70
     0
  9
$DIMTFAC
 40
1.0
  9
$DIMGAP
 40
0.09
  9
$LUNITS
 70
     2
  9
$LUPREC
 70
     4
  9
$SKETCHINC
 40
0.1
  9
$FILLETRAD
 40
0.0
  9
$AUNITS
 70
     0
  9
$AUPREC
 70
     0
  9
$MENU
  1
.
  9
$ELEVATION
 40
0.0
  9
$PELEVATION
 40
0.0
  9
$THICKNESS
 40
0.0
  9
$LIMCHECK
 70
     0
  9
$BLIPMODE
 70
     0
  9
$CHAMFERA
 40
0.0
  9
$CHAMFERB
 40
0.0
  9
$SKPOLY
 70
     0
  9
$TDCREATE
 40
2458060.468368056230247
  9
$TDUPDATE
 40
2459579.6103125000372529
  9
$TDINDWG
 40
0.4463380787
  9
$TDUSRTIMER
 40
0.4463380787
  9
$USRTIMER
 70
     1
  9
$ANGBASE
 50
0.0
  9
$ANGDIR
 70
     0
  9
$PDMODE
 70
     0
  9
$PDSIZE
 40
0.3125
  9
$PLINEWID
 40
0.0
  9
$COORDS
 70
     1
  9
$SPLFRAME
 70
     0
  9
$SPLINETYPE
 70
     6
  9
$SPLINESEGS
 70
     8
  9
$ATTDIA
 70
     1
  9
$ATTREQ
 70
     1
  9
$HANDLING
 70
     1
  9
$HANDSEED
  5
F32D
  9
$SURFTAB1
 70
     6
  9
$SURFTAB2
 70
     6
  9
$SURFTYPE
 70
     6
  9
$SURFU
 70
     6
  9
$SURFV
 70
     6
  9
$UCSNAME
  2

  9
$UCSORG
 10
0.0
 20
0.0
 30
0.0
  9
$UCSXDIR
 10
1.0
 20
0.0
 30
0.0
  9
$UCSYDIR
 10
0.0
 20
1.0
 30
0.0
  9
$PUCSNAME
  2

  9
$PUCSORG
 10
0.0
 20
0.0
 30
0.0
  9
$PUCSXDIR
 10
1.0
 20
0.0
 30
0.0
  9
$PUCSYDIR
 10
0.0
 20
1.0
 30
0.0
  9
$USERI1
 70
     0
  9
$USERI2
 70
     0
  9
$USERI3
 70
     0
  9
$USERI4
 70
     0
  9
$USERI5
 70
     0
  9
$USERR1
 40
0.0
  9
$USERR2
 40
0.0
  9
$USERR3
 40
0.0
  9
$USERR4
 40
0.0
  9
$USERR5
 40
0.0
  9
$WORLDVIEW
 70
     1
  9
$SHADEDGE
 70
     3
  9
$SHADEDIF
 70
    70
  9
$TILEMODE
 70
     1
  9
$MAXACTVP
 70
    64
  9
$PLIMCHECK
 70
     0
  9
$PEXTMIN
 10
1.0000000000000000E+20
 20
1.0000000000000000E+20
 30
1.0000000000000000E+20
  9
$PEXTMAX
 10
-1.0000000000000000E+20
 20
-1.0000000000000000E+20
 30
-1.0000000000000000E+20
  9
$PLIMMIN
 10
0.0
 20
0.0
  9
$PLIMMAX
 10
12.0
 20
9.0
  9
$UNITMODE
 70
     0
  9
$VISRETAIN
 70
     1
  9
$PLINEGEN
 70
     0
  9
$PSLTSCALE
 70
     1
  0
ENDSEC
  0
SECTION
  2
TABLES
  0
TABLE
  2
VPORT
 70
     1
  0
VPORT
  2
*ACTIVE
 70
     0
 10
0.0
 20
0.0
 11
1.0
 21
1.0
 12
517.9048032921781441
 22
68.5373188023473858
 13
0.0
 23
0.0
 14
1.0
 24
1.0
 15
0.0
 25
0.0
 16
0.0
 26
0.0
 36
17.1152628219792007
 17
3803.5440673828129547
 27
125.9952621967499056
 37
0.0
 40
3.9215206666274258
 41
2.2831541218637992
 42
50.0
 43
0.0
 44
0.0
 50
0.0
 51
0.0
 71
     0
 72
   100
 73
     1
 74
     1
 75
     0
 76
     0
 77
     0
 78
     0
  0
ENDTAB
  0
TABLE
  2
LTYPE
 70
     2
  0
LTYPE
  2
CONTINUOUS
 70
     0
  3
Solid line
 72
    65
 73
     0
 40
0.0
  0
LTYPE
  2
PHANTOM2
 70
     0
  3
___ _ _ ___ _ _ ___ _ _ ___ _ _
 72
    65
 73
     6
 40
1.25
 49
0.625
 49
-0.125
 49
0.125
 49
-0.125
 49
0.125
 49
-0.125
  0
ENDTAB
  0
TABLE
  2
LAYER
 70
     2
  0
LAYER
  2
0
 70
     0
 62
   255
  6
CONTINUOUS
  0
LAYER
  2
DEFPOINTS
 70
     0
 62
     7
  6
CONTINUOUS
  0
ENDTAB
  0
TABLE
  2
STYLE
 70
     1
  0
STYLE
  2
STANDARD
 70
     0
 40
0.0
 41
0.8
 50
0.0
 71
     0
 42
0.2
  3
txt
  4

  0
ENDTAB
  0
TABLE
  2
VIEW
 70
     0
  0
ENDTAB
  0
TABLE
  2
UCS
 70
     0
  0
ENDTAB
  0
TABLE
  2
APPID
 70
     9
  0
APPID
  2
ACAD
 70
     0
  0
APPID
  2
ACAD_MLEADERVER
 70
     0
  0
APPID
  2
ACAD_EXEMPT_FROM_CAD_STANDARDS
 70
     0
  0
APPID
  2
ACAD_NAV_VCDISPLAY
 70
     0
  0
APPID
  2
ACAECLAYERSTANDARD
 70
     0
  0
APPID
  2
ACCMTRANSPARENCY
 70
     0
  0
APPID
  2
ACAD_DSTYLE_DIMJAG
 70
     0
  0
APPID
  2
ACAD_DSTYLE_DIMTALN
 70
     0
  0
APPID
  2
ACDBATTR
 70
     0
  0
ENDTAB
  0
TABLE
  2
DIMSTYLE
 70
     1
  0
DIMSTYLE
  2
STANDARD
 70
     0
  3

  4

  5

  6

  7

 40
1.0
 41
0.1875
 42
0.0625
 43
0.38
 44
0.125
 45
0.0
 46
0.0
 47
0.01
 48
0.01
140
0.15625
141
0.09
142
0.0
143
25.3999999999999986
144
1.0
145
0.0
146
1.0
147
0.09
 71
     1
 72
     0
 73
     1
 74
     1
 75
     0
 76
     0
 77
     0
 78
     4
170
     0
171
     2
172
     0
173
     0
174
     0
175
     0
176
     0
177
     0
178
     0
  0
ENDTAB
  0
ENDSEC
  0
SECTION
  2
BLOCKS
  0
BLOCK
  8
0
  2
$MODEL_SPACE
 70
     0
 10
0.0
 20
0.0
 30
0.0
  3
$MODEL_SPACE
  1

  0
ENDBLK
  5
21
  8
0
  0
BLOCK
 67
     1
  8
0
  2
$PAPER_SPACE
 70
     0
 10
0.0
 20
0.0
 30
0.0
  3
$PAPER_SPACE
  1

  0
ENDBLK
  5
1D
 67
     1
  8
0
  0
ENDSEC
  0
SECTION
  2
ENTITIES
  0
ATTDEF
  5
3930
  8
DEFPOINTS
 10
4325.5851184942512191
 20
194.8696986506963924
 30
0.0
 40
0.001
  1
P21250-00
  3

  2
MODELNUMBER
 70
     0
1001
ACDBATTR
1070
     0
1070
     1
  0
ATTDEF
  5
3931
  8
DEFPOINTS
 10
4325.5851184942512191
 20
194.8680319840296988
 30
0.0
 40
0.001
  1
CENTRAL PARK WEST
  3

  2
TRADENAME
 70
     0
1001
ACDBATTR
1070
     0
1070
     1
  0
ATTDEF
  5
3932
  8
DEFPOINTS
 10
4325.5851184942512191
 20
194.8663653173630053
 30
0.0
 40
0.001
  1
BATH SPOUT
  3

  2
PRODUCT
 70
     0
1001
ACDBATTR
1070
     0
1070
     1
  0
LINE
  5
F18E
  8
0
 10
4325.585101184143241
 20
193.6663404395333998
 30
0.0
 11
4325.585101184143241
 21
196.0663595728306063
 31
0.0
  0
LINE
  5
F18F
  8
0
 10
4325.39210118414303
 20
196.0563500061819866
 30
0.0
 11
4325.39210118414303
 21
193.6763500061819911
 31
0.0
  0
LINE
  5
F190
  8
0
 10
4325.2848882953421707
 20
195.8692018895820013
 30
0.0
 11
4325.2848882953421707
 21
193.8634981227820049
 31
0.0
  0
LINE
  5
F191
  8
0
 10
4325.0901011841442596
 20
195.7194268578820129
 30
0.0
 11
4325.0901011841442596
 21
194.0132731544819933
 31
0.0
  0
LINE
  5
F192
  8
0
 10
4325.5751011841430227
 20
196.0763500061819968
 30
0.0
 11
4325.412101184142557
 21
196.0763500061819968
 31
0.0
  0
LINE
  5
F193
  8
0
 10
4325.3601011841428772
 20
195.8863500061819991
 30
0.0
 11
4325.3046839201460898
 21
195.8863500061819991
 31
0.0
  0
LINE
  5
F194
  8
0
 10
4325.0901011841442596
 20
195.4175300061820053
 30
0.0
 11
4318.8800601118518898
 21
195.4175300061820053
 31
0.0
  0
ARC
  5
F195
  8
0
 10
4325.1101011841428772
 20
195.7194268578820129
 30
0.0
 40
0.019999999999996
 50
93.3829079331995331
 51
180.0000000000081002
  0
ARC
  5
F196
  8
0
 10
4325.0952116205253333
 20
195.9713159456271967
 30
0.0
 40
0.2323287768563235
 50
273.3829079331995899
 51
302.3957031943268134
  0
ARC
  5
F197
  8
0
 10
4325.1430397255280695
 20
195.8979069685481988
 30
0.0
 40
0.1447238692029275
 50
301.9781554554145941
 51
348.5598756420088193
  0
ARC
  5
F198
  8
0
 10
4325.3046839201460898
 20
195.8663500061744003
 30
0.0
 40
0.0200000000076646
 50
90.0000000081812885
 51
171.8020123636748053
  0
ARC
  5
F199
  8
0
 10
4325.3601011841428772
 20
195.9183500061820098
 30
0.0
 40
0.032
 50
270.0
 51
0.0
  0
ARC
  5
F19A
  8
0
 10
4325.412101184142557
 20
196.0563500061819866
 30
0.0
 40
0.0199999999999925
 50
90.0
 51
180.0000000000129887
  0
ARC
  5
F19B
  8
0
 10
4325.5751011809015836
 20
196.0663499983573956
 30
0.0
 40
0.0100000078245671
 50
0.0548576650741269
 51
89.999981430214774
  0
LINE
  5
F19D
  8
0
 10
4325.0901011841442596
 20
194.3151700061820009
 30
0.0
 11
4318.8800601118473423
 21
194.3151700061820009
 31
0.0
  0
LINE
  5
F19E
  8
0
 10
4317.2328123307433998
 20
193.9081055129819902
 30
0.0
 11
4317.1890601478426106
 21
193.4080157745819974
 31
0.0
  0
LINE
  5
F19F
  8
0
 10
4317.1585405081432327
 20
193.4006476986820076
 30
0.0
 11
4318.3160018600428884
 21
193.299382951881995
 31
0.0
  0
LINE
  5
F1A0
  8
0
 10
4317.1368734991428937
 20
193.3824669195819865
 30
0.0
 11
4317.1330037841426019
 21
193.33823587498199
 31
0.0
  0
LINE
  5
F1A1
  8
0
 10
4318.3663125251432575
 20
193.2202971431819947
 30
0.0
 11
4317.0952610685426407
 21
193.3314997363819998
 31
0.0
  0
LINE
  5
F1A2
  8
0
 10
4318.3397474547437014
 20
192.9166569991820097
 30
0.0
 11
4317.0686959981430846
 21
193.0278595923819864
 31
0.0
  0
LINE
  5
F1A3
  8
0
 10
4317.1190066631434092
 20
192.9487737836819861
 30
0.0
 11
4318.2764680153431982
 21
192.847509036882002
 31
0.0
  0
LINE
  5
F1A4
  8
0
 10
4317.1046955989431808
 20
193.0146718370820054
 30
0.0
 11
4317.100825883942889
 21
192.9704407924820089
 31
0.0
  0
LINE
  5
F1A5
  8
0
 10
4317.0738968759433192
 20
193.3132924642820001
 30
0.0
 11
4317.0508180352444469
 21
193.0495001081820021
 31
0.0
  0
LINE
  5
F1A6
  8
0
 10
4317.0813914122427377
 20
193.3126367772819947
 30
0.0
 11
4317.0583125716430004
 21
193.0488444212820127
 31
0.0
  0
LINE
  5
F1A7
  8
0
 10
4317.0656337376440206
 20
193.0482039021819958
 30
0.0
 11
4317.0887125783428928
 21
193.3119962582819937
 31
0.0
  0
LINE
  5
F1A8
  8
0
 10
4317.1109409698419768
 20
193.3100515259820043
 30
0.0
 11
4317.0878621291431045
 21
193.0462591699819939
 31
0.0
  0
LINE
  5
F1A9
  8
0
 10
4317.1253339885433888
 20
193.3087923000819899
 30
0.0
 11
4317.1022551478426976
 21
193.0449999439819919
 31
0.0
  0
LINE
  5
F1AA
  8
0
 10
4317.1615392739431627
 20
193.3056247479819945
 30
0.0
 11
4317.1384604333434254
 21
193.0418323919820125
 31
0.0
  0
LINE
  5
F1AB
  8
0
 10
4317.1825140081436984
 20
193.3037896965819868
 30
0.0
 11
4317.1594351675430516
 21
193.0399973404819889
 31
0.0
  0
LINE
  5
F1AC
  8
0
 10
4317.2314632600437108
 20
193.299507191881986
 30
0.0
 11
4317.208384419443064
 21
193.0357148358820041
 31
0.0
  0
LINE
  5
F1AD
  8
0
 10
4317.2583054404431095
 20
193.2971588053819971
 30
0.0
 11
4317.2352265997433278
 21
193.0333664493819867
 31
0.0
  0
LINE
  5
F1AE
  8
0
 10
4317.3183317506436651
 20
193.2919071837820013
 30
0.0
 11
4317.2952529099429739
 21
193.0281148276820034
 31
0.0
  0
LINE
  5
F1AF
  8
0
 10
4317.3501272988432902
 20
193.2891254337820044
 30
0.0
 11
4317.3270484582435529
 21
193.0253330776820064
 31
0.0
  0
LINE
  5
F1B0
  8
0
 10
4317.4191865434431747
 20
193.2830835327820012
 30
0.0
 11
4317.3961077027443025
 21
193.0192911766820032
 31
0.0
  0
LINE
  5
F1B1
  8
0
 10
4317.4548527003425988
 20
193.2799631483819951
 30
0.0
 11
4317.4317738596428171
 21
193.0161707922819971
 31
0.0
  0
LINE
  5
F1B2
  8
0
 10
4317.5305931494431206
 20
193.2733367176820138
 30
0.0
 11
4317.5075143088433833
 21
193.0095443615819875
 31
0.0
  0
LINE
  5
F1B3
  8
0
 10
4317.5689153467419601
 20
193.269983959882012
 30
0.0
 11
4317.5458365060430879
 21
193.006191603782014
 31
0.0
  0
LINE
  5
F1B4
  8
0
 10
4317.6487577503430657
 20
193.2629986546820078
 30
0.0
 11
4317.6256789097442379
 21
192.9992062985820098
 31
0.0
  0
LINE
  5
F1B5
  8
0
 10
4317.6884309716433563
 20
193.2595276975820013
 30
0.0
 11
4317.6653521309426651
 21
192.9957353414820034
 31
0.0
  0
ARC
  5
F1B6
  8
0
 10
4317.1990220949337527
 20
193.4071442172333946
 30
0.0
 40
0.0100000001025331
 50
175.0000005048918865
 51
264.9999999980906864
  0
ARC
  5
F1B7
  8
0
 10
4317.1567973930814333
 20
193.3807238047652106
 30
0.0
 40
0.0199999999731497
 50
84.9999993985220357
 51
175.0000001030265935
  0
ARC
  5
F1B8
  8
0
 10
4317.1230418370423649
 20
193.3391074324588885
 30
0.0
 40
0.0100000001237104
 50
265.000000000496982
 51
354.9999997775648808
  0
ARC
  5
F1B9
  8
0
 10
4317.0937920921223849
 20
193.311585537032812
 30
0.0
 40
0.0199683055727271
 50
85.7812018493034145
 51
175.0962676120126105
  0
ARC
  5
F1BA
  8
0
 10
4317.0707101405696449
 20
193.0477285968152898
 30
0.0
 40
0.0199708314020645
 50
174.9108924791003972
 51
264.2116381923452764
  0
ARC
  5
F1BB
  8
0
 10
4317.0947336518020165
 20
193.0155433944148058
 30
0.0
 40
0.0100000001513069
 50
355.0000006206523722
 51
85.0000000004969678
  0
ARC
  5
F1BC
  8
0
 10
4317.1207497778623292
 20
192.9686976776139034
 30
0.0
 40
0.0199999999582719
 50
174.9999999516168998
 51
265.0000003810993121
  0
ARC
  5
F1BD
  8
0
 10
4318.8800601118518898
 20
193.7639900061595029
 30
0.0
 40
1.653540000022496
 50
90.0000000003126672
 51
175.0000000014755983
  0
LINE
  5
F1BE
  8
0
 10
4318.3309775181432997
 20
193.8120285084820011
 30
0.0
 11
4318.28722533524342
 21
193.3119387699819924
 31
0.0
  0
ARC
  5
F1BF
  8
0
 10
4318.8800601118473423
 20
193.7639900061689957
 30
0.0
 40
0.5511800000130278
 50
90.0000000005210836
 51
174.9999999974693026
  0
ARC
  5
F1C0
  8
0
 10
4318.2772633881822912
 20
193.3128103274381999
 30
0.0
 40
0.0100000000822677
 50
264.9999999980906864
 51
354.9999998759349182
  0
ARC
  5
F1C1
  8
0
 10
4317.1018153856221033
 20
193.3103709594768134
 30
0.0
 40
0.0205492729530694
 50
89.8024852098898947
 51
173.6695421517308944
  0
ARC
  5
F1C2
  8
0
 10
4317.1094422438882248
 20
193.3101356046757076
 30
0.0
 40
0.020813002316301
 50
100.5942752486922984
 51
174.8709891237382124
  0
ARC
  5
F1C3
  8
0
 10
4317.1308466244026931
 20
193.3083578203614081
 30
0.0
 40
0.0199775804885281
 50
87.8788265029054259
 51
175.1366075985349084
  0
ARC
  5
F1C4
  8
0
 10
4317.1474659646492
 20
193.3068022934448891
 30
0.0
 40
0.0222212621776975
 50
110.5184347153259949
 51
174.8620407938533106
  0
ARC
  5
F1C5
  8
0
 10
4317.1822092358088412
 20
193.3036593030477945
 30
0.0
 40
0.0207631957407112
 50
98.8852469134008203
 51
174.5682466517658895
  0
ARC
  5
F1C6
  8
0
 10
4317.2081226516156676
 20
193.3012705753835974
 30
0.0
 40
0.0257322480977731
 50
122.9988911335485966
 51
174.3818915027744936
  0
ARC
  5
F1C7
  8
0
 10
4317.2525685105019875
 20
193.2976027244910995
 30
0.0
 40
0.0211910026417184
 50
103.8223914448597043
 51
174.8437848394904961
  0
ARC
  5
F1C8
  8
0
 10
4317.2900657696745839
 20
193.2938182281976083
 30
0.0
 40
0.0319355283169795
 50
134.924993922051101
 51
173.9956605099312128
  0
ARC
  5
F1C9
  8
0
 10
4317.3384572510531143
 20
193.2915755298716078
 30
0.0
 40
0.0201282329340486
 50
107.6462600115298045
 51
179.0558918247371878
  0
ARC
  5
F1CA
  8
0
 10
4317.411994354424678
 20
193.2800694222503068
 30
0.0
 40
0.0625263457362902
 50
152.7955681853896976
 51
171.6722678385887093
  0
ARC
  5
F1CB
  8
0
 10
4317.438387732296178
 20
193.2837714638926059
 30
0.0
 40
0.0192135083361657
 50
108.340560457265596
 51
182.0518884408317035
  0
ARC
  5
F1CC
  8
0
 10
4317.5756640984836849
 20
193.263212130372608
 30
0.0
 40
0.1219671698659028
 50
162.6157719393360992
 51
172.1060251531760912
  0
ARC
  5
F1CD
  8
0
 10
4317.5499626676282787
 20
193.2730143638829077
 30
0.0
 40
0.0193722003575798
 50
100.879290462574204
 51
179.0465530862232981
  0
LINE
  5
F1CE
  8
0
 10
4317.5689153467419601
 20
193.269983959882012
 30
0.0
 11
4317.5716696515828517
 21
193.2898193861636003
 31
0.0
  0
ARC
  5
F1CF
  8
0
 10
4317.6691512374827653
 20
193.2607293115648872
 30
0.0
 40
0.0205193624629293
 50
88.3974940339780346
 51
173.6503722906631992
  0
ARC
  5
F1D0
  8
0
 10
4317.669762456153876
 20
193.2623059201858098
 30
0.0
 40
0.0188741090224741
 50
351.5354447809040721
 51
82.7391949314200161
  0
ARC
  5
F1D1
  8
0
 10
4317.0788197140445845
 20
193.0475292304087986
 30
0.0
 40
0.0205492729530694
 50
176.3304578561723019
 51
260.1975147980090242
  0
ARC
  5
F1D2
  8
0
 10
4317.0863715721288827
 20
193.046436619603611
 30
0.0
 40
0.020813002316301
 50
175.1290108841675988
 51
249.4057247592145927
  0
ARC
  5
F1D3
  8
0
 10
4317.1077594810149094
 20
193.0444705637119114
 30
0.0
 40
0.0199775804885281
 50
174.8633924093709879
 51
262.1211735049701019
  0
ARC
  5
F1D4
  8
0
 10
4317.1243964505538315
 20
193.0431165405337879
 30
0.0
 40
0.0222212621776975
 50
175.13795921405179
 51
239.4815652925854863
  0
ARC
  5
F1D5
  8
0
 10
4317.1591576679138598
 20
193.0401786761260041
 30
0.0
 40
0.0207631957407112
 50
175.4317533561369089
 51
251.1147530945380026
  0
ARC
  5
F1D6
  8
0
 10
4317.1850921989125709
 20
193.0380312962211065
 30
0.0
 40
0.025732248097773
 50
175.6181085051279922
 51
227.0011088743590051
  0
ARC
  5
F1D7
  8
0
 10
4317.2294997409571806
 20
193.0339254818227914
 30
0.0
 40
0.0211910026417184
 50
175.1562151684130129
 51
246.1776085630648083
  0
ARC
  5
F1D8
  8
0
 10
4317.2670845033926526
 20
193.0311411523960032
 30
0.0
 40
0.0319355283169795
 50
176.0043394979724951
 51
215.0750060858543122
  0
ARC
  5
F1D9
  8
0
 10
4317.3151302499109079
 20
193.0249466865460874
 30
0.0
 40
0.0201282329340486
 50
170.9441081831639053
 51
242.3537399963813925
  0
ARC
  5
F1DA
  8
0
 10
4317.3895481740655669
 20
193.0235084065573972
 30
0.0
 40
0.0625263457362901
 50
178.3277321693122985
 51
197.2044318225077006
  0
ARC
  5
F1DB
  8
0
 10
4317.4148977244385605
 20
193.0152794452795888
 30
0.0
 40
0.0192135083361657
 50
167.9481115670650127
 51
241.6594395506359092
  0
ARC
  5
F1DC
  8
0
 10
4317.5536586449661627
 20
193.0116886455207919
 30
0.0
 40
0.1219671698659027
 50
177.8939748547261956
 51
187.384228068566614
  0
ARC
  5
F1DD
  8
0
 10
4317.5266455366099763
 20
193.0064983365909086
 30
0.0
 40
0.0193722003575798
 50
170.9534469216829109
 51
249.1207095452967053
  0
LINE
  5
F1DE
  8
0
 10
4317.5458365060749202
 20
193.0061916037581113
 30
0.0
 11
4317.5451045812123994
 21
192.9861792421554867
 31
0.0
  0
ARC
  5
F1DF
  8
0
 10
4317.6461566412226603
 20
192.9978998734223126
 30
0.0
 40
0.0205193624629293
 50
176.3496277172378939
 51
261.6025059738931873
  0
ARC
  5
F1E0
  8
0
 10
4317.6464847988945621
 20
192.9962410800206101
 30
0.0
 40
0.0188741090224741
 50
267.2608050764619065
 51
358.4645552269990958
  0
LINE
  5
F1E1
  8
0
 10
4318.3341826395362659
 20
193.2777159431448979
 30
0.0
 11
4318.3303129245850869
 21
193.2334848985406097
 31
0.0
  0
LINE
  5
F1E2
  8
0
 10
4318.3020047393483765
 20
192.9099208606438083
 30
0.0
 11
4318.2981350243971974
 21
192.8656898160394917
 31
0.0
  0
LINE
  5
F1E3
  8
0
 10
4318.3841904882292511
 20
193.1986566274075869
 30
0.0
 11
4318.3611116475985909
 21
192.934864271301592
 31
0.0
  0
LINE
  5
F1E4
  8
0
 10
4318.3766959519216471
 20
193.199312314336396
 30
0.0
 11
4318.3536171112109514
 21
192.9355199583461911
 31
0.0
  0
LINE
  5
F1E5
  8
0
 10
4318.3462959451981078
 20
192.9361604773039005
 30
0.0
 11
4318.3693747858296774
 21
193.1999528334098954
 31
0.0
  0
LINE
  5
F1E6
  8
0
 10
4318.3471463943233175
 20
193.201897565636699
 30
0.0
 11
4318.3240675537090283
 21
192.9381052096292137
 31
0.0
  0
LINE
  5
F1E7
  8
0
 10
4318.3327533756337289
 20
193.2031567916739903
 30
0.0
 11
4318.3096745350039782
 21
192.9393644355679953
 31
0.0
  0
LINE
  5
F1E8
  8
0
 10
4318.2965480902230411
 20
193.2063243436344919
 30
0.0
 11
4318.2734692495096169
 21
192.942531987644287
 31
0.0
  0
LINE
  5
F1E9
  8
0
 10
4318.2755733560334193
 20
193.2081593951565992
 30
0.0
 11
4318.2524945153027147
 21
192.9443670390679131
 31
0.0
  0
LINE
  5
F1EA
  8
0
 10
4318.2266241041197645
 20
193.2124418997094892
 30
0.0
 11
4318.2035452634081594
 21
192.948649543719398
 31
0.0
  0
LINE
  5
F1EB
  8
0
 10
4318.1997819237185468
 20
193.2147902861846092
 30
0.0
 11
4318.176703083105167
 21
192.9509979301770954
 31
0.0
  0
LINE
  5
F1EC
  8
0
 10
4318.1397556135270861
 20
193.2200419078870937
 30
0.0
 11
4318.1166767728973355
 21
192.9562495517810135
 31
0.0
  0
LINE
  5
F1ED
  8
0
 10
4318.1079600653301895
 20
193.2228236579186103
 30
0.0
 11
4318.0848812246003945
 21
192.9590313018298957
 31
0.0
  0
LINE
  5
F1EE
  8
0
 10
4318.038900820732124
 20
193.2288655589372013
 30
0.0
 11
4318.0158219800996449
 21
192.9650732028312063
 31
0.0
  0
LINE
  5
F1EF
  8
0
 10
4318.0032346638317904
 20
193.231985943332802
 30
0.0
 11
4317.9801558232002208
 21
192.968193587226807
 31
0.0
  0
LINE
  5
F1F0
  8
0
 10
4317.9274942147249021
 20
193.2386123739561015
 30
0.0
 11
4317.9044153739951071
 21
192.9748200178675006
 31
0.0
  0
LINE
  5
F1F1
  8
0
 10
4317.8891720174287912
 20
193.2419651318008107
 30
0.0
 11
4317.8660931767972215
 21
192.9781727756947021
 31
0.0
  0
LINE
  5
F1F2
  8
0
 10
4317.8093296138249571
 20
193.2489504369573012
 30
0.0
 11
4317.786250773095162
 21
192.9851580808685867
 31
0.0
  0
LINE
  5
F1F3
  8
0
 10
4317.7696563925255759
 20
193.2524213940702964
 30
0.0
 11
4317.7465775518940063
 21
192.9886290379643015
 31
0.0
  0
ARC
  5
F1F4
  8
0
 10
4318.2772633883250819
 20
193.3128103275911087
 30
0.0
 40
0.0100000001025331
 50
265.0000000098083888
 51
354.9999995030079276
  0
ARC
  5
F1F5
  8
0
 10
4318.3142587456040928
 20
193.2794590580305965
 30
0.0
 40
0.0199999999731497
 50
354.9999999048794166
 51
85.0000006094291223
  0
ARC
  5
F1F6
  8
0
 10
4318.3402748716925998
 20
193.2326133411424109
 30
0.0
 40
0.0100000001237104
 50
175.0000002303411009
 51
265.0000000074022068
  0
ARC
  5
F1F7
  8
0
 10
4318.3643011202821071
 20
193.2004304002497861
 30
0.0
 40
0.0199683055727271
 50
354.9037323958958723
 51
84.2187981585608441
  0
ARC
  5
F1F8
  8
0
 10
4318.3412141283261008
 20
192.9365739010104903
 30
0.0
 40
0.0199708314020645
 50
265.7883618155669865
 51
355.0891075288033107
  0
ARC
  5
F1F9
  8
0
 10
4318.3119666864713508
 20
192.9090493030965945
 30
0.0
 40
0.0100000001513069
 50
85.000000007454048
 51
174.9999993872534958
  0
ARC
  5
F1FA
  8
0
 10
4318.2782111304759383
 20
192.867432930871189
 30
0.0
 40
0.0199999999582719
 50
264.9999996267998199
 51
355.0000000562890818
  0
ARC
  5
F1FB
  8
0
 10
4318.3561888094591268
 20
193.200627505150095
 30
0.0
 40
0.0205492729530694
 50
356.3304578561738936
 51
80.1975147980089957
  0
ARC
  5
F1FC
  8
0
 10
4318.3486369513757381
 20
193.201720115955311
 30
0.0
 40
0.020813002316301
 50
355.1290108841677124
 51
69.4057247592146211
  0
ARC
  5
F1FD
  8
0
 10
4318.3272490424878924
 20
193.2036861718470107
 30
0.0
 40
0.0199775804885281
 50
354.8633924093726932
 51
82.1211735049701019
  0
ARC
  5
F1FE
  8
0
 10
4318.3106120729489703
 20
193.2050401950251057
 30
0.0
 40
0.0222212621776975
 50
355.1379592140518184
 51
59.4815652925855289
  0
ARC
  5
F1FF
  8
0
 10
4318.2758508555907611
 20
193.2079780594328895
 30
0.0
 40
0.0207631957407112
 50
355.4317533561368805
 51
71.1147530945380311
  0
ARC
  5
F200
  8
0
 10
4318.2499163245911404
 20
193.2101254393377872
 30
0.0
 40
0.0257322480977731
 50
355.6181085051280206
 51
47.0011088743590335
  0
ARC
  5
F201
  8
0
 10
4318.2055087825474402
 20
193.2142312537359885
 30
0.0
 40
0.0211910026417184
 50
355.1562151684129844
 51
66.1776085630647799
  0
ARC
  5
F202
  8
0
 10
4318.1679240201110588
 20
193.2170155831628904
 30
0.0
 40
0.0319355283169795
 50
356.0043394979725235
 51
35.075006085854298
  0
ARC
  5
F203
  8
0
 10
4318.1198782735937129
 20
193.2232100490128062
 30
0.0
 40
0.0201282329340486
 50
350.9441081831639053
 51
62.353739996381421
  0
ARC
  5
F204
  8
0
 10
4318.0454603494381445
 20
193.2246483290014964
 30
0.0
 40
0.0625263457362902
 50
358.3277321693122985
 51
17.2044318225076793
  0
ARC
  5
F205
  8
0
 10
4318.0201107990651508
 20
193.2328772902791911
 30
0.0
 40
0.0192135083361657
 50
347.9481115670649842
 51
61.6594395506359305
  0
ARC
  5
F206
  8
0
 10
4317.8813498785366392
 20
193.2364680900381018
 30
0.0
 40
0.1219671698659028
 50
357.8939748547261956
 51
7.3842280685666912
  0
ARC
  5
F207
  8
0
 10
4317.9083629868928256
 20
193.2416583989680134
 30
0.0
 40
0.0193722003575798
 50
350.9534469216828825
 51
69.1207095452966911
  0
LINE
  5
F208
  8
0
 10
4317.8891720174287912
 20
193.2419651318008107
 30
0.0
 11
4317.889903942293131
 21
193.2619774934034069
 31
0.0
  0
ARC
  5
F209
  8
0
 10
4317.7888518822819606
 20
193.2502568621366095
 30
0.0
 40
0.0205193624629293
 50
356.3496277172379223
 51
81.6025059738931731
  0
ARC
  5
F20A
  8
0
 10
4317.7885237246091492
 20
193.251915655538312
 30
0.0
 40
0.0188741090224741
 50
87.260805076461935
 51
178.4645552269990105
  0
ARC
  5
F20B
  8
0
 10
4318.333193137881608
 20
192.937785776081995
 30
0.0
 40
0.0205492729530694
 50
269.8024852098898805
 51
353.6695421517309228
  0
ARC
  5
F20C
  8
0
 10
4318.3255662796173056
 20
192.9380211308831008
 30
0.0
 40
0.020813002316301
 50
280.5942752486923268
 51
354.8709891237381839
  0
ARC
  5
F20D
  8
0
 10
4318.3041618991019277
 20
192.9397989151975139
 30
0.0
 40
0.0199775804885281
 50
267.8788265029053832
 51
355.1366075985349084
  0
ARC
  5
F20E
  8
0
 10
4318.2875425588554208
 20
192.9413544421140045
 30
0.0
 40
0.0222212621776975
 50
290.5184347153260092
 51
354.8620407938532821
  0
ARC
  5
F20F
  8
0
 10
4318.2527992876939607
 20
192.9444974325110991
 30
0.0
 40
0.0207631957407112
 50
278.8852469134009198
 51
354.5682466517658895
  0
ARC
  5
F210
  8
0
 10
4318.2268858718871343
 20
192.9468861601752963
 30
0.0
 40
0.025732248097773
 50
302.998891133548625
 51
354.381891502774522
  0
ARC
  5
F211
  8
0
 10
4318.1824400130026333
 20
192.9505540110677941
 30
0.0
 40
0.0211910026417184
 50
283.8223914448597043
 51
354.8437848394905245
  0
ARC
  5
F212
  8
0
 10
4318.144942753828218
 20
192.9543385073612001
 30
0.0
 40
0.0319355283169795
 50
314.924993922051101
 51
353.9956605099312128
  0
ARC
  5
F213
  8
0
 10
4318.096551272452416
 20
192.9565812056873142
 30
0.0
 40
0.0201282329340486
 50
287.6462600115298187
 51
359.0558918247372731
  0
ARC
  5
F214
  8
0
 10
4318.0230141690799428
 20
192.9680873133085868
 30
0.0
 40
0.0625263457362901
 50
332.7955681853896976
 51
351.6722678385887093
  0
ARC
  5
F215
  8
0
 10
4317.9966207912084428
 20
192.9643852716662025
 30
0.0
 40
0.0192135083361657
 50
288.3405604572656102
 51
2.0518884408333982
  0
ARC
  5
F216
  8
0
 10
4317.8593444250200264
 20
192.9849446051862003
 30
0.0
 40
0.1219671698659027
 50
342.6157719393361276
 51
352.1060251531761196
  0
ARC
  5
F217
  8
0
 10
4317.8850458558763421
 20
192.9751423716759859
 30
0.0
 40
0.0193722003575798
 50
280.879290462574204
 51
359.0465530862232981
  0
LINE
  5
F218
  8
0
 10
4317.8660931767599322
 20
192.9781727756767964
 30
0.0
 11
4317.8633388719217692
 21
192.9583373493952934
 31
0.0
  0
ARC
  5
F219
  8
0
 10
4317.7658572860218555
 20
192.9874274239938927
 30
0.0
 40
0.0205193624629293
 50
268.3974940339779778
 51
353.6503722906631992
  0
ARC
  5
F21A
  8
0
 10
4317.7652460673498354
 20
192.9858508153731123
 30
0.0
 40
0.0188741090224741
 50
171.5354447809039868
 51
262.7391949314200019
  0
LINE
  5
F21B
  8
0
 10
4325.5751011841430227
 20
193.6563500061820093
 30
0.0
 11
4325.412101184142557
 21
193.6563500061820093
 31
0.0
  0
LINE
  5
F21C
  8
0
 10
4325.3601011841428772
 20
193.8463500061820071
 30
0.0
 11
4325.3046839201460898
 21
193.8463500061820071
 31
0.0
  0
ARC
  5
F21D
  8
0
 10
4325.1101011841428772
 20
194.0132731544819933
 30
0.0
 40
0.019999999999996
 50
179.9999999999917861
 51
266.6170920668005238
  0
ARC
  5
F21E
  8
0
 10
4325.0952116205253333
 20
193.7613840667368947
 30
0.0
 40
0.2323287768563235
 50
57.6042968056732718
 51
86.6170920668004243
  0
ARC
  5
F21F
  8
0
 10
4325.1430397255280695
 20
193.8347930438158926
 30
0.0
 40
0.1447238692029275
 50
11.4401243579912304
 51
58.0218445445853703
  0
ARC
  5
F220
  8
0
 10
4325.3046839201460898
 20
193.8663500061896912
 30
0.0
 40
0.0200000000076646
 50
188.1979876363251947
 51
269.9999999918186973
  0
ARC
  5
F221
  8
0
 10
4325.3601011841428772
 20
193.8143500061819964
 30
0.0
 40
0.032
 50
0.0
 51
90.0
  0
ARC
  5
F222
  8
0
 10
4325.412101184142557
 20
193.6763500061819911
 30
0.0
 40
0.0199999999999925
 50
179.9999999999870113
 51
270.0
  0
ARC
  5
F223
  8
0
 10
4325.5751011809015836
 20
193.6663500140066105
 30
0.0
 40
0.0100000078245671
 50
270.0000185697851975
 51
359.9451423440501117
  0
ENDSEC
  0
EOF
