  0
SECTION
  2
HEADER
  9
$ACADVER
  1
AC1009
  9
$INSBASE
 10
4332.9383971557999757
 20
197.6886601661167049
 30
0.0
  9
$EXTMIN
 10
4328.8753445389265835
 20
197.6744208657181048
 30
-0.0000000000112498
  9
$EXTMAX
 10
4338.8057747386374103
 20
234.8954032226099002
 30
0.0000000000002956
  9
$LIMMIN
 10
0.0
 20
0.0
  9
$LIMMAX
 10
11.6929133858000007
 20
8.2677165353999982
  9
$ORTHOMODE
 70
     0
  9
$REGENMODE
 70
     1
  9
$FILLMODE
 70
     1
  9
$QTEXTMODE
 70
     0
  9
$MIRRTEXT
 70
     0
  9
$DRAGMODE
 70
     2
  9
$LTSCALE
 40
0.6431102362
  9
$OSMODE
 70
     7
  9
$ATTMODE
 70
     1
  9
$TEXTSIZE
 40
0.2
  9
$TRACEWID
 40
0.05
  9
$TEXTSTYLE
  7
STANDARD
  9
$CLAYER
  8
0
  9
$CELTYPE
  6
BYLAYER
  9
$CECOLOR
 62
   256
  9
$DIMSCALE
 40
1.0
  9
$DIMASZ
 40
0.1875
  9
$DIMEXO
 40
0.0625
  9
$DIMDLI
 40
0.4443307087
  9
$DIMRND
 40
0.0
  9
$DIMDLE
 40
0.0
  9
$DIMEXE
 40
0.125
  9
$DIMTP
 40
0.01
  9
$DIMTM
 40
0.01
  9
$DIMTXT
 40
2.0
  9
$DIMCEN
 40
0.1052362205
  9
$DIMTSZ
 40
0.0
  9
$DIMTOL
 70
     1
  9
$DIMLIM
 70
     0
  9
$DIMTIH
 70
     1
  9
$DIMTOH
 70
     1
  9
$DIMSE1
 70
     0
  9
$DIMSE2
 70
     0
  9
$DIMTAD
 70
     0
  9
$DIMZIN
 70
     0
  9
$DIMBLK
  1

  9
$DIMASO
 70
     1
  9
$DIMSHO
 70
     1
  9
$DIMPOST
  1
\X
  9
$DIMAPOST
  1

  9
$DIMALT
 70
     1
  9
$DIMALTD
 70
     2
  9
$DIMALTF
 40
25.3999999999999986
  9
$DIMLFAC
 40
1.0
  9
$DIMTOFL
 70
     0
  9
$DIMTVP
 40
0.0
  9
$DIMTIX
 70
     0
  9
$DIMSOXD
 70
     0
  9
$DIMSAH
 70
     0
  9
$DIMBLK1
  1

  9
$DIMBLK2
  1

  9
$DIMSTYLE
  2
STANDARD
  9
$DIMCLRD
 70
     0
  9
$DIMCLRE
 70
     0
  9
$DIMCLRT
 70
     0
  9
$DIMTFAC
 40
1.0
  9
$DIMGAP
 40
0.09
  9
$LUNITS
 70
     2
  9
$LUPREC
 70
     4
  9
$SKETCHINC
 40
0.1
  9
$FILLETRAD
 40
0.0
  9
$AUNITS
 70
     0
  9
$AUPREC
 70
     0
  9
$MENU
  1
.
  9
$ELEVATION
 40
0.0
  9
$PELEVATION
 40
0.0
  9
$THICKNESS
 40
0.0
  9
$LIMCHECK
 70
     0
  9
$BLIPMODE
 70
     0
  9
$CHAMFERA
 40
0.0
  9
$CHAMFERB
 40
0.0
  9
$SKPOLY
 70
     0
  9
$TDCREATE
 40
2458060.468368056230247
  9
$TDUPDATE
 40
2459580.6485300930216908
  9
$TDINDWG
 40
0.4422987269
  9
$TDUSRTIMER
 40
0.4422987269
  9
$USRTIMER
 70
     1
  9
$ANGBASE
 50
0.0
  9
$ANGDIR
 70
     0
  9
$PDMODE
 70
     0
  9
$PDSIZE
 40
0.3125
  9
$PLINEWID
 40
0.0
  9
$COORDS
 70
     1
  9
$SPLFRAME
 70
     0
  9
$SPLINETYPE
 70
     6
  9
$SPLINESEGS
 70
     8
  9
$ATTDIA
 70
     1
  9
$ATTREQ
 70
     1
  9
$HANDLING
 70
     1
  9
$HANDSEED
  5
EBA7
  9
$SURFTAB1
 70
     6
  9
$SURFTAB2
 70
     6
  9
$SURFTYPE
 70
     6
  9
$SURFU
 70
     6
  9
$SURFV
 70
     6
  9
$UCSNAME
  2

  9
$UCSORG
 10
0.0
 20
0.0
 30
0.0
  9
$UCSXDIR
 10
1.0
 20
0.0
 30
0.0
  9
$UCSYDIR
 10
0.0
 20
1.0
 30
0.0
  9
$PUCSNAME
  2

  9
$PUCSORG
 10
0.0
 20
0.0
 30
0.0
  9
$PUCSXDIR
 10
1.0
 20
0.0
 30
0.0
  9
$PUCSYDIR
 10
0.0
 20
1.0
 30
0.0
  9
$USERI1
 70
     0
  9
$USERI2
 70
     0
  9
$USERI3
 70
     0
  9
$USERI4
 70
     0
  9
$USERI5
 70
     0
  9
$USERR1
 40
0.0
  9
$USERR2
 40
0.0
  9
$USERR3
 40
0.0
  9
$USERR4
 40
0.0
  9
$USERR5
 40
0.0
  9
$WORLDVIEW
 70
     1
  9
$SHADEDGE
 70
     3
  9
$SHADEDIF
 70
    70
  9
$TILEMODE
 70
     1
  9
$MAXACTVP
 70
    64
  9
$PLIMCHECK
 70
     0
  9
$PEXTMIN
 10
1.0000000000000000E+20
 20
1.0000000000000000E+20
 30
1.0000000000000000E+20
  9
$PEXTMAX
 10
-1.0000000000000000E+20
 20
-1.0000000000000000E+20
 30
-1.0000000000000000E+20
  9
$PLIMMIN
 10
0.0
 20
0.0
  9
$PLIMMAX
 10
12.0
 20
9.0
  9
$UNITMODE
 70
     0
  9
$VISRETAIN
 70
     1
  9
$PLINEGEN
 70
     0
  9
$PSLTSCALE
 70
     1
  0
ENDSEC
  0
SECTION
  2
TABLES
  0
TABLE
  2
VPORT
 70
     1
  0
VPORT
  2
*ACTIVE
 70
     0
 10
0.0
 20
0.0
 11
1.0
 21
1.0
 12
530.2964922559693832
 22
90.2896498474141254
 13
0.0
 23
0.0
 14
1.0
 24
1.0
 15
0.0
 25
0.0
 16
0.0
 26
0.0
 36
17.1152628219792007
 17
3803.5440673828129547
 27
125.9952621967499056
 37
0.0
 40
37.4874810372513991
 41
2.2831541218637992
 42
50.0
 43
0.0
 44
0.0
 50
0.0
 51
0.0
 71
     0
 72
   100
 73
     1
 74
     1
 75
     0
 76
     0
 77
     0
 78
     0
  0
ENDTAB
  0
TABLE
  2
LTYPE
 70
     3
  0
LTYPE
  2
CONTINUOUS
 70
     0
  3
Solid line
 72
    65
 73
     0
 40
0.0
  0
LTYPE
  2
PHANTOM2
 70
     0
  3
___ _ _ ___ _ _ ___ _ _ ___ _ _
 72
    65
 73
     6
 40
1.25
 49
0.625
 49
-0.125
 49
0.125
 49
-0.125
 49
0.125
 49
-0.125
  0
ENDTAB
  0
TABLE
  2
LAYER
 70
     2
  0
LAYER
  2
0
 70
     0
 62
   255
  6
CONTINUOUS
  0
LAYER
  2
DEFPOINTS
 70
     0
 62
     7
  6
CONTINUOUS
  0
ENDTAB
  0
TABLE
  2
STYLE
 70
     1
  0
STYLE
  2
STANDARD
 70
     0
 40
0.0
 41
0.8
 50
0.0
 71
     0
 42
0.2
  3
txt
  4

  0
ENDTAB
  0
TABLE
  2
VIEW
 70
     0
  0
ENDTAB
  0
TABLE
  2
UCS
 70
     0
  0
ENDTAB
  0
TABLE
  2
APPID
 70
     9
  0
APPID
  2
ACAD
 70
     0
  0
APPID
  2
ACAD_MLEADERVER
 70
     0
  0
APPID
  2
ACAD_EXEMPT_FROM_CAD_STANDARDS
 70
     0
  0
APPID
  2
ACAD_NAV_VCDISPLAY
 70
     0
  0
APPID
  2
ACAECLAYERSTANDARD
 70
     0
  0
APPID
  2
ACCMTRANSPARENCY
 70
     0
  0
APPID
  2
ACAD_DSTYLE_DIMJAG
 70
     0
  0
APPID
  2
ACAD_DSTYLE_DIMTALN
 70
     0
  0
APPID
  2
ACDBATTR
 70
     0
  0
ENDTAB
  0
TABLE
  2
DIMSTYLE
 70
     2
  0
DIMSTYLE
  2
STANDARD
 70
     0
  3

  4

  5

  6

  7

 40
1.0
 41
0.1875
 42
0.0625
 43
0.38
 44
0.125
 45
0.0
 46
0.0
 47
0.01
 48
0.01
140
0.15625
141
0.09
142
0.0
143
25.3999999999999986
144
1.0
145
0.0
146
1.0
147
0.09
 71
     1
 72
     0
 73
     1
 74
     1
 75
     0
 76
     0
 77
     0
 78
     4
170
     0
171
     2
172
     0
173
     0
174
     0
175
     0
176
     0
177
     0
178
     0
  0
ENDTAB
  0
ENDSEC
  0
SECTION
  2
BLOCKS
  0
BLOCK
  8
0
  2
$MODEL_SPACE
 70
     0
 10
0.0
 20
0.0
 30
0.0
  3
$MODEL_SPACE
  1

  0
ENDBLK
  5
21
  8
0
  0
BLOCK
 67
     1
  8
0
  2
$PAPER_SPACE
 70
     0
 10
0.0
 20
0.0
 30
0.0
  3
$PAPER_SPACE
  1

  0
ENDBLK
  5
1D
 67
     1
  8
0
  0
ENDSEC
  0
SECTION
  2
ENTITIES
  0
ATTDEF
  5
3930
  8
DEFPOINTS
 10
4332.9384197611198033
 20
197.6920091800083981
 30
0.0
 40
0.001
  1
P21249-00
  3

  2
MODELNUMBER
 70
     0
1001
ACDBATTR
1070
     0
1070
     1
  0
ATTDEF
  5
3931
  8
DEFPOINTS
 10
4332.9384197611198033
 20
197.6903425133417045
 30
0.0
 40
0.001
  1
CENTRAL PARK WEST
  3

  2
TRADENAME
 70
     0
1001
ACDBATTR
1070
     0
1070
     1
  0
ATTDEF
  5
3932
  8
DEFPOINTS
 10
4332.9384197611198033
 20
197.6886758466750962
 30
0.0
 40
0.001
  1
BATH FILLER
  3

  2
PRODUCT
 70
     0
1001
ACDBATTR
1070
     0
1070
     1
  0
LINE
  5
E893
  8
0
 10
4335.2906018801986647
 20
197.6886601661167049
 30
0.0
 11
4330.5861924313985583
 21
197.6886601661167049
 31
0.0
  0
LINE
  5
E894
  8
0
 10
4330.5961883038544329
 20
198.4760617409166059
 30
0.0
 11
4335.2806060077446091
 21
198.4760617409166059
 31
0.0
  0
LINE
  5
E895
  8
0
 10
4330.576192431400159
 20
198.4560617406154108
 30
0.0
 11
4330.576192431400159
 21
197.6986601661166958
 31
0.0
  0
ARC
  5
E896
  8
0
 10
4330.5861924313985583
 20
197.6986601661166958
 30
0.0
 40
0.009999999999998
 50
179.9999999999901945
 51
270.0
  0
ARC
  5
E897
  8
0
 10
4330.5961924321272818
 20
198.4560617406154108
 30
0.0
 40
0.0200000007273391
 50
90.0118266295878158
 51
179.9999991369149086
  0
LINE
  5
E898
  8
0
 10
4332.1509955809997336
 20
226.9563768669167132
 30
0.0
 11
4332.1509955809997336
 21
224.8894475675828062
 31
0.0
  0
LINE
  5
E899
  8
0
 10
4332.1509955809997336
 20
222.6847231583504936
 30
0.0
 11
4332.1509955809997336
 21
198.4760617409166059
 31
0.0
  0
LINE
  5
E89A
  8
0
 10
4332.1509955809997336
 20
226.9563768669167132
 30
0.0
 11
4333.7257987306002178
 21
226.9563768669167132
 31
0.0
  0
LINE
  5
E89B
  8
0
 10
4332.3448971558000267
 20
226.9563768669167132
 30
0.0
 11
4332.3448971558000267
 21
231.7471410795166946
 31
0.0
  0
LINE
  5
E89C
  8
0
 10
4332.3448971558000267
 20
232.2401410795166043
 30
0.0
 11
4332.3448971558000267
 21
234.2841410795167008
 31
0.0
  0
LINE
  5
E89D
  8
0
 10
4329.0013892817987653
 20
222.9865443604782058
 30
0.0
 11
4329.0013892817987653
 21
224.5876263654550939
 31
0.0
  0
LINE
  5
E89E
  8
0
 10
4329.9624873882003158
 20
224.6925971740166972
 30
0.0
 11
4331.9541451874338236
 21
224.6925971740166972
 31
0.0
  0
LINE
  5
E89F
  8
0
 10
4333.9226491241661279
 20
224.6925971740166972
 30
0.0
 11
4336.0880034550000346
 21
224.6925971740166972
 31
0.0
  0
LINE
  5
E8A0
  8
0
 10
4336.1076884943995537
 20
224.6925971740166972
 30
0.0
 11
4336.9476884944033372
 21
224.6925971740166972
 31
0.0
  0
LINE
  5
E8A1
  8
0
 10
4329.90061989093374
 20
222.8815735519166878
 30
0.0
 11
4330.2513892817996748
 21
222.8815735519166878
 31
0.0
  0
LINE
  5
E8A2
  8
0
 10
4331.2946963683998547
 20
222.8815735519166878
 30
0.0
 11
4331.9541451874338236
 21
222.8815735519166878
 31
0.0
  0
LINE
  5
E8A3
  8
0
 10
4333.9226491241661279
 20
222.8815735519166878
 30
0.0
 11
4336.0880034550000346
 21
222.8815735519166878
 31
0.0
  0
LINE
  5
E8A4
  8
0
 10
4336.1076884943995537
 20
222.8815735519166878
 30
0.0
 11
4336.5026376831137895
 21
222.8815735519166878
 31
0.0
  0
LINE
  5
E8A5
  8
0
 10
4336.9127393056842266
 20
222.8815735519166878
 30
0.0
 11
4336.9476884943996993
 21
222.8815735519166878
 31
0.0
  0
LINE
  5
E8A6
  8
0
 10
4329.0407593605996226
 20
222.9472165970167055
 30
0.0
 11
4329.2576803313286291
 21
222.9472165970167055
 31
0.0
  0
ARC
  5
E8A7
  8
0
 10
4329.0415452627612467
 20
222.9873734463473909
 30
0.0
 40
0.0401645389663489
 50
181.1827969785483106
 51
268.8788181813991969
  0
LINE
  5
E8A8
  8
0
 10
4332.3041971557986471
 20
232.2401410795166043
 30
0.0
 11
4333.5725971557985758
 21
232.2401410795166043
 31
0.0
  0
LINE
  5
E8A9
  8
0
 10
4332.2841971557991201
 20
231.7671410795167048
 30
0.0
 11
4332.2841971557991201
 21
231.8121410795166923
 31
0.0
  0
LINE
  5
E8AA
  8
0
 10
4332.2841971557991201
 20
232.1751410795166919
 30
0.0
 11
4332.2841971557991201
 21
232.2201410795167078
 31
0.0
  0
LINE
  5
E8AB
  8
0
 10
4332.2401471557996047
 20
232.165141079516701
 30
0.0
 11
4333.6366471557994373
 21
232.165141079516701
 31
0.0
  0
LINE
  5
E8AC
  8
0
 10
4332.2401471557996047
 20
231.8221410795167117
 30
0.0
 11
4333.6366471558003468
 21
231.8221410795167117
 31
0.0
  0
LINE
  5
E8AD
  8
0
 10
4332.3041971557986471
 20
231.7471410795166946
 30
0.0
 11
4333.5725971557985758
 21
231.7471410795166946
 31
0.0
  0
ARC
  5
E8AE
  8
0
 10
4332.3041971557986471
 20
231.7671410795167048
 30
0.0
 40
0.0199999999999969
 50
179.9999999999787974
 51
270.0000002865019155
  0
ARC
  5
E8AF
  8
0
 10
4332.3041971557986471
 20
232.2201410795167078
 30
0.0
 40
0.0199999999999996
 50
90.0
 51
180.0
  0
ARC
  5
E8B0
  8
0
 10
4332.2741971557998113
 20
232.1751410795166919
 30
0.0
 40
0.0099999999999971
 50
270.0
 51
0.0000000000211698
  0
ARC
  5
E8B1
  8
0
 10
4332.2741971557998113
 20
231.8121410795166923
 30
0.0
 40
0.0100000000000122
 50
0.0
 51
90.0
  0
ARC
  5
E8B2
  8
0
 10
4331.9541451874338236
 20
224.8894475675828062
 30
0.0
 40
0.1968503935661605
 50
269.9999999610215013
 51
0.0000000389556373
  0
ARC
  5
E8B3
  8
0
 10
4329.2576803313286291
 20
222.9669016247603963
 30
0.0
 40
0.0196850277436997
 50
270.0000000000521254
 51
286.3086265508846964
  0
ARC
  5
E8B4
  8
0
 10
4329.5219330716008699
 20
222.062852176138307
 30
0.0
 40
0.9221933707772143
 50
99.9876518701789081
 51
106.2932670622639932
  0
ARC
  5
E8B5
  8
0
 10
4329.4936904995047371
 20
222.2149327383199875
 30
0.0
 40
0.7675206369764555
 50
78.3440169587572086
 51
99.8802800757484022
  0
ARC
  5
E8B6
  8
0
 10
4329.4533069338658606
 20
222.0177054104696879
 30
0.0
 40
0.9688397413915549
 50
69.9054534181561564
 51
78.3615235265535404
  0
ARC
  5
E8B7
  8
0
 10
4329.3263560340255935
 20
221.6701811817569023
 30
0.0
 40
1.3388256845003139
 50
64.9163178310065234
 51
69.9129852064301787
  0
ARC
  5
E8B8
  8
0
 10
4329.90061989093374
 20
222.9012586222474965
 30
0.0
 40
0.0196850703308761
 50
250.1628468181916958
 51
270.0000000000521254
  0
ARC
  5
E8B9
  8
0
 10
4331.0691706204406728
 20
221.4768943015029095
 30
0.0
 40
1.6253892193483579
 50
113.3619401806256946
 51
120.2072659356131936
  0
LINE
  5
E8BA
  8
0
 10
4330.2691058171985787
 20
222.8146444699166864
 30
0.0
 11
4330.2691058171985787
 21
222.8917393195127943
 31
0.0
  0
LINE
  5
E8BB
  8
0
 10
4330.2691058171985787
 20
222.8146444699166864
 30
0.0
 11
4330.2887908524999148
 21
222.7949593787166975
 31
0.0
  0
LINE
  5
E8BC
  8
0
 10
4330.2887908524999148
 20
222.7949593787166975
 30
0.0
 11
4331.2572947976987052
 21
222.7949593787166975
 31
0.0
  0
LINE
  5
E8BD
  8
0
 10
4330.2691058171985787
 20
222.8146444699166864
 30
0.0
 11
4331.2769798330000413
 21
222.8146444699166864
 31
0.0
  0
LINE
  5
E8BE
  8
0
 10
4330.2691058173004421
 20
222.7391826244167135
 30
0.0
 11
4330.2691058171985787
 21
222.3966629393167125
 31
0.0
  0
LINE
  5
E8BF
  8
0
 10
4330.2691058173004421
 20
222.7391826244167135
 30
0.0
 11
4331.2769798328999968
 21
222.7391826244167135
 31
0.0
  0
LINE
  5
E8C0
  8
0
 10
4330.334066447198893
 20
222.7949593787166975
 30
0.0
 11
4330.334066447198893
 21
222.7391826244167135
 31
0.0
  0
ARC
  5
E8C1
  8
0
 10
4330.2297357385250507
 20
222.3966629393090102
 30
0.0
 40
0.0393700786749123
 50
292.0000000313942792
 51
0.0000000111678689
  0
LINE
  5
E8C2
  8
0
 10
4330.2444840295993345
 20
222.3601596380167109
 30
0.0
 11
4330.161837841099441
 21
222.3267684104166051
 31
0.0
  0
ARC
  5
E8C3
  8
0
 10
4330.1765861321309785
 20
222.2902651091538075
 30
0.0
 40
0.0393700786312249
 50
111.999999988511405
 51
180.0000001995836953
  0
LINE
  5
E8C4
  8
0
 10
4330.1372160535001967
 20
222.2902651091538075
 30
0.0
 11
4330.1372160535001967
 21
222.1210723882873879
 31
0.0
  0
LINE
  5
E8C5
  8
0
 10
4330.1765861323692661
 20
222.0817023094166984
 30
0.0
 11
4331.3694995178293539
 21
222.0817023094166984
 31
0.0
  0
ARC
  5
E8C6
  8
0
 10
4330.1765861323692661
 20
222.1210723882873879
 30
0.0
 40
0.0393700788707117
 50
180.0000001029046075
 51
269.9999997515384962
  0
LINE
  5
E8C7
  8
0
 10
4330.2780428250989644
 20
222.0743294574166953
 30
0.0
 11
4330.2780428250989644
 21
220.6993294574166953
 31
0.0
  0
ARC
  5
E8C8
  8
0
 10
4330.3080428250996192
 20
222.0743294574166953
 30
0.0
 40
0.0299999999999834
 50
165.7731457412203895
 51
180.0000000000163141
  0
LINE
  5
E8C9
  8
0
 10
4330.3080428250996192
 20
220.6693294574166941
 30
0.0
 11
4331.2380428250990008
 21
220.6693294574166941
 31
0.0
  0
ARC
  5
E8CA
  8
0
 10
4330.3080428250996192
 20
220.6993294574166953
 30
0.0
 40
0.0299999999999994
 50
180.0
 51
270.0
  0
LINE
  5
E8CB
  8
0
 10
4330.6033371976000126
 20
220.6993294574166953
 30
0.0
 11
4330.6033371976000126
 21
222.07432945741661
 31
0.0
  0
ARC
  5
E8CC
  8
0
 10
4330.7437552493502153
 20
221.5320133441254882
 30
0.0
 40
0.8635353391390442
 50
264.4685452799848235
 51
267.4554355312222924
  0
ARC
  5
E8CD
  8
0
 10
4330.6797344221877211
 20
220.8513767775268946
 30
0.0
 40
0.179906975000093
 50
252.9018521684903078
 51
263.8680998077355753
  0
ARC
  5
E8CE
  8
0
 10
4330.6431398253571388
 20
220.732410497674806
 30
0.0
 40
0.0554395485019118
 50
232.8541359502465014
 51
252.9018521684903078
  0
ARC
  5
E8CF
  8
0
 10
4330.6203223029197034
 20
220.7022904695980969
 30
0.0
 40
0.0176525742716313
 50
206.2084525487337032
 51
232.8541359502476098
  0
ARC
  5
E8D0
  8
0
 10
4330.6145008717130622
 20
220.699424903502404
 30
0.0
 40
0.0111640821238131
 50
180.4898498991977078
 51
206.2084525487308042
  0
LINE
  5
E8D1
  8
0
 10
4330.4130428250991827
 20
220.6693294574166941
 30
0.0
 11
4330.4130428250991827
 21
220.5793294574166907
 31
0.0
  0
LINE
  5
E8D2
  8
0
 10
4331.1023814155996661
 20
220.5793294574166907
 30
0.0
 11
4330.4105427303002216
 21
220.5793294574166907
 31
0.0
  0
LINE
  5
E8D3
  8
0
 10
4330.4105427303002216
 20
220.5793294574166907
 30
0.0
 11
4330.391818864400193
 21
220.5606055965166945
 31
0.0
  0
LINE
  5
E8D4
  8
0
 10
4330.391818864400193
 20
220.5606055965166945
 30
0.0
 11
4330.4145177933205559
 21
220.5471846749128133
 31
0.0
  0
LINE
  5
E8D5
  8
0
 10
4330.4145177933205559
 20
220.5471846749128133
 30
0.0
 11
4330.3605428251003104
 21
220.515966816903898
 31
0.0
  0
LINE
  5
E8D6
  8
0
 10
4330.3605428251003104
 20
220.4444775868468867
 30
0.0
 11
4330.3605428251003104
 21
220.4355970060562981
 31
0.0
  0
LINE
  5
E8D7
  8
0
 10
4330.3605428251003104
 20
220.3730440990919988
 30
0.0
 11
4330.3605428251003104
 21
220.369329355716701
 31
0.0
  0
LINE
  5
E8D8
  8
0
 10
4330.3605428251003104
 20
220.5070101623535095
 30
0.0
 11
4330.3605428251003104
 21
220.515966816903898
 31
0.0
  0
LINE
  5
E8D9
  8
0
 10
4330.3605428251003104
 20
220.5070101623535095
 30
0.0
 11
4330.4145193763006318
 21
220.4757575972762993
 31
0.0
  0
LINE
  5
E8DA
  8
0
 10
4330.4145193763006318
 20
220.4757575972762993
 30
0.0
 11
4330.3605428251003104
 21
220.4444775868468867
 31
0.0
  0
LINE
  5
E8DB
  8
0
 10
4330.4145181400008369
 20
220.4043309403068065
 30
0.0
 11
4330.3605428251003104
 21
220.4355970060562981
 31
0.0
  0
LINE
  5
E8DC
  8
0
 10
4330.4145181400008369
 20
220.4043309403068065
 30
0.0
 11
4330.3605428251003104
 21
220.3730440990919988
 31
0.0
  0
LINE
  5
E8DD
  8
0
 10
4330.3605428251003104
 20
220.369329355716701
 30
0.0
 11
4330.3722845614993275
 21
220.3575876222166983
 31
0.0
  0
LINE
  5
E8DE
  8
0
 10
4330.3722845614993275
 20
220.3575876222166983
 30
0.0
 11
4330.3740420909989552
 21
220.3562964538166966
 31
0.0
  0
LINE
  5
E8DF
  8
0
 10
4330.3740420909989552
 20
220.3562964538166966
 30
0.0
 11
4330.4145217868608597
 21
220.3329114267735918
 31
0.0
  0
LINE
  5
E8E0
  8
0
 10
4330.4145217868608597
 20
220.3329114267737054
 30
0.0
 11
4330.4033961326440476
 21
220.3264760587240119
 31
0.0
  0
LINE
  5
E8E1
  8
0
 10
4330.4033961326440476
 20
220.3264760587240119
 30
0.0
 11
4330.4205428138002389
 21
220.3093293818166956
 31
0.0
  0
LINE
  5
E8E2
  8
0
 10
4330.4205428138002389
 20
220.3093293818166956
 30
0.0
 11
4331.1255428363992905
 21
220.3093293818166956
 31
0.0
  0
LINE
  5
E8E3
  8
0
 10
4330.3919570508987817
 20
220.560229259016694
 30
0.0
 11
4331.0821257337665884
 21
220.5793294574166907
 31
0.0
  0
LINE
  5
E8E4
  8
0
 10
4330.4145177933205559
 20
220.5471846749128133
 30
0.0
 11
4331.0837702062999597
 21
220.5769968948166877
 31
0.0
  0
LINE
  5
E8E5
  8
0
 10
4331.1355429199993523
 20
220.5793294574166907
 30
0.0
 11
4331.1769037950998609
 21
220.5379685932167035
 31
0.0
  0
LINE
  5
E8E6
  8
0
 10
4331.1769037950998609
 20
220.5379685932167035
 30
0.0
 11
4331.1315782762985691
 21
220.5114728283166983
 31
0.0
  0
LINE
  5
E8E7
  8
0
 10
4330.3605428251003104
 20
220.5114884896287037
 30
0.0
 11
4331.1769037950998609
 21
220.5379685932167035
 31
0.0
  0
LINE
  5
E8E8
  8
0
 10
4330.4145193763006318
 20
220.4757575972762993
 30
0.0
 11
4331.1315782762985691
 21
220.5114728283166983
 31
0.0
  0
LINE
  5
E8E9
  8
0
 10
4331.1315782762985691
 20
220.5114728283166983
 30
0.0
 11
4331.1855428251001285
 21
220.4802194253319954
 31
0.0
  0
LINE
  5
E8EA
  8
0
 10
4331.1855428251001285
 20
220.4712505450141009
 30
0.0
 11
4331.1315778591570052
 21
220.440041597735501
 31
0.0
  0
LINE
  5
E8EB
  8
0
 10
4331.1855428251001285
 20
220.4087510961599037
 30
0.0
 11
4331.1315778591570052
 21
220.440041597735501
 31
0.0
  0
LINE
  5
E8EC
  8
0
 10
4331.1855428251001285
 20
220.3998095041397107
 30
0.0
 11
4331.1315762358281063
 21
220.3686110411464938
 31
0.0
  0
LINE
  5
E8ED
  8
0
 10
4331.1315762358281063
 20
220.3686110411464938
 30
0.0
 11
4331.1652824164957565
 21
220.3490689520722015
 31
0.0
  0
LINE
  5
E8EE
  8
0
 10
4331.1652824164957565
 20
220.3490689520722015
 30
0.0
 11
4331.1255429120001281
 21
220.3093294574167089
 31
0.0
  0
LINE
  5
E8EF
  8
0
 10
4331.1855428251001285
 20
220.4802194253319954
 30
0.0
 11
4331.1855428251001285
 21
220.4712505450141009
 31
0.0
  0
LINE
  5
E8F0
  8
0
 10
4331.1855428251001285
 20
220.4087510961599037
 30
0.0
 11
4331.1855428251001285
 21
220.3998095041397107
 31
0.0
  0
LINE
  5
E8F1
  8
0
 10
4330.3605428251003104
 20
220.4400372964516066
 30
0.0
 11
4331.1855428251001285
 21
220.4757349851730055
 31
0.0
  0
LINE
  5
E8F2
  8
0
 10
4330.4145181400008369
 20
220.4043309403068065
 30
0.0
 11
4331.1315778591570052
 21
220.440041597735501
 31
0.0
  0
LINE
  5
E8F3
  8
0
 10
4330.3605428251003104
 20
220.3711867274043072
 30
0.0
 11
4331.1855428251001285
 21
220.404280300149793
 31
0.0
  0
LINE
  5
E8F4
  8
0
 10
4330.4145217868608597
 20
220.3329114267737054
 30
0.0
 11
4331.1315762358281063
 21
220.3686110411464938
 31
0.0
  0
LINE
  5
E8F5
  8
0
 10
4330.4033961326440476
 20
220.3264760587240119
 30
0.0
 11
4331.1652824164957565
 21
220.3490689520722015
 31
0.0
  0
LINE
  5
E8F6
  8
0
 10
4331.1330428251003468
 20
220.6693294574166941
 30
0.0
 11
4331.1330428251003468
 21
220.584049098007597
 31
0.0
  0
LINE
  5
E8F7
  8
0
 10
4331.1330428251003468
 20
220.5821640066716895
 30
0.0
 11
4331.1330428251003468
 21
220.5793294574166907
 31
0.0
  0
ARC
  5
E8F8
  8
0
 10
4331.074528707285026
 20
220.9659174166037872
 30
0.0
 40
0.3875900199294873
 50
274.1208990258475069
 51
277.2800267109882952
  0
ARC
  5
E8F9
  8
0
 10
4331.1158193500368725
 20
220.6426995762111005
 30
0.0
 40
0.0617454411392348
 50
277.2800267109882952
 51
284.3391145883480817
  0
ARC
  5
E8FA
  8
0
 10
4331.1298153034085772
 20
220.5879474584743889
 30
0.0
 40
0.0052327778905387
 50
284.3391145883480817
 51
305.5109313466373919
  0
ARC
  5
E8FB
  8
0
 10
4331.1325942180419588
 20
220.5840531356622023
 30
0.0
 40
0.0004486252277543
 50
305.5109313467091283
 51
0.5156724876067317
  0
ARC
  5
E8FC
  8
0
 10
4331.0263899867559303
 20
221.5027203387278121
 30
0.0
 40
0.9275000723458768
 50
273.5468947966161863
 51
275.2951057726966155
  0
ARC
  5
E8FD
  8
0
 10
4331.1067387532220891
 20
220.6671936150046065
 30
0.0
 40
0.0881715257660728
 50
273.4110259094430262
 51
286.6250805656487159
  0
LINE
  5
E8FE
  8
0
 10
4331.1355429199993523
 20
220.5793294574166907
 30
0.0
 11
4331.1249402680987259
 21
220.5793294574166907
 31
0.0
  0
ARC
  5
E8FF
  8
0
 10
4331.1183215765731802
 20
220.6232608863485041
 30
0.0
 40
0.0444272160451493
 50
278.5677227308659099
 51
289.3511325514629107
  0
LINE
  5
E900
  8
0
 10
4331.1330428251003468
 20
220.5821640066716895
 30
0.0
 11
4331.1314397003989143
 21
220.5829731948234951
 31
0.0
  0
ARC
  5
E901
  8
0
 10
4330.6156337974816779
 20
222.0740038347034897
 30
0.0
 40
0.0123009104874473
 50
141.2556968676655913
 51
178.4831214889634055
  0
LINE
  5
E902
  8
0
 10
4330.2444840295993345
 20
222.3601596380167109
 30
0.0
 11
4331.301601620600195
 21
222.3601596380167109
 31
0.0
  0
ARC
  5
E903
  8
0
 10
4330.4769150297579472
 20
221.4768943015029095
 30
0.0
 40
1.6253892193483579
 50
59.7927340643867993
 51
66.638059819374277
  0
LINE
  5
E904
  8
0
 10
4331.2769798330000413
 20
222.8146444699166864
 30
0.0
 11
4331.2769798330000413
 21
222.8917393195127943
 31
0.0
  0
LINE
  5
E905
  8
0
 10
4331.2769798330000413
 20
222.8146444699166864
 30
0.0
 11
4331.2572947976987052
 21
222.7949593787166975
 31
0.0
  0
LINE
  5
E906
  8
0
 10
4331.2769798328999968
 20
222.7391826244167135
 30
0.0
 11
4331.2769798330000413
 21
222.3966629393167125
 31
0.0
  0
LINE
  5
E907
  8
0
 10
4331.2120192029988175
 20
222.7949593787166975
 30
0.0
 11
4331.2120192029988175
 21
222.7391826244167135
 31
0.0
  0
ARC
  5
E908
  8
0
 10
4331.3163499116735693
 20
222.3966629393090102
 30
0.0
 40
0.0393700786749123
 50
179.9999999888320872
 51
247.9999999686056924
  0
LINE
  5
E909
  8
0
 10
4331.301601620600195
 20
222.3601596380167109
 30
0.0
 11
4331.3842478091000885
 21
222.3267684104166051
 31
0.0
  0
ARC
  5
E90A
  8
0
 10
4331.369499518068551
 20
222.2902651091538075
 30
0.0
 40
0.0393700786312249
 50
359.9999998004162762
 51
68.0000000114885381
  0
LINE
  5
E90B
  8
0
 10
4331.4088695966993328
 20
222.2902651091538075
 30
0.0
 11
4331.4088695966993328
 21
222.1210723882873879
 31
0.0
  0
ARC
  5
E90C
  8
0
 10
4331.3694995178293539
 20
222.1210723882873879
 30
0.0
 40
0.0393700788707117
 50
270.0000002484613901
 51
359.9999998970953925
  0
LINE
  5
E90D
  8
0
 10
4331.2680428250996556
 20
222.0743294574166953
 30
0.0
 11
4331.2680428250996556
 21
220.6993294574166953
 31
0.0
  0
ARC
  5
E90E
  8
0
 10
4331.2380428250990008
 20
222.0743294574166953
 30
0.0
 40
0.0299999999999834
 50
359.9999999999836859
 51
14.2268542587795608
  0
ARC
  5
E90F
  8
0
 10
4331.2380428250990008
 20
220.6993294574166953
 30
0.0
 40
0.0299999999999994
 50
270.0
 51
0.0
  0
LINE
  5
E910
  8
0
 10
4330.9427484525986074
 20
220.6993294574166953
 30
0.0
 11
4330.9427484525986074
 21
222.07432945741661
 31
0.0
  0
ARC
  5
E911
  8
0
 10
4330.8023304008493142
 20
221.5320133441254882
 30
0.0
 40
0.8635353391390442
 50
272.5445644687777076
 51
275.5314547200151765
  0
ARC
  5
E912
  8
0
 10
4330.8663512280108989
 20
220.8513767775268946
 30
0.0
 40
0.179906975000093
 50
276.1319001922644247
 51
287.0981478315097206
  0
ARC
  5
E913
  8
0
 10
4330.9029458248423907
 20
220.732410497674806
 30
0.0
 40
0.0554395485019118
 50
287.0981478315097206
 51
307.1458640497535271
  0
ARC
  5
E914
  8
0
 10
4330.9257633472789166
 20
220.7022904695980969
 30
0.0
 40
0.0176525742716313
 50
307.1458640497525039
 51
333.7915474512662968
  0
ARC
  5
E915
  8
0
 10
4330.9315847784855578
 20
220.699424903502404
 30
0.0
 40
0.0111640821238131
 50
333.7915474512691958
 51
359.5101501008023206
  0
ARC
  5
E916
  8
0
 10
4330.9304518527169421
 20
222.0740038347034897
 30
0.0
 40
0.0123009104874473
 50
1.516878511036563
 51
38.7443031323330871
  0
ARC
  5
E917
  8
0
 10
4330.7730428250988552
 20
222.2288662301403122
 30
0.0
 40
0.8180632943594176
 50
64.7932921612167405
 51
115.2067078387833021
  0
LINE
  5
E918
  8
0
 10
4329.0407593605996226
 20
224.626954128916708
 30
0.0
 11
4329.1682427426849245
 21
224.626954128916708
 31
0.0
  0
ARC
  5
E919
  8
0
 10
4329.0415452627612467
 20
224.5867972795859089
 30
0.0
 40
0.0401645389663489
 50
91.1211818186007605
 51
178.8172030214516042
  0
ARC
  5
E91A
  8
0
 10
4329.1682427426912909
 20
224.6072700225078904
 30
0.0
 40
0.0196841064087626
 50
68.7534282114992124
 51
90.000000018186455
  0
ARC
  5
E91B
  8
0
 10
4329.5546823075610519
 20
225.5960078020339097
 30
0.0
 40
1.0418892543014671
 50
248.6504799081322972
 51
256.5054053038180086
  0
ARC
  5
E91C
  8
0
 10
4329.4937890753490137
 20
225.3369413080542927
 30
0.0
 40
0.7757664213154103
 50
256.4136735146955743
 51
284.4721180869809132
  0
ARC
  5
E91D
  8
0
 10
4329.4157460065680425
 20
225.6473875666985123
 30
0.0
 40
1.0958675325562031
 50
284.3666856205147724
 51
293.7799404169754212
  0
ARC
  5
E91E
  8
0
 10
4329.2375694583561199
 20
226.0637273297606953
 30
0.0
 40
1.5487131790464681
 50
293.6012856321945037
 51
297.530320593766703
  0
ARC
  5
E91F
  8
0
 10
4329.9625173320882823
 20
224.672789548836505
 30
0.0
 40
0.0198076478137676
 50
90.0866159934231376
 51
117.365366486358397
  0
ARC
  5
E920
  8
0
 10
4334.0337086131994511
 20
227.2586106003564907
 30
0.0
 40
3.3028788876515289
 50
230.9777999742123029
 51
245.5353093372540059
  0
ARC
  5
E921
  8
0
 10
4333.9226491241661279
 20
224.8894475675828062
 30
0.0
 40
0.1968503935661605
 50
179.9999999610442956
 51
270.000000038978385
  0
ARC
  5
E922
  8
0
 10
4331.8430856984014099
 20
227.2586106003564907
 30
0.0
 40
3.3028788876515289
 50
294.4646906627460226
 51
309.0222000257876971
  0
ARC
  5
E924
  8
0
 10
4332.9383971557999757
 20
224.8704728390688956
 30
0.0
 40
0.6755991252009217
 50
246.2108616293903083
 51
293.7891383706096917
  0
ARC
  5
E925
  8
0
 10
4331.9541451874338236
 20
222.6847231583504936
 30
0.0
 40
0.1968503935661605
 50
359.9999999610444092
 51
90.0000000389784276
  0
ARC
  5
E926
  8
0
 10
4334.0337086131994511
 20
220.315560125576809
 30
0.0
 40
3.3028788876515289
 50
114.4646906627459941
 51
129.0222000257876971
  0
ARC
  5
E927
  8
0
 10
4332.9383971557999757
 20
222.7036978868644894
 30
0.0
 40
0.6755991252009217
 50
66.2108616293903083
 51
113.7891383706097059
  0
LINE
  5
E928
  8
0
 10
4338.5276884943996265
 20
224.2300853629166966
 30
0.0
 11
4338.5276884943996265
 21
223.3440853629167009
 31
0.0
  0
LINE
  5
E929
  8
0
 10
4337.6916884943993864
 20
224.2300853629166966
 30
0.0
 11
4337.6916884943993864
 21
223.3440853629167009
 31
0.0
  0
LINE
  5
E92A
  8
0
 10
4337.6206884943985642
 20
224.165585362916687
 30
0.0
 11
4337.6206884943985642
 21
223.4085853629167104
 31
0.0
  0
LINE
  5
E92B
  8
0
 10
4337.516688494400114
 20
224.2200853629167057
 30
0.0
 11
4337.516688494400114
 21
223.3540853629166065
 31
0.0
  0
LINE
  5
E92C
  8
0
 10
4337.4346884943997793
 20
224.324366341066991
 30
0.0
 11
4337.4346884943997793
 21
223.2498043847662927
 31
0.0
  0
LINE
  5
E92D
  8
0
 10
4337.1896884943998884
 20
224.324366341066991
 30
0.0
 11
4337.1896884943998884
 21
223.2498043847662927
 31
0.0
  0
LINE
  5
E92E
  8
0
 10
4337.6816884944000776
 20
224.1755853629167063
 30
0.0
 11
4337.630688494399692
 21
224.1755853629167063
 31
0.0
  0
LINE
  5
E92F
  8
0
 10
4337.6106884943992554
 20
224.117085362916697
 30
0.0
 11
4337.5266884943994228
 21
224.117085362916697
 31
0.0
  0
LINE
  5
E930
  8
0
 10
4337.5066884943989862
 20
224.2300853629166966
 30
0.0
 11
4337.4446884943990881
 21
224.2300853629166966
 31
0.0
  0
LINE
  5
E931
  8
0
 10
4337.1796884943996702
 20
224.2300853629166966
 30
0.0
 11
4337.117688494399772
 21
224.2300853629166966
 31
0.0
  0
ARC
  5
E932
  8
0
 10
4337.4446884943990881
 20
224.2400853629166875
 30
0.0
 40
0.0099999999999909
 50
180.0
 51
270.0000000000521254
  0
ARC
  5
E933
  8
0
 10
4337.5066884943989862
 20
224.2200853629167057
 30
0.0
 40
0.0099999999999962
 50
359.9999999999789111
 51
90.0
  0
ARC
  5
E934
  8
0
 10
4337.5266884943994228
 20
224.1270853629166879
 30
0.0
 40
0.0100000000000087
 50
180.0
 51
270.0
  0
ARC
  5
E935
  8
0
 10
4337.6106884943992554
 20
224.1270853629166879
 30
0.0
 40
0.010000000000014
 50
270.0000000000521254
 51
0.0
  0
ARC
  5
E936
  8
0
 10
4337.630688494399692
 20
224.165585362916687
 30
0.0
 40
0.0100000000000193
 50
90.0000000000521254
 51
180.0
  0
ARC
  5
E937
  8
0
 10
4337.6816884944000776
 20
224.1855853629166972
 30
0.0
 40
0.0100000000000158
 50
270.0
 51
0.0
  0
ARC
  5
E938
  8
0
 10
4337.1796884943996702
 20
224.2400853629166875
 30
0.0
 40
0.009999999999998
 50
270.0
 51
0.0
  0
LINE
  5
E939
  8
0
 10
4337.1076884943986443
 20
224.5170853629167027
 30
0.0
 11
4337.1076884943986443
 21
223.0570853629166947
 31
0.0
  0
LINE
  5
E93A
  8
0
 10
4336.9676884943992263
 20
224.6725853629166068
 30
0.0
 11
4336.9676884943992263
 21
222.9015853629207982
 31
0.0
  0
ARC
  5
E93B
  8
0
 10
4336.9476683172106277
 20
224.6725770052516111
 30
0.0
 40
0.020020178932735
 50
0.0239188144910635
 51
89.9422548655752934
  0
LINE
  5
E93C
  8
0
 10
4336.0880034550000346
 20
224.6925971740166972
 30
0.0
 11
4336.0880034550000346
 21
222.8815735519166878
 31
0.0
  0
LINE
  5
E93D
  8
0
 10
4336.1076884943995537
 20
224.6925971740166972
 30
0.0
 11
4336.1076884943995537
 21
222.8815735519166878
 31
0.0
  0
LINE
  5
E93E
  8
0
 10
4336.0880034550000346
 20
224.6827546543167102
 30
0.0
 11
4336.1076884943995537
 21
224.6827546543167102
 31
0.0
  0
LINE
  5
E93F
  8
0
 10
4336.9876884943987534
 20
224.5370853629167129
 30
0.0
 11
4337.0876884944000267
 21
224.5370853629167129
 31
0.0
  0
ARC
  5
E940
  8
0
 10
4336.9876884943987534
 20
224.5570853629166947
 30
0.0
 40
0.0200000000000083
 50
180.0
 51
270.0
  0
ARC
  5
E941
  8
0
 10
4337.117688494399772
 20
224.2200853629167057
 30
0.0
 40
0.0100000000000122
 50
90.0
 51
180.0
  0
ARC
  5
E942
  8
0
 10
4337.0876884944000267
 20
224.5170853629167027
 30
0.0
 40
0.0200000000000014
 50
0.0000000000048853
 51
90.0
  0
ARC
  5
E943
  8
0
 10
4336.7076884943990081
 20
221.9995538652370897
 30
0.0
 40
0.9055410332496892
 50
76.9124237252881926
 51
103.0842756083822991
  0
ARC
  5
E944
  8
0
 10
4336.7076884943953701
 20
223.453585362886912
 30
0.0
 40
0.5999999999702119
 50
252.5937251882565988
 51
287.4062748131639182
  0
ARC
  5
E945
  8
0
 10
4336.8826884896207048
 20
222.8953739405264116
 30
0.0
 40
0.0150000081897745
 50
287.4062748131643161
 51
319.7938999629674868
  0
ARC
  5
E946
  8
0
 10
4336.5326884950427484
 20
222.8953739342460096
 30
0.0
 40
0.0150000009627728
 50
220.2060919419112111
 51
252.5937331049921113
  0
ARC
  5
E947
  8
0
 10
4336.9476683173834317
 20
222.9015937205109026
 30
0.0
 40
0.0200201787617507
 50
270.057744645682817
 51
359.9760813879635748
  0
LINE
  5
E948
  8
0
 10
4337.7961884943997575
 20
222.7493329629166965
 30
0.0
 11
4338.4231884944001649
 21
222.7493329629166965
 31
0.0
  0
LINE
  5
E949
  8
0
 10
4337.7066884943988043
 20
224.2450853629167113
 30
0.0
 11
4337.7621884944001067
 21
224.2450853629167113
 31
0.0
  0
LINE
  5
E94A
  8
0
 10
4338.4571884943998157
 20
224.2450853629167113
 30
0.0
 11
4338.5126884943992991
 21
224.2450853629167113
 31
0.0
  0
ARC
  5
E94B
  8
0
 10
4337.7066884943988043
 20
224.2300853629166966
 30
0.0
 40
0.0150000000000006
 50
90.0
 51
180.0
  0
ARC
  5
E94C
  8
0
 10
4338.5126884943992991
 20
224.2300853629166966
 30
0.0
 40
0.014999999999997
 50
359.9999999999869829
 51
90.0
  0
ARC
  5
E94D
  8
0
 10
4338.1096884943999612
 20
224.3730814720622959
 30
0.0
 40
0.2931839103223126
 50
249.107598112243295
 51
290.8924018877568187
  0
ARC
  5
E94E
  8
0
 10
4338.2013427187703201
 20
224.6299361019754031
 30
0.0
 40
0.5658674852439991
 50
239.2197496888209116
 51
249.7120758931312992
  0
ARC
  5
E94F
  8
0
 10
4338.5393335569224291
 20
225.1973656197193918
 30
0.0
 40
1.2263325216250089
 50
233.4354125131127091
 51
239.2197496887760906
  0
ARC
  5
E950
  8
0
 10
4339.0780702053261848
 20
225.9328281828177865
 30
0.0
 40
2.1379933374774631
 50
232.2220278142627876
 51
233.5809416856403971
  0
ARC
  5
E951
  8
0
 10
4337.7621447851897756
 20
224.2349579333051111
 30
0.0
 40
0.0101275239339268
 50
52.3675569868360213
 51
89.7527173406822669
  0
ARC
  5
E952
  8
0
 10
4338.0180342700277834
 20
224.6299361019754031
 30
0.0
 40
0.5658674852439991
 50
290.2879241068686724
 51
300.7802503111790884
  0
ARC
  5
E953
  8
0
 10
4337.6800434318765838
 20
225.1973656197193918
 30
0.0
 40
1.2263325216250089
 50
300.7802503111790884
 51
306.5645874868873193
  0
ARC
  5
E954
  8
0
 10
4337.1413067834737376
 20
225.9328281828177865
 30
0.0
 40
2.1379933374774631
 50
306.4190583143595745
 51
307.7779721857372124
  0
ARC
  5
E955
  8
0
 10
4338.4572322036101468
 20
224.2349579333051111
 30
0.0
 40
0.0101275239339268
 50
90.2472826593177331
 51
127.6324430131640071
  0
LINE
  5
E956
  8
0
 10
4337.1962522215371791
 20
223.8070821278724054
 30
0.0
 11
4337.4281247672633981
 21
223.8070821278724054
 31
0.0
  0
LINE
  5
E957
  8
0
 10
4337.1975764006592726
 20
223.8758728728973892
 30
0.0
 11
4337.4268005881403951
 21
223.8758728728973892
 31
0.0
  0
LINE
  5
E958
  8
0
 10
4337.1999031794830444
 20
223.9150979383067011
 30
0.0
 11
4337.4244738093157139
 21
223.9150979383067011
 31
0.0
  0
LINE
  5
E959
  8
0
 10
4337.2096884935153867
 20
223.981245093578309
 30
0.0
 11
4337.4146884952842811
 21
223.981245093578309
 31
0.0
  0
LINE
  5
E95A
  8
0
 10
4337.2037227573837299
 20
224.018194297259214
 30
0.0
 11
4337.4206542314159378
 21
224.018194297259214
 31
0.0
  0
LINE
  5
E95B
  8
0
 10
4337.2096884940401651
 20
224.0791558646959061
 30
0.0
 11
4337.4146884947585932
 21
224.0791558646959061
 31
0.0
  0
LINE
  5
E95C
  8
0
 10
4337.2070328639465515
 20
224.1124092694722094
 30
0.0
 11
4337.4173441248522067
 21
224.1124092694722094
 31
0.0
  0
LINE
  5
E95D
  8
0
 10
4337.209688494736838
 20
224.1658425302250919
 30
0.0
 11
4337.4146884940628297
 21
224.1658425302250919
 31
0.0
  0
LINE
  5
E95E
  8
0
 10
4337.2075255720246787
 20
224.1941222264001112
 30
0.0
 11
4337.4168514167740796
 21
224.1941222264001112
 31
0.0
  0
LINE
  5
E95F
  8
0
 10
4337.2096884949378364
 20
224.2379737702241869
 30
0.0
 11
4337.4146884938600124
 21
224.2379737702241869
 31
0.0
  0
LINE
  5
E960
  8
0
 10
4337.2088264233070731
 20
224.2601929849332123
 30
0.0
 11
4337.4155505654916851
 21
224.2601929849332123
 31
0.0
  0
LINE
  5
E961
  8
0
 10
4337.209688491569068
 20
224.2927776215915117
 30
0.0
 11
4337.4146884972296903
 21
224.2927776215915117
 31
0.0
  0
LINE
  5
E962
  8
0
 10
4337.2095723262782485
 20
224.3080824828739992
 30
0.0
 11
4337.4148046625214192
 21
224.3080824828739992
 31
0.0
  0
LINE
  5
E963
  8
0
 10
4337.2096884827069516
 20
224.3281480030535135
 30
0.0
 11
4337.4146885060918066
 21
224.3281480030535135
 31
0.0
  0
LINE
  5
E964
  8
0
 10
4337.2096884943994155
 20
224.335950353673411
 30
0.0
 11
4337.4146884944002522
 21
224.335950353673411
 31
0.0
  0
LINE
  5
E965
  8
0
 10
4337.2096884943994155
 20
224.3427256506865035
 30
0.0
 11
4337.4146884944002522
 21
224.3427256506865035
 31
0.0
  0
ARC
  5
E966
  8
0
 10
4337.2096945249822966
 20
224.3226457705519863
 30
0.0
 40
0.0200798810399938
 50
90.0172076195120354
 51
175.0845096095524127
  0
ARC
  5
E967
  8
0
 10
4337.2098303809016215
 20
224.3156514659264076
 30
0.0
 40
0.020299383624722
 50
90.4004832907112359
 51
172.8581008417664009
  0
ARC
  5
E968
  8
0
 10
4337.209802648861114
 20
224.3070109655332942
 30
0.0
 40
0.0211373458372401
 50
90.3094650882080714
 51
162.0997746722746058
  0
ARC
  5
E969
  8
0
 10
4337.2096304176848207
 20
224.2880882434963894
 30
0.0
 40
0.0199943237670577
 50
90.1664671032899463
 51
175.8509678453737877
  0
ARC
  5
E96A
  8
0
 10
4337.2098931771706702
 20
224.2697129880201032
 30
0.0
 40
0.0230655417881843
 50
90.5084543509051542
 51
151.1597781789990904
  0
ARC
  5
E96B
  8
0
 10
4337.2092574584630711
 20
224.239838311529212
 30
0.0
 40
0.0203592367413613
 50
91.2131270406737116
 51
163.9837703980757055
  0
ARC
  5
E96C
  8
0
 10
4337.2100622885491248
 20
224.2111887813539965
 30
0.0
 40
0.0267875969515553
 50
90.7995301494897546
 51
139.5143139693483079
  0
ARC
  5
E96D
  8
0
 10
4337.2086070333680254
 20
224.1737443068014102
 30
0.0
 40
0.0204065961348059
 50
93.0378516505645052
 51
157.9840597389797949
  0
ARC
  5
E96E
  8
0
 10
4337.2105773520306684
 20
224.1304593249963091
 30
0.0
 40
0.0353943679072589
 50
91.4390183649876462
 51
126.1694007483172015
  0
ARC
  5
E96F
  8
0
 10
4337.2083606795085871
 20
224.0923418579662041
 30
0.0
 40
0.0201112928157255
 50
93.7856148290104272
 51
158.1933633773888062
  0
ARC
  5
E970
  8
0
 10
4337.214091199172799
 20
224.0029458054397082
 30
0.0
 40
0.0763371269063528
 50
93.3063395313520232
 51
108.6429812738794993
  0
ARC
  5
E971
  8
0
 10
4337.2067056257610602
 20
223.9997992474089017
 30
0.0
 40
0.0186353256678907
 50
99.2106845644899948
 51
155.946493899839993
  0
ARC
  5
E972
  8
0
 10
4337.2170126358696507
 20
223.8124883334799904
 30
0.0
 40
0.1689156213620063
 50
92.4851105871163952
 51
99.3091881917433739
  0
ARC
  5
E973
  8
0
 10
4337.2047958369566913
 20
223.8990188298807027
 30
0.0
 40
0.0168070171339732
 50
106.9243031893066984
 51
154.0100773545034087
  0
ARC
  5
E974
  8
0
 10
4337.2036324475084257
 20
223.8887617114559987
 30
0.0
 40
0.0142407114583029
 50
191.7173752054773956
 51
244.8326920878795931
  0
ARC
  5
E975
  8
0
 10
4337.2029703580119531
 20
223.7938013508770041
 30
0.0
 40
0.0148832924885727
 50
116.8327579075722014
 51
153.1765108122017125
  0
ARC
  5
E976
  8
0
 10
4337.4146824638155522
 20
224.3226457705519863
 30
0.0
 40
0.0200798810399938
 50
4.9154903904476317
 51
89.9827923804879646
  0
ARC
  5
E977
  8
0
 10
4337.4145466078971367
 20
224.3156514659264076
 30
0.0
 40
0.020299383624722
 50
7.1418991582335281
 51
89.5995167092887783
  0
ARC
  5
E978
  8
0
 10
4337.4145743399367348
 20
224.3070109655332942
 30
0.0
 40
0.0211373458372401
 50
17.9002253277253409
 51
89.6905349117919286
  0
ARC
  5
E979
  8
0
 10
4337.4147465711139375
 20
224.2880882434963894
 30
0.0
 40
0.0199943237670577
 50
4.1490321546261963
 51
89.8335328967100821
  0
ARC
  5
E97A
  8
0
 10
4337.4144838116271785
 20
224.2697129880201032
 30
0.0
 40
0.0230655417881843
 50
28.8402218210009096
 51
89.4915456490948742
  0
ARC
  5
E97B
  8
0
 10
4337.4151195303347777
 20
224.239838311529212
 30
0.0
 40
0.0203592367413613
 50
16.0162296019242802
 51
88.7868729593262742
  0
ARC
  5
E97C
  8
0
 10
4337.4143147002496335
 20
224.2111887813539965
 30
0.0
 40
0.0267875969515553
 50
40.4856860306517135
 51
89.2004698505102596
  0
ARC
  5
E97D
  8
0
 10
4337.4157699554298233
 20
224.1737443068014102
 30
0.0
 40
0.0204065961348059
 50
22.0159402610201802
 51
86.962148349435509
  0
ARC
  5
E97E
  8
0
 10
4337.4137996367680898
 20
224.1304593249963091
 30
0.0
 40
0.0353943679072589
 50
53.8305992516827914
 51
88.5609816350123538
  0
ARC
  5
E97F
  8
0
 10
4337.4160163092901712
 20
224.0923418579662041
 30
0.0
 40
0.0201112928157255
 50
21.8066366226111512
 51
86.214385170989587
  0
ARC
  5
E980
  8
0
 10
4337.4102857896259593
 20
224.0029458054397082
 30
0.0
 40
0.0763371269063528
 50
71.3570187261205007
 51
86.6936604686479768
  0
ARC
  5
E981
  8
0
 10
4337.417671363037698
 20
223.9997992474089017
 30
0.0
 40
0.0186353256678907
 50
24.0535061001600212
 51
80.7893154355100336
  0
ARC
  5
E982
  8
0
 10
4337.4073643529291076
 20
223.8124883334799904
 30
0.0
 40
0.1689156213620063
 50
80.6908118082566403
 51
87.5148894128835906
  0
ARC
  5
E983
  8
0
 10
4337.4195811518411574
 20
223.8990188298807027
 30
0.0
 40
0.0168070171339732
 50
25.9899226454965806
 51
73.0756968106933442
  0
ARC
  5
E984
  8
0
 10
4337.4207445412903326
 20
223.8887617114559987
 30
0.0
 40
0.0142407114583029
 50
295.1673079121202932
 51
348.2826247945225759
  0
ARC
  5
E985
  8
0
 10
4337.4214066307868052
 20
223.7938013508770041
 30
0.0
 40
0.0148832924885727
 50
26.8234891877983195
 51
63.1672420924277489
  0
LINE
  5
E986
  8
0
 10
4337.6816884944000776
 20
223.3985853629166911
 30
0.0
 11
4337.630688494399692
 21
223.3985853629166911
 31
0.0
  0
LINE
  5
E987
  8
0
 10
4337.6106884943992554
 20
223.4570853629167004
 30
0.0
 11
4337.5266884943994228
 21
223.4570853629167004
 31
0.0
  0
LINE
  5
E988
  8
0
 10
4337.5066884943989862
 20
223.3440853629167009
 30
0.0
 11
4337.4446884943990881
 21
223.3440853629167009
 31
0.0
  0
LINE
  5
E989
  8
0
 10
4337.1796884943996702
 20
223.3440853629167009
 30
0.0
 11
4337.117688494399772
 21
223.3440853629167009
 31
0.0
  0
ARC
  5
E98A
  8
0
 10
4337.4446884943990881
 20
223.33408536291671
 30
0.0
 40
0.0099999999999909
 50
89.9999999999478888
 51
180.0
  0
ARC
  5
E98B
  8
0
 10
4337.5066884943989862
 20
223.3540853629166065
 30
0.0
 40
0.0099999999999962
 50
270.0
 51
0.0000000000211698
  0
ARC
  5
E98C
  8
0
 10
4337.5266884943994228
 20
223.4470853629165958
 30
0.0
 40
0.0100000000000087
 50
90.0
 51
180.0
  0
ARC
  5
E98D
  8
0
 10
4337.6106884943992554
 20
223.4470853629165958
 30
0.0
 40
0.010000000000014
 50
0.0
 51
89.9999999999478888
  0
ARC
  5
E98E
  8
0
 10
4337.630688494399692
 20
223.4085853629167104
 30
0.0
 40
0.0100000000000193
 50
180.0
 51
269.9999999999478746
  0
ARC
  5
E98F
  8
0
 10
4337.6816884944000776
 20
223.3885853629167002
 30
0.0
 40
0.0100000000000158
 50
0.0
 51
90.0
  0
ARC
  5
E990
  8
0
 10
4337.1796884943996702
 20
223.33408536291671
 30
0.0
 40
0.009999999999998
 50
0.0
 51
90.0
  0
LINE
  5
E991
  8
0
 10
4336.9876884943987534
 20
223.0370853629167129
 30
0.0
 11
4337.0876884944000267
 21
223.0370853629167129
 31
0.0
  0
ARC
  5
E992
  8
0
 10
4336.9876884943987534
 20
223.0170853629167027
 30
0.0
 40
0.0200000000000083
 50
90.0
 51
180.0
  0
ARC
  5
E993
  8
0
 10
4337.117688494399772
 20
223.3540853629166918
 30
0.0
 40
0.0100000000000122
 50
180.0
 51
270.0
  0
ARC
  5
E994
  8
0
 10
4337.0876884944000267
 20
223.0570853629166947
 30
0.0
 40
0.0200000000000014
 50
270.0
 51
359.9999999999951115
  0
LINE
  5
E995
  8
0
 10
4337.7066884943988043
 20
223.3290853629166861
 30
0.0
 11
4337.7621884944001067
 21
223.3290853629166861
 31
0.0
  0
LINE
  5
E996
  8
0
 10
4338.4571884943998157
 20
223.3290853629166861
 30
0.0
 11
4338.5126884943992991
 21
223.3290853629166861
 31
0.0
  0
ARC
  5
E997
  8
0
 10
4337.7066884943988043
 20
223.3440853629167009
 30
0.0
 40
0.0150000000000006
 50
180.0
 51
270.0
  0
ARC
  5
E998
  8
0
 10
4338.5126884943992991
 20
223.3440853629167009
 30
0.0
 40
0.014999999999997
 50
270.0
 51
0.0000000000130276
  0
ARC
  5
E999
  8
0
 10
4338.1096884943999612
 20
223.2010892537711015
 30
0.0
 40
0.2931839103223126
 50
69.1075981122432239
 51
110.892401887756705
  0
ARC
  5
E99A
  8
0
 10
4338.2013427187703201
 20
222.9442346238579091
 30
0.0
 40
0.5658674852439991
 50
110.2879241068687008
 51
120.7802503111791026
  0
ARC
  5
E99B
  8
0
 10
4338.5393335569224291
 20
222.376805106113892
 30
0.0
 40
1.2263325216250089
 50
120.7802503111791026
 51
126.5645874868873051
  0
ARC
  5
E99C
  8
0
 10
4339.0780702053261848
 20
221.641342543015611
 30
0.0
 40
2.1379933374774631
 50
126.4190583143596029
 51
127.7779721857371982
  0
ARC
  5
E99D
  8
0
 10
4337.7621447851897756
 20
223.3392127925282011
 30
0.0
 40
0.0101275239339268
 50
270.2472826593177047
 51
307.6324430131639929
  0
ARC
  5
E99E
  8
0
 10
4338.0180342700277834
 20
222.9442346238579091
 30
0.0
 40
0.5658674852439991
 50
59.2197496888208903
 51
69.7120758931313134
  0
ARC
  5
E99F
  8
0
 10
4337.6800434318765838
 20
222.376805106113892
 30
0.0
 40
1.2263325216250089
 50
53.4354125131126878
 51
59.2197496888208903
  0
ARC
  5
E9A0
  8
0
 10
4337.1413067834737376
 20
221.641342543015611
 30
0.0
 40
2.1379933374774631
 50
52.2220278142628302
 51
53.5809416856403686
  0
ARC
  5
E9A1
  8
0
 10
4338.4572322036101468
 20
223.3392127925282011
 30
0.0
 40
0.0101275239339268
 50
232.3675569868360071
 51
269.7527173406822953
  0
LINE
  5
E9A2
  8
0
 10
4337.1962522215371791
 20
223.767088597960992
 30
0.0
 11
4337.4281247672633981
 21
223.767088597960992
 31
0.0
  0
LINE
  5
E9A3
  8
0
 10
4337.1975764006592726
 20
223.6982978529360082
 30
0.0
 11
4337.4268005881403951
 21
223.6982978529360082
 31
0.0
  0
LINE
  5
E9A4
  8
0
 10
4337.1999031794830444
 20
223.6590727875266111
 30
0.0
 11
4337.4244738093157139
 21
223.6590727875266111
 31
0.0
  0
LINE
  5
E9A5
  8
0
 10
4337.2096884935153867
 20
223.5929256322550884
 30
0.0
 11
4337.4146884952842811
 21
223.5929256322550884
 31
0.0
  0
LINE
  5
E9A6
  8
0
 10
4337.2037227573837299
 20
223.5559764285742119
 30
0.0
 11
4337.4206542314159378
 21
223.5559764285742119
 31
0.0
  0
LINE
  5
E9A7
  8
0
 10
4337.2096884940401651
 20
223.4950148611374914
 30
0.0
 11
4337.4146884947585932
 21
223.4950148611374914
 31
0.0
  0
LINE
  5
E9A8
  8
0
 10
4337.2070328639465515
 20
223.4617614563611028
 30
0.0
 11
4337.4173441248522067
 21
223.4617614563611028
 31
0.0
  0
LINE
  5
E9A9
  8
0
 10
4337.209688494736838
 20
223.4083281956081919
 30
0.0
 11
4337.4146884940628297
 21
223.4083281956081919
 31
0.0
  0
LINE
  5
E9AA
  8
0
 10
4337.2075255720246787
 20
223.3800484994332862
 30
0.0
 11
4337.4168514167740796
 21
223.3800484994332862
 31
0.0
  0
LINE
  5
E9AB
  8
0
 10
4337.2096884949378364
 20
223.3361969556092106
 30
0.0
 11
4337.4146884938600124
 21
223.3361969556092106
 31
0.0
  0
LINE
  5
E9AC
  8
0
 10
4337.2088264233070731
 20
223.3139777409002136
 30
0.0
 11
4337.4155505654916851
 21
223.3139777409002136
 31
0.0
  0
LINE
  5
E9AD
  8
0
 10
4337.209688491569068
 20
223.2813931042418005
 30
0.0
 11
4337.4146884972296903
 21
223.2813931042418005
 31
0.0
  0
LINE
  5
E9AE
  8
0
 10
4337.2095723262782485
 20
223.2660882429593983
 30
0.0
 11
4337.4148046625214192
 21
223.2660882429593983
 31
0.0
  0
LINE
  5
E9AF
  8
0
 10
4337.2096884827069516
 20
223.2460227227797986
 30
0.0
 11
4337.4146885060918066
 21
223.2460227227797986
 31
0.0
  0
LINE
  5
E9B0
  8
0
 10
4337.2096884943994155
 20
223.2382203721599012
 30
0.0
 11
4337.4146884944002522
 21
223.2382203721599012
 31
0.0
  0
LINE
  5
E9B1
  8
0
 10
4337.2096884943994155
 20
223.2314450751468939
 30
0.0
 11
4337.4146884944002522
 21
223.2314450751468939
 31
0.0
  0
ARC
  5
E9B2
  8
0
 10
4337.2096945249822966
 20
223.2515249552812975
 30
0.0
 40
0.0200798810399938
 50
184.9154903904475873
 51
269.9827923804879788
  0
ARC
  5
E9B3
  8
0
 10
4337.2098303809016215
 20
223.2585192599069046
 30
0.0
 40
0.020299383624722
 50
187.1418991582335138
 51
269.5995167092888209
  0
ARC
  5
E9B4
  8
0
 10
4337.209802648861114
 20
223.2671597603001032
 30
0.0
 40
0.0211373458372401
 50
197.9002253277253089
 51
269.6905349117918718
  0
ARC
  5
E9B5
  8
0
 10
4337.2096304176848207
 20
223.2860824823370081
 30
0.0
 40
0.0199943237670577
 50
184.1490321546262123
 51
269.8335328967099827
  0
ARC
  5
E9B6
  8
0
 10
4337.2098931771706702
 20
223.3044577378132942
 30
0.0
 40
0.0230655417881843
 50
208.8402218210009096
 51
269.4915456490948031
  0
ARC
  5
E9B7
  8
0
 10
4337.2092574584630711
 20
223.3343324143042139
 30
0.0
 40
0.0203592367413613
 50
196.0162296019242092
 51
268.7868729593262742
  0
ARC
  5
E9B8
  8
0
 10
4337.2100622885491248
 20
223.3629819444792872
 30
0.0
 40
0.0267875969515553
 50
220.4856860306516921
 51
269.2004698505102169
  0
ARC
  5
E9B9
  8
0
 10
4337.2086070333680254
 20
223.4004264190319873
 30
0.0
 40
0.0204065961348059
 50
202.0159402610202051
 51
266.9621483494354948
  0
ARC
  5
E9BA
  8
0
 10
4337.2105773520306684
 20
223.4437114008370031
 30
0.0
 40
0.0353943679072589
 50
233.8305992516827132
 51
268.5609816350122969
  0
ARC
  5
E9BB
  8
0
 10
4337.2083606795085871
 20
223.4818288678671934
 30
0.0
 40
0.0201112928157255
 50
201.8066366226111086
 51
266.2143851709894875
  0
ARC
  5
E9BC
  8
0
 10
4337.214091199172799
 20
223.571224920393604
 30
0.0
 40
0.0763371269063528
 50
251.3570187261204865
 51
266.6936604686479768
  0
ARC
  5
E9BD
  8
0
 10
4337.2067056257610602
 20
223.5743714784244105
 30
0.0
 40
0.0186353256678907
 50
204.053506100160007
 51
260.7893154355099909
  0
ARC
  5
E9BE
  8
0
 10
4337.2170126358696507
 20
223.7616823923532934
 30
0.0
 40
0.1689156213620063
 50
260.6908118082566261
 51
267.5148894128835764
  0
ARC
  5
E9BF
  8
0
 10
4337.2047958369566913
 20
223.6751518959526095
 30
0.0
 40
0.0168070171339732
 50
205.9899226454965913
 51
253.0756968106933016
  0
ARC
  5
E9C0
  8
0
 10
4337.2036324475084257
 20
223.6854090143773135
 30
0.0
 40
0.0142407114583029
 50
115.1673079121204069
 51
168.2826247945210127
  0
ARC
  5
E9C1
  8
0
 10
4337.2029703580119531
 20
223.7803693749563934
 30
0.0
 40
0.0148832924885727
 50
206.8234891877982875
 51
243.1672420924276992
  0
ARC
  5
E9C2
  8
0
 10
4337.4146824638155522
 20
223.2515249552812975
 30
0.0
 40
0.0200798810399938
 50
270.0172076195120212
 51
355.0845096095524127
  0
ARC
  5
E9C3
  8
0
 10
4337.4145466078971367
 20
223.2585192599069046
 30
0.0
 40
0.020299383624722
 50
270.4004832907111791
 51
352.8581008417664862
  0
ARC
  5
E9C4
  8
0
 10
4337.4145743399367348
 20
223.2671597603001032
 30
0.0
 40
0.0211373458372401
 50
270.3094650882081282
 51
342.0997746722746911
  0
ARC
  5
E9C5
  8
0
 10
4337.4147465711139375
 20
223.2860824823370081
 30
0.0
 40
0.0199943237670577
 50
270.1664671032899037
 51
355.8509678453738161
  0
ARC
  5
E9C6
  8
0
 10
4337.4144838116271785
 20
223.3044577378132942
 30
0.0
 40
0.0230655417881843
 50
270.5084543509050832
 51
331.1597781789990904
  0
ARC
  5
E9C7
  8
0
 10
4337.4151195303347777
 20
223.3343324143042139
 30
0.0
 40
0.0203592367413613
 50
271.2131270406737258
 51
343.9837703980757055
  0
ARC
  5
E9C8
  8
0
 10
4337.4143147002496335
 20
223.3629819444792872
 30
0.0
 40
0.0267875969515553
 50
270.7995301494897262
 51
319.5143139693482794
  0
ARC
  5
E9C9
  8
0
 10
4337.4157699554298233
 20
223.4004264190319873
 30
0.0
 40
0.0204065961348059
 50
273.0378516505645052
 51
337.9840597389799086
  0
ARC
  5
E9CA
  8
0
 10
4337.4137996367680898
 20
223.4437114008370031
 30
0.0
 40
0.0353943679072589
 50
271.4390183649875894
 51
306.1694007483171731
  0
ARC
  5
E9CB
  8
0
 10
4337.4160163092901712
 20
223.4818288678671934
 30
0.0
 40
0.0201112928157255
 50
273.7856148290103988
 51
338.1933633773888914
  0
ARC
  5
E9CC
  8
0
 10
4337.4102857896259593
 20
223.571224920393604
 30
0.0
 40
0.0763371269063528
 50
273.3063395313520232
 51
288.6429812738795135
  0
ARC
  5
E9CD
  8
0
 10
4337.417671363037698
 20
223.5743714784244105
 30
0.0
 40
0.0186353256678907
 50
279.2106845644898954
 51
335.9464938998398793
  0
ARC
  5
E9CE
  8
0
 10
4337.4073643529291076
 20
223.7616823923532934
 30
0.0
 40
0.1689156213620063
 50
272.4851105871164236
 51
279.3091881917433739
  0
ARC
  5
E9CF
  8
0
 10
4337.4195811518411574
 20
223.6751518959526095
 30
0.0
 40
0.0168070171339732
 50
286.9243031893067268
 51
334.0100773545033803
  0
ARC
  5
E9D0
  8
0
 10
4337.4207445412903326
 20
223.6854090143773135
 30
0.0
 40
0.0142407114583029
 50
11.7173752054773495
 51
64.8326920878796216
  0
ARC
  5
E9D1
  8
0
 10
4337.4214066307868052
 20
223.7803693749563934
 30
0.0
 40
0.0148832924885727
 50
296.8327579075722156
 51
333.1765108122016841
  0
LINE
  5
E9D2
  8
0
 10
4336.0880034550000346
 20
222.8914160715166872
 30
0.0
 11
4336.1076884943995537
 21
222.8914160715166872
 31
0.0
  0
LINE
  5
E9D3
  8
0
 10
4335.3006018801997925
 20
198.4560617406154108
 30
0.0
 11
4335.3006018801997925
 21
197.6986601661166958
 31
0.0
  0
ARC
  5
E9D4
  8
0
 10
4335.2906018801986647
 20
197.6986601661166958
 30
0.0
 40
0.0099999999999998
 50
270.0
 51
0.0
  0
ARC
  5
E9D5
  8
0
 10
4335.2806018794726697
 20
198.4560617406154108
 30
0.0
 40
0.0200000007273391
 50
0.000000863085089
 51
89.9881733704121984
  0
LINE
  5
E9D6
  8
0
 10
4333.7257987306002178
 20
222.6847231583504936
 30
0.0
 11
4333.7257987306002178
 21
198.4760617409166059
 31
0.0
  0
ARC
  5
E9D7
  8
0
 10
4333.9226491241661279
 20
222.6847231583504936
 30
0.0
 40
0.1968503935661605
 50
89.9999999610215582
 51
180.0000000389555908
  0
ARC
  5
E9D8
  8
0
 10
4331.8430856984014099
 20
220.315560125576809
 30
0.0
 40
3.3028788876515289
 50
50.9777999742123171
 51
65.5353093372540343
  0
LINE
  5
E9D9
  8
0
 10
4333.7257987306002178
 20
226.9563768669167132
 30
0.0
 11
4333.7257987306002178
 21
224.8894475675828062
 31
0.0
  0
LINE
  5
E9DA
  8
0
 10
4337.7761884943993209
 20
224.387781115589604
 30
0.0
 11
4337.7761884943993209
 21
224.2369155901839122
 31
0.0
  0
LINE
  5
E9DB
  8
0
 10
4337.7761884943993209
 20
223.3372551356495137
 30
0.0
 11
4337.7761884943993209
 21
222.7693329629167067
 31
0.0
  0
LINE
  5
E9DC
  8
0
 10
4337.7961884943997575
 20
227.3162473629166982
 30
0.0
 11
4338.4231884944001649
 21
227.3162473629166982
 31
0.0
  0
LINE
  5
E9DD
  8
0
 10
4337.7767881945501358
 20
224.4878447342605909
 30
0.0
 11
4337.7767881945501358
 21
227.2963979330453981
 31
0.0
  0
LINE
  5
E9DE
  8
0
 10
4337.7944784938372322
 20
224.4703578604255085
 30
0.0
 11
4337.7944784938372322
 21
227.2963337761295008
 31
0.0
  0
LINE
  5
E9DF
  8
0
 10
4337.8097789481653308
 20
224.4771379870441024
 30
0.0
 11
4337.8097789481653308
 21
227.296247362916688
 31
0.0
  0
LINE
  5
E9E0
  8
0
 10
4337.8601566583247404
 20
224.4689034674601089
 30
0.0
 11
4337.8601566583247404
 21
227.2965705516278092
 31
0.0
  0
LINE
  5
E9E1
  8
0
 10
4337.8884282115086535
 20
224.4764692563178983
 30
0.0
 11
4337.8884282115086535
 21
227.2962473632256888
 31
0.0
  0
LINE
  5
E9E2
  8
0
 10
4337.9638237828430647
 20
224.464393276320493
 30
0.0
 11
4337.9638237828430647
 21
227.3021305411816115
 31
0.0
  0
LINE
  5
E9E3
  8
0
 10
4338.0007623471929037
 20
224.4798185861750994
 30
0.0
 11
4338.0007623471929037
 21
227.296247362754599
 31
0.0
  0
LINE
  5
E9E4
  8
0
 10
4338.0896974874276566
 20
224.4787321142530914
 30
0.0
 11
4338.0896974874276566
 21
227.3095257671454874
 31
0.0
  0
ARC
  5
E9E5
  8
0
 10
4338.6400554020328855
 20
224.5070526109498132
 30
0.0
 40
0.8463727384496809
 50
182.4848550235435027
 51
188.1011305495063084
  0
ARC
  5
E9E6
  8
0
 10
4336.8950883335892286
 20
224.5104426754487861
 30
0.0
 40
0.9152967402238573
 50
352.2984561107030004
 51
357.9147315511194165
  0
ARC
  5
E9E7
  8
0
 10
4338.3147538612438439
 20
224.5063254153388073
 30
0.0
 40
0.4561348694038433
 50
184.7059157369278068
 51
195.0634582984783947
  0
ARC
  5
E9E8
  8
0
 10
4337.3920926699802294
 20
224.5101083095495085
 30
0.0
 40
0.497474175899452
 50
345.7651755380549048
 51
356.1227181284252765
  0
ARC
  5
E9E9
  8
0
 10
4338.2965390838389794
 20
224.5040703193789966
 30
0.0
 40
0.3350727372716502
 50
186.8005340631067099
 51
200.3073887226495913
  0
ARC
  5
E9EA
  8
0
 10
4337.602916530737275
 20
224.5117829745884137
 30
0.0
 40
0.3991278188711844
 50
341.8996596982843243
 51
355.4065143093887968
  0
ARC
  5
E9EB
  8
0
 10
4338.454484673036859
 20
224.5112397387453882
 30
0.0
 40
0.3662327626442824
 50
185.0924011758374945
 51
199.7005476034433968
  0
ARC
  5
E9EC
  8
0
 10
4324.7710247684917704
 20
224.5157571224260948
 30
0.0
 40
13.0057933781832098
 50
359.4362048366078852
 51
359.8770345476663124
  0
ARC
  5
E9ED
  8
0
 10
4337.7961884943997575
 20
222.7693329629167067
 30
0.0
 40
0.0199999999999996
 50
179.9999999999901945
 51
270.0
  0
ARC
  5
E9EE
  8
0
 10
4337.7967198444348469
 20
227.2963226546098099
 30
0.0
 40
0.0199317920412419
 50
91.5275957870406671
 51
179.7836046604585931
  0
ARC
  5
E9EF
  8
0
 10
4337.814545123541393
 20
227.2962905695241034
 30
0.0
 40
0.0200666762197037
 50
95.9987836500056062
 51
179.8766333767744925
  0
ARC
  5
E9F0
  8
0
 10
4337.833038071559713
 20
227.2960263388287103
 30
0.0
 40
0.023260173497953
 50
119.617842497302405
 51
179.4555527284420009
  0
ARC
  5
E9F1
  8
0
 10
4337.8811478920833906
 20
227.2964089556639919
 30
0.0
 40
0.0209918557533341
 50
109.0818410258368942
 51
179.5589309365543045
  0
ARC
  5
E9F2
  8
0
 10
4337.9256092651985455
 20
227.2951411388438885
 30
0.0
 40
0.0371975064474728
 50
145.4302104945718099
 51
178.2958181056922911
  0
ARC
  5
E9F3
  8
0
 10
4337.9822223975670568
 20
227.2991889522278939
 30
0.0
 40
0.0186322829884642
 50
113.7189191183796027
 51
170.9163711113596094
  0
ARC
  5
E9F4
  8
0
 10
4338.1806701526847974
 20
227.2886611053382921
 30
0.0
 40
0.1800676811058946
 50
171.1876187430366087
 51
177.5854121939308925
  0
ARC
  5
E9F5
  8
0
 10
4338.1030553078726371
 20
227.3028865650022965
 30
0.0
 40
0.0149167815606392
 50
116.4029262156595053
 51
153.5713668562675878
  0
LINE
  5
E9F6
  8
0
 10
4338.443188494399692
 20
224.387781115589604
 30
0.0
 11
4338.443188494399692
 21
224.2369155901839122
 31
0.0
  0
LINE
  5
E9F7
  8
0
 10
4338.443188494399692
 20
223.3372551356495137
 30
0.0
 11
4338.443188494399692
 21
222.7693329629167067
 31
0.0
  0
LINE
  5
E9F8
  8
0
 10
4338.4425887942497866
 20
224.4878447342605909
 30
0.0
 11
4338.4425887942497866
 21
227.2963979330453981
 31
0.0
  0
LINE
  5
E9F9
  8
0
 10
4338.4248984949617807
 20
224.4703578604255085
 30
0.0
 11
4338.4248984949617807
 21
227.2963337761295008
 31
0.0
  0
LINE
  5
E9FA
  8
0
 10
4338.4095980406327726
 20
224.4771379870441024
 30
0.0
 11
4338.4095980406327726
 21
227.296247362916688
 31
0.0
  0
LINE
  5
E9FB
  8
0
 10
4338.359220330475182
 20
224.4689034674601089
 30
0.0
 11
4338.359220330475182
 21
227.2965705516278092
 31
0.0
  0
LINE
  5
E9FC
  8
0
 10
4338.3309487772903594
 20
224.4764692563178983
 30
0.0
 11
4338.3309487772903594
 21
227.2962473632256888
 31
0.0
  0
LINE
  5
E9FD
  8
0
 10
4338.2555532059559482
 20
224.464393276320493
 30
0.0
 11
4338.2555532059559482
 21
227.3021305411816115
 31
0.0
  0
LINE
  5
E9FE
  8
0
 10
4338.2186146416070187
 20
224.4798185861750994
 30
0.0
 11
4338.2186146416070187
 21
227.296247362754599
 31
0.0
  0
LINE
  5
E9FF
  8
0
 10
4338.1296795013713563
 20
224.4787321142530914
 30
0.0
 11
4338.1296795013713563
 21
227.3095257671454874
 31
0.0
  0
ARC
  5
EA00
  8
0
 10
4337.5793215867652179
 20
224.5070526109498132
 30
0.0
 40
0.8463727384496809
 50
351.8988694504936916
 51
357.5151449764564973
  0
ARC
  5
EA01
  8
0
 10
4339.3242886552106938
 20
224.5104426754487861
 30
0.0
 40
0.9152967402238573
 50
182.0852684488804982
 51
187.7015438892969996
  0
ARC
  5
EA02
  8
0
 10
4337.9046231275542596
 20
224.5063254153388073
 30
0.0
 40
0.4561348694038433
 50
344.9365417015214916
 51
355.2940842630721932
  0
ARC
  5
EA03
  8
0
 10
4338.8272843188187835
 20
224.5101083095495085
 30
0.0
 40
0.497474175899452
 50
183.8772818715746098
 51
194.2348244619450952
  0
ARC
  5
EA04
  8
0
 10
4337.922837904960943
 20
224.5040703193789966
 30
0.0
 40
0.3350727372716502
 50
339.6926112773504087
 51
353.1994659368933185
  0
ARC
  5
EA05
  8
0
 10
4338.6164604580608284
 20
224.5117829745884137
 30
0.0
 40
0.3991278188711844
 50
184.5934856906112032
 51
198.1003403017157041
  0
ARC
  5
EA06
  8
0
 10
4337.7648923157630634
 20
224.5112397387453882
 30
0.0
 40
0.3662327626442824
 50
340.2994523965566032
 51
354.9075988241625055
  0
ARC
  5
EA07
  8
0
 10
4351.4483522203072425
 20
224.5157571224260948
 30
0.0
 40
13.0057933781832098
 50
180.1229654523336876
 51
180.5637951633904095
  0
ARC
  5
EA08
  8
0
 10
4338.4231884944001649
 20
222.7693329629167067
 30
0.0
 40
0.0199999999999996
 50
270.0
 51
0.0000000000097707
  0
ARC
  5
EA09
  8
0
 10
4338.422657144365985
 20
227.2963226546098099
 30
0.0
 40
0.0199317920412419
 50
0.2163953395414163
 51
88.4724042129593471
  0
ARC
  5
EA0A
  8
0
 10
4338.4048318652567104
 20
227.2962905695241034
 30
0.0
 40
0.0200666762197037
 50
0.1233666232254962
 51
84.0012163499943654
  0
ARC
  5
EA0B
  8
0
 10
4338.3863389172392999
 20
227.2960263388287103
 30
0.0
 40
0.023260173497953
 50
0.5444472715579451
 51
60.3821575026976021
  0
ARC
  5
EA0C
  8
0
 10
4338.3382290967156223
 20
227.2964089556639919
 30
0.0
 40
0.0209918557533341
 50
0.4410690634457152
 51
70.9181589741630631
  0
ARC
  5
EA0D
  8
0
 10
4338.2937677236013769
 20
227.2951411388438885
 30
0.0
 40
0.0371975064474728
 50
1.704181894307617
 51
34.5697895054281332
  0
ARC
  5
EA0E
  8
0
 10
4338.2371545912319561
 20
227.2991889522278939
 30
0.0
 40
0.0186322829884642
 50
9.0836288886403995
 51
66.2810808816203831
  0
ARC
  5
EA0F
  8
0
 10
4338.0387068361133061
 20
227.2886611053382921
 30
0.0
 40
0.1800676811058946
 50
2.4145878060690729
 51
8.8123812569634197
  0
ARC
  5
EA10
  8
0
 10
4338.1163216809263758
 20
227.3028865650022965
 30
0.0
 40
0.0149167815606392
 50
26.4286331437323199
 51
63.5970737843404166
  0
LINE
  5
EA11
  8
0
 10
4333.5318971557999248
 20
232.2401410795166043
 30
0.0
 11
4333.5318971557999248
 21
234.2841410795167008
 31
0.0
  0
ARC
  5
EA12
  8
0
 10
4332.9383971557999757
 20
234.2841410795167008
 30
0.0
 40
0.5934999999999993
 50
0.0
 51
180.0
  0
LINE
  5
EA13
  8
0
 10
4333.5318971557999248
 20
226.9563768669167132
 30
0.0
 11
4333.5318971557999248
 21
231.7471410795166946
 31
0.0
  0
LINE
  5
EA14
  8
0
 10
4333.5925971557990124
 20
231.7671410795167048
 30
0.0
 11
4333.5925971557990124
 21
231.8121410795166923
 31
0.0
  0
LINE
  5
EA15
  8
0
 10
4333.5925971557990124
 20
232.1751410795166919
 30
0.0
 11
4333.5925971557990124
 21
232.2201410795167078
 31
0.0
  0
ARC
  5
EA16
  8
0
 10
4333.5725971557985758
 20
231.7671410795167048
 30
0.0
 40
0.0199999999999969
 50
269.9999997134980845
 51
0.0000000000211698
  0
ARC
  5
EA17
  8
0
 10
4333.5725971557985758
 20
232.2201410795167078
 30
0.0
 40
0.0199999999999996
 50
0.0
 51
90.0
  0
ARC
  5
EA18
  8
0
 10
4333.6025971558001402
 20
232.1751410795166919
 30
0.0
 40
0.0099999999999971
 50
179.9999999999787974
 51
270.0
  0
ARC
  5
EA19
  8
0
 10
4333.6025971558001402
 20
231.8121410795166923
 30
0.0
 40
0.0100000000000122
 50
90.0
 51
180.0
  0
LINE
  5
EA1A
  8
0
 10
4332.918399094306551
 20
232.1586283304444009
 30
0.0
 11
4332.918399094306551
 21
231.8286538285890117
 31
0.0
  0
LINE
  5
EA1B
  8
0
 10
4332.8458335133382207
 20
232.1600863128653884
 30
0.0
 11
4332.8458335133382207
 21
231.8271958461679105
 31
0.0
  0
LINE
  5
EA1C
  8
0
 10
4332.8063298090055468
 20
232.1557254604547893
 30
0.0
 11
4332.8063298090055468
 21
231.8315566985785949
 31
0.0
  0
LINE
  5
EA1D
  8
0
 10
4332.7355510334718929
 20
232.1451410787207976
 30
0.0
 11
4332.7355510334718929
 21
231.8421410803125866
 31
0.0
  0
LINE
  5
EA1E
  8
0
 10
4332.6975124600903655
 20
232.1526208757146037
 30
0.0
 11
4332.6975124600903655
 21
231.834661283318809
 31
0.0
  0
LINE
  5
EA1F
  8
0
 10
4332.6302632983461081
 20
232.1451410784738982
 30
0.0
 11
4332.6302632983461081
 21
231.842141080559486
 31
0.0
  0
LINE
  5
EA20
  8
0
 10
4332.5946264918329689
 20
232.149689415202289
 30
0.0
 11
4332.5946264918329689
 21
231.8375927438310953
 31
0.0
  0
LINE
  5
EA21
  8
0
 10
4332.5325628414284438
 20
232.1451410782871108
 30
0.0
 11
4332.5325628414284438
 21
231.8421410807463019
 31
0.0
  0
LINE
  5
EA22
  8
0
 10
4332.5002052982326859
 20
232.1472187787279893
 30
0.0
 11
4332.5002052982326859
 21
231.840063380305395
 31
0.0
  0
LINE
  5
EA23
  8
0
 10
4332.4448553722168072
 20
232.1451410798505037
 30
0.0
 11
4332.4448553722168072
 21
231.8421410791829089
 31
0.0
  0
LINE
  5
EA24
  8
0
 10
4332.4165738424471783
 20
232.1453983510180024
 30
0.0
 11
4332.4165738424471783
 21
231.8418838080154103
 31
0.0
  0
LINE
  5
EA25
  8
0
 10
4332.369300539688993
 20
232.1451410791339924
 30
0.0
 11
4332.369300539688993
 21
231.8421410798993918
 31
0.0
  0
LINE
  5
EA26
  8
0
 10
4332.3457914084556251
 20
232.1451410772276915
 30
0.0
 11
4332.3457914084556251
 21
231.8421410818056074
 31
0.0
  0
LINE
  5
EA27
  8
0
 10
4332.3077587545731149
 20
232.1451410771061887
 30
0.0
 11
4332.3077587545731149
 21
231.8421410819271102
 31
0.0
  0
LINE
  5
EA28
  8
0
 10
4332.2896008947145674
 20
232.145141051045897
 30
0.0
 11
4332.2896008947145674
 21
231.8421411079874019
 31
0.0
  0
LINE
  5
EA29
  8
0
 10
4332.2617453798620772
 20
232.1452236823199087
 30
0.0
 11
4332.2617453798620772
 21
231.8420584767133903
 31
0.0
  0
LINE
  5
EA2A
  8
0
 10
4332.2493858981551966
 20
232.1455247495815115
 30
0.0
 11
4332.2493858981551966
 21
231.8417574094519011
 31
0.0
  0
LINE
  5
EA2B
  8
0
 10
4332.2323934175556133
 20
232.1451410439048004
 30
0.0
 11
4332.2323934175556133
 21
231.8421411151279017
 31
0.0
  0
LINE
  5
EA2C
  8
0
 10
4332.2261366454549716
 20
232.1451410795166908
 30
0.0
 11
4332.2261366454549716
 21
231.8421410795164093
 31
0.0
  0
LINE
  5
EA2D
  8
0
 10
4332.220425610375969
 20
232.1451957877497989
 30
0.0
 11
4332.220425610375969
 21
231.8420863712838127
 31
0.0
  0
ARC
  5
EA2E
  8
0
 10
4332.2403998273748584
 20
232.145168441995196
 30
0.0
 40
0.0199742357172308
 50
90.7248037526434246
 51
179.9215591115157906
  0
ARC
  5
EA2F
  8
0
 10
4332.246496251274948
 20
232.1449045245335867
 30
0.0
 40
0.0203609800201558
 50
96.3374360762169175
 51
179.3343195136359896
  0
ARC
  5
EA30
  8
0
 10
4332.2530235937556427
 20
232.1451158882784114
 30
0.0
 40
0.0206301915367792
 50
103.910120415107599
 51
179.9301358119382996
  0
ARC
  5
EA31
  8
0
 10
4332.2693318713418194
 20
232.1453329168602977
 30
0.0
 40
0.0199468956524856
 50
96.7614819149954144
 51
179.4489681540534889
  0
ARC
  5
EA32
  8
0
 10
4332.2831638683437632
 20
232.1451823903516072
 30
0.0
 40
0.0214185282837519
 50
111.2761695673408013
 51
179.8895415716829973
  0
ARC
  5
EA33
  8
0
 10
4332.3099961008847458
 20
232.145080880371296
 30
0.0
 40
0.0203952949284391
 50
100.4004837390566962
 51
179.8309644103468088
  0
ARC
  5
EA34
  8
0
 10
4332.3319546741186059
 20
232.1448674528716083
 30
0.0
 40
0.0241974666630914
 50
123.0871812057597054
 51
179.3520872178687
  0
ARC
  5
EA35
  8
0
 10
4332.3671627641197119
 20
232.1447270518611958
 30
0.0
 40
0.0213753657259357
 50
107.2488513946822053
 51
178.8901528069540916
  0
ARC
  5
EA36
  8
0
 10
4332.3989774973852036
 20
232.1442831613167925
 30
0.0
 40
0.0296893556871454
 50
135.3689677481480089
 51
178.3441225226301867
  0
ARC
  5
EA37
  8
0
 10
4332.4376462245154471
 20
232.1452697195443022
 30
0.0
 40
0.0210727746648317
 50
109.440548174196195
 51
179.6502555340956917
  0
ARC
  5
EA38
  8
0
 10
4332.4871851915786465
 20
232.1429635151249897
 30
0.0
 40
0.0423857923763362
 50
148.45076266585761
 51
177.0551406189950967
  0
ARC
  5
EA39
  8
0
 10
4332.5205443486311196
 20
232.1461799297796063
 30
0.0
 40
0.0203655635395186
 50
111.4025183991630001
 51
177.0760689587737033
  0
ARC
  5
EA3A
  8
0
 10
4332.5984672776312436
 20
232.1413079832032906
 30
0.0
 40
0.0660158112058538
 50
158.8370856419105053
 51
176.6713454323171959
  0
ARC
  5
EA3B
  8
0
 10
4332.6137840104884162
 20
232.1474152476384916
 30
0.0
 40
0.0192920283826269
 50
113.2463449262117052
 51
173.2301633430720926
  0
ARC
  5
EA3C
  8
0
 10
4332.74651453892875
 20
232.1391764567343046
 30
0.0
 40
0.1164041564964156
 50
167.1114212297366919
 51
177.0628416714264972
  0
ARC
  5
EA3D
  8
0
 10
4332.7150546816092174
 20
232.1488809776369067
 30
0.0
 40
0.0179364537588732
 50
114.9685821027593988
 51
167.9650554556048121
  0
ARC
  5
EA3E
  8
0
 10
4332.985517392514339
 20
232.1365520787707055
 30
0.0
 40
0.2501138772091703
 50
173.4365211866596042
 51
178.0320553521800093
  0
ARC
  5
EA3F
  8
0
 10
4332.8218712698344461
 20
232.1504332699755082
 30
0.0
 40
0.0164178038949565
 50
116.3828097194219993
 51
161.1952240512663082
  0
ARC
  5
EA40
  8
0
 10
4332.8344673021665585
 20
232.1526136961439875
 30
0.0
 40
0.0136026011131041
 50
33.3225718109355711
 51
67.0660966699221035
  0
ARC
  5
EA41
  8
0
 10
4332.9316548152482937
 20
232.1518847049732983
 30
0.0
 40
0.0148724786822156
 50
116.9583983904369973
 51
153.0360478843861074
  0
ARC
  5
EA42
  8
0
 10
4332.2403998273748584
 20
231.842113717038103
 30
0.0
 40
0.0199742357172308
 50
180.0784408884840957
 51
269.2751962473565754
  0
ARC
  5
EA43
  8
0
 10
4332.246496251274948
 20
231.8423776344997975
 30
0.0
 40
0.0203609800201558
 50
180.6656804863623051
 51
263.6625639237831251
  0
ARC
  5
EA44
  8
0
 10
4332.2530235937556427
 20
231.8421662707550013
 30
0.0
 40
0.0206301915367715
 50
180.0699630922497079
 51
256.0898795848926852
  0
ARC
  5
EA45
  8
0
 10
4332.2693318713418194
 20
231.8419492421730013
 30
0.0
 40
0.0199468956524856
 50
179.4489548758612898
 51
263.238518085004614
  0
ARC
  5
EA46
  8
0
 10
4332.2831638683437632
 20
231.8420997686816918
 30
0.0
 40
0.021418528283751
 50
179.8894911018853975
 51
248.7238304326598097
  0
ARC
  5
EA47
  8
0
 10
4332.3099961008847458
 20
231.842201278662003
 30
0.0
 40
0.0203952949284318
 50
180.1691155720037045
 51
259.5995162609431759
  0
ARC
  5
EA48
  8
0
 10
4332.3319546741186059
 20
231.8424147061616907
 30
0.0
 40
0.0241974666631024
 50
180.6479184902350141
 51
236.9128187942376087
  0
ARC
  5
EA49
  8
0
 10
4332.3671627641197119
 20
231.8425551071721031
 30
0.0
 40
0.0213753657259357
 50
181.1098533296400035
 51
252.7511486053178089
  0
ARC
  5
EA4A
  8
0
 10
4332.3989774973852036
 20
231.8429989977165064
 30
0.0
 40
0.0296893556871454
 50
181.6558774773698133
 51
224.6310322518519058
  0
ARC
  5
EA4B
  8
0
 10
4332.4376462245154471
 20
231.8420124394891104
 30
0.0
 40
0.0210727746648317
 50
179.6502322758688024
 51
250.5594518258037908
  0
ARC
  5
EA4C
  8
0
 10
4332.4871851915786465
 20
231.8443186439083092
 30
0.0
 40
0.0423857923763362
 50
182.9448593810049033
 51
211.54923733414239
  0
ARC
  5
EA4D
  8
0
 10
4332.5205443486311196
 20
231.8411022292536927
 30
0.0
 40
0.0203655635395186
 50
177.0760652558954007
 51
248.5974816008368862
  0
ARC
  5
EA4E
  8
0
 10
4332.5984672776312436
 20
231.8459741758300083
 30
0.0
 40
0.0660158112058538
 50
183.3286545676812125
 51
201.1629143580894947
  0
ARC
  5
EA4F
  8
0
 10
4332.6137840104884162
 20
231.8398669113948927
 30
0.0
 40
0.0192920283826269
 50
173.2301616742545889
 51
246.7536550737881953
  0
ARC
  5
EA50
  8
0
 10
4332.74651453892875
 20
231.8481057022989944
 30
0.0
 40
0.1164041564964156
 50
182.9371583285733891
 51
192.8885787702631944
  0
ARC
  5
EA51
  8
0
 10
4332.7150546816092174
 20
231.8384011813963923
 30
0.0
 40
0.0179364537588732
 50
167.9650553167396936
 51
245.0314178972406012
  0
ARC
  5
EA52
  8
0
 10
4332.985517392514339
 20
231.8507300802627071
 30
0.0
 40
0.2501138772091703
 50
181.9679446478183138
 51
186.5634788133403106
  0
ARC
  5
EA53
  8
0
 10
4332.8218712698344461
 20
231.8368488890577908
 30
0.0
 40
0.0164178038949565
 50
198.8047759487336918
 51
243.6171902805780007
  0
ARC
  5
EA54
  8
0
 10
4332.8344673021665585
 20
231.8346684628893115
 30
0.0
 40
0.0136026011131041
 50
292.9339033300778965
 51
326.6774281890644147
  0
ARC
  5
EA55
  8
0
 10
4332.9316548152482937
 20
231.8353974540600859
 30
0.0
 40
0.0148724786822156
 50
206.9639521156138073
 51
243.0416016095630027
  0
LINE
  5
EA56
  8
0
 10
4332.9583952172915815
 20
232.1586283304444009
 30
0.0
 11
4332.9583952172915815
 21
231.8286538285890117
 31
0.0
  0
LINE
  5
EA57
  8
0
 10
4333.0309607982617308
 20
232.1600863128653884
 30
0.0
 11
4333.0309607982617308
 21
231.8271958461679105
 31
0.0
  0
LINE
  5
EA58
  8
0
 10
4333.0704645025925856
 20
232.1557254604547893
 30
0.0
 11
4333.0704645025925856
 21
231.8315566985785949
 31
0.0
  0
LINE
  5
EA59
  8
0
 10
4333.1412432781262396
 20
232.1451410787207976
 30
0.0
 11
4333.1412432781262396
 21
231.8421410803125866
 31
0.0
  0
LINE
  5
EA5A
  8
0
 10
4333.1792818515086765
 20
232.1526208757146037
 30
0.0
 11
4333.1792818515086765
 21
231.834661283318809
 31
0.0
  0
LINE
  5
EA5B
  8
0
 10
4333.2465310132520244
 20
232.1451410784738982
 30
0.0
 11
4333.2465310132520244
 21
231.842141080559486
 31
0.0
  0
LINE
  5
EA5C
  8
0
 10
4333.2821678197660731
 20
232.149689415202289
 30
0.0
 11
4333.2821678197660731
 21
231.8375927438310953
 31
0.0
  0
LINE
  5
EA5D
  8
0
 10
4333.3442314701705982
 20
232.1451410782871108
 30
0.0
 11
4333.3442314701705982
 21
231.8421410807463019
 31
0.0
  0
LINE
  5
EA5E
  8
0
 10
4333.3765890133681751
 20
232.1472187787279893
 30
0.0
 11
4333.3765890133681751
 21
231.840063380305395
 31
0.0
  0
LINE
  5
EA5F
  8
0
 10
4333.4319389393831443
 20
232.1451410798505037
 30
0.0
 11
4333.4319389393831443
 21
231.8421410791829089
 31
0.0
  0
LINE
  5
EA60
  8
0
 10
4333.4602204691509542
 20
232.1453983510180024
 30
0.0
 11
4333.4602204691509542
 21
231.8418838080154103
 31
0.0
  0
LINE
  5
EA61
  8
0
 10
4333.5074937719109585
 20
232.1451410791339924
 30
0.0
 11
4333.5074937719109585
 21
231.8421410798993918
 31
0.0
  0
LINE
  5
EA62
  8
0
 10
4333.5310029031452359
 20
232.1451410772276915
 30
0.0
 11
4333.5310029031452359
 21
231.8421410818056074
 31
0.0
  0
LINE
  5
EA63
  8
0
 10
4333.5690355570268366
 20
232.1451410771061887
 30
0.0
 11
4333.5690355570268366
 21
231.8421410819271102
 31
0.0
  0
LINE
  5
EA64
  8
0
 10
4333.5871934168826556
 20
232.145141051045897
 30
0.0
 11
4333.5871934168826556
 21
231.8421411079874019
 31
0.0
  0
LINE
  5
EA65
  8
0
 10
4333.6150489317351457
 20
232.1452236823199087
 30
0.0
 11
4333.6150489317351457
 21
231.8420584767133903
 31
0.0
  0
LINE
  5
EA66
  8
0
 10
4333.6274084134438453
 20
232.1455247495815115
 30
0.0
 11
4333.6274084134438453
 21
231.8417574094519011
 31
0.0
  0
LINE
  5
EA67
  8
0
 10
4333.6444008940434287
 20
232.1451410439048004
 30
0.0
 11
4333.6444008940434287
 21
231.8421411151279017
 31
0.0
  0
LINE
  5
EA68
  8
0
 10
4333.6506576661440704
 20
232.1451410795166908
 30
0.0
 11
4333.6506576661440704
 21
231.8421410795164093
 31
0.0
  0
LINE
  5
EA69
  8
0
 10
4333.6563687012221635
 20
232.1451957877497989
 30
0.0
 11
4333.6563687012221635
 21
231.8420863712838127
 31
0.0
  0
ARC
  5
EA6A
  8
0
 10
4333.6363944842241835
 20
232.145168441995196
 30
0.0
 40
0.0199742357172308
 50
0.0784408884841462
 51
89.2751962473565754
  0
ARC
  5
EA6B
  8
0
 10
4333.6302980603250035
 20
232.1449045245335867
 30
0.0
 40
0.0203609800201558
 50
0.6656804863639608
 51
83.6625639237830683
  0
ARC
  5
EA6C
  8
0
 10
4333.6237707178433993
 20
232.1451158882784114
 30
0.0
 40
0.0206301915367792
 50
0.0698641880616633
 51
76.0898795848923868
  0
ARC
  5
EA6D
  8
0
 10
4333.6074624402572226
 20
232.1453329168602977
 30
0.0
 40
0.0199468956524856
 50
0.5510318459464846
 51
83.2385180850045998
  0
ARC
  5
EA6E
  8
0
 10
4333.5936304432552788
 20
232.1451823903516072
 30
0.0
 40
0.0214185282837519
 50
0.1104584283170014
 51
68.7238304326591845
  0
ARC
  5
EA6F
  8
0
 10
4333.5667982107142961
 20
232.145080880371296
 30
0.0
 40
0.0203952949284391
 50
0.1690355896532028
 51
79.5995162609432896
  0
ARC
  5
EA70
  8
0
 10
4333.5448396374813456
 20
232.1448674528716083
 30
0.0
 40
0.0241974666630914
 50
0.647912782131312
 51
56.9128187942402377
  0
ARC
  5
EA71
  8
0
 10
4333.5096315474802395
 20
232.1447270518611958
 30
0.0
 40
0.0213753657259357
 50
1.10984719304588
 51
72.7511486053177805
  0
ARC
  5
EA72
  8
0
 10
4333.4778168142129289
 20
232.1442831613167925
 30
0.0
 40
0.0296893556871454
 50
1.6558774773698151
 51
44.63103225185192
  0
ARC
  5
EA73
  8
0
 10
4333.4391480870826854
 20
232.1452697195443022
 30
0.0
 40
0.0210727746648317
 50
0.3497444659042721
 51
70.5594518258037908
  0
ARC
  5
EA74
  8
0
 10
4333.3896091200203955
 20
232.1429635151249897
 30
0.0
 40
0.0423857923763362
 50
2.9448593810048989
 51
31.5492373341424113
  0
ARC
  5
EA75
  8
0
 10
4333.3562499629670128
 20
232.1461799297796063
 30
0.0
 40
0.0203655635395186
 50
2.9239310412263211
 51
68.5974816008369714
  0
ARC
  5
EA76
  8
0
 10
4333.2783270339677983
 20
232.1413079832032906
 30
0.0
 40
0.0660158112058538
 50
3.3286545676828121
 51
21.1629143580894805
  0
ARC
  5
EA77
  8
0
 10
4333.2630103011124447
 20
232.1474152476384916
 30
0.0
 40
0.0192920283826269
 50
6.7698366569278541
 51
66.7536550737882806
  0
ARC
  5
EA78
  8
0
 10
4333.130279772670292
 20
232.1391764567343046
 30
0.0
 40
0.1164041564964156
 50
2.937158328573434
 51
12.8885787702632495
  0
ARC
  5
EA79
  8
0
 10
4333.1617396299889151
 20
232.1488809776369067
 30
0.0
 40
0.0179364537588732
 50
12.0349445443951808
 51
65.0314178972406012
  0
ARC
  5
EA7A
  8
0
 10
4332.891276919084703
 20
232.1365520787707055
 30
0.0
 40
0.2501138772091703
 50
1.967944647819956
 51
6.5634788133403656
  0
ARC
  5
EA7B
  8
0
 10
4333.0549230417636863
 20
232.1504332699755082
 30
0.0
 40
0.0164178038949565
 50
18.804775948733699
 51
63.6171902805779723
  0
ARC
  5
EA7C
  8
0
 10
4333.042327009431574
 20
232.1526136961439875
 30
0.0
 40
0.0136026011131041
 50
112.9339033300778965
 51
146.6774281890643863
  0
ARC
  5
EA7D
  8
0
 10
4332.9451394963507482
 20
232.1518847049732983
 30
0.0
 40
0.0148724786822156
 50
26.9639521156138287
 51
63.0416016095629814
  0
ARC
  5
EA7E
  8
0
 10
4333.6363944842241835
 20
231.842113717038103
 30
0.0
 40
0.0199742357172308
 50
270.7248037526434246
 51
359.921559111515819
  0
ARC
  5
EA7F
  8
0
 10
4333.6302980603250035
 20
231.8423776344997975
 30
0.0
 40
0.0203609800201558
 50
276.3374360762168749
 51
359.3343195136359896
  0
ARC
  5
EA80
  8
0
 10
4333.6237707178433993
 20
231.8421662707550013
 30
0.0
 40
0.0206301915367715
 50
283.9101204151073148
 51
359.9300369077503206
  0
ARC
  5
EA81
  8
0
 10
4333.6074624402572226
 20
231.8419492421730013
 30
0.0
 40
0.0199468956524856
 50
276.761481914995386
 51
0.5510451241386544
  0
ARC
  5
EA82
  8
0
 10
4333.5936304432552788
 20
231.8420997686816918
 30
0.0
 40
0.021418528283751
 50
291.2761695673402187
 51
0.1105088981128934
  0
ARC
  5
EA83
  8
0
 10
4333.5667982107142961
 20
231.842201278662003
 30
0.0
 40
0.0203952949284318
 50
280.4004837390567104
 51
359.8308844279962955
  0
ARC
  5
EA84
  8
0
 10
4333.5448396374813456
 20
231.8424147061616907
 30
0.0
 40
0.0241974666631024
 50
303.0871812057624766
 51
359.3520815097650143
  0
ARC
  5
EA85
  8
0
 10
4333.5096315474802395
 20
231.8425551071721031
 30
0.0
 40
0.0213753657259357
 50
287.2488513946822195
 51
358.8901466703583765
  0
ARC
  5
EA86
  8
0
 10
4333.4778168142129289
 20
231.8429989977165064
 30
0.0
 40
0.0296893556871454
 50
315.3689677481481226
 51
358.3441225226301867
  0
ARC
  5
EA87
  8
0
 10
4333.4391480870826854
 20
231.8420124394891104
 30
0.0
 40
0.0210727746648317
 50
289.4405481741961808
 51
0.349767724131234
  0
ARC
  5
EA88
  8
0
 10
4333.3896091200203955
 20
231.8443186439083092
 30
0.0
 40
0.0423857923763362
 50
328.45076266585761
 51
357.0551406189935051
  0
ARC
  5
EA89
  8
0
 10
4333.3562499629670128
 20
231.8411022292536927
 30
0.0
 40
0.0203655635395186
 50
291.4025183991630001
 51
2.9239347441046091
  0
ARC
  5
EA8A
  8
0
 10
4333.2783270339677983
 20
231.8459741758300083
 30
0.0
 40
0.0660158112058538
 50
338.8370856419105053
 51
356.6713454323171959
  0
ARC
  5
EA8B
  8
0
 10
4333.2630103011124447
 20
231.8398669113948927
 30
0.0
 40
0.0192920283826269
 50
293.246344926211691
 51
6.7698383257470036
  0
ARC
  5
EA8C
  8
0
 10
4333.130279772670292
 20
231.8481057022989944
 30
0.0
 40
0.1164041564964156
 50
347.1114212297367203
 51
357.0628416714266109
  0
ARC
  5
EA8D
  8
0
 10
4333.1617396299889151
 20
231.8384011813963923
 30
0.0
 40
0.0179364537588732
 50
294.9685821027593988
 51
12.0349446832603206
  0
ARC
  5
EA8E
  8
0
 10
4332.891276919084703
 20
231.8507300802627071
 30
0.0
 40
0.2501138772091703
 50
353.4365211866596042
 51
358.0320553521817146
  0
ARC
  5
EA8F
  8
0
 10
4333.0549230417636863
 20
231.8368488890577908
 30
0.0
 40
0.0164178038949565
 50
296.3828097194220277
 51
341.1952240512662797
  0
ARC
  5
EA90
  8
0
 10
4333.042327009431574
 20
231.8346684628893115
 30
0.0
 40
0.0136026011131041
 50
213.3225718109355
 51
247.0660966699221035
  0
ARC
  5
EA91
  8
0
 10
4332.9451394963507482
 20
231.8353974540600859
 30
0.0
 40
0.0148724786822156
 50
296.9583983904370825
 51
333.0360478843862211
  0
ENDSEC
  0
EOF
