  0
SECTION
  2
HEADER
  9
$ACADVER
  1
AC1009
  9
$INSBASE
 10
4320.6775813356307481
 20
201.7151652474504999
 30
0.0
  9
$EXTMIN
 10
4319.4160813356311337
 20
201.7151652474504999
 30
0.0
  9
$EXTMAX
 10
4321.9390813356312719
 20
205.4141652474505122
 30
0.0
  9
$LIMMIN
 10
0.0
 20
0.0
  9
$LIMMAX
 10
11.6929133858000007
 20
8.2677165353999982
  9
$ORTHOMODE
 70
     0
  9
$REGENMODE
 70
     1
  9
$FILLMODE
 70
     1
  9
$QTEXTMODE
 70
     0
  9
$MIRRTEXT
 70
     0
  9
$DRAGMODE
 70
     2
  9
$LTSCALE
 40
0.6431102362
  9
$OSMODE
 70
     7
  9
$ATTMODE
 70
     1
  9
$TEXTSIZE
 40
0.2
  9
$TRACEWID
 40
0.05
  9
$TEXTSTYLE
  7
STANDARD
  9
$CLAYER
  8
0
  9
$CELTYPE
  6
BYLAYER
  9
$CECOLOR
 62
   256
  9
$DIMSCALE
 40
1.0
  9
$DIMASZ
 40
0.1875
  9
$DIMEXO
 40
0.0625
  9
$DIMDLI
 40
0.4443307087
  9
$DIMRND
 40
0.0
  9
$DIMDLE
 40
0.0
  9
$DIMEXE
 40
0.125
  9
$DIMTP
 40
0.01
  9
$DIMTM
 40
0.01
  9
$DIMTXT
 40
2.0
  9
$DIMCEN
 40
0.1052362205
  9
$DIMTSZ
 40
0.0
  9
$DIMTOL
 70
     1
  9
$DIMLIM
 70
     0
  9
$DIMTIH
 70
     1
  9
$DIMTOH
 70
     1
  9
$DIMSE1
 70
     0
  9
$DIMSE2
 70
     0
  9
$DIMTAD
 70
     0
  9
$DIMZIN
 70
     0
  9
$DIMBLK
  1

  9
$DIMASO
 70
     1
  9
$DIMSHO
 70
     1
  9
$DIMPOST
  1
\X
  9
$DIMAPOST
  1

  9
$DIMALT
 70
     1
  9
$DIMALTD
 70
     2
  9
$DIMALTF
 40
25.3999999999999986
  9
$DIMLFAC
 40
1.0
  9
$DIMTOFL
 70
     0
  9
$DIMTVP
 40
0.0
  9
$DIMTIX
 70
     0
  9
$DIMSOXD
 70
     0
  9
$DIMSAH
 70
     0
  9
$DIMBLK1
  1

  9
$DIMBLK2
  1

  9
$DIMSTYLE
  2
STANDARD
  9
$DIMCLRD
 70
     0
  9
$DIMCLRE
 70
     0
  9
$DIMCLRT
 70
     0
  9
$DIMTFAC
 40
1.0
  9
$DIMGAP
 40
0.09
  9
$LUNITS
 70
     2
  9
$LUPREC
 70
     4
  9
$SKETCHINC
 40
0.1
  9
$FILLETRAD
 40
0.0
  9
$AUNITS
 70
     0
  9
$AUPREC
 70
     0
  9
$MENU
  1
.
  9
$ELEVATION
 40
0.0
  9
$PELEVATION
 40
0.0
  9
$THICKNESS
 40
0.0
  9
$LIMCHECK
 70
     0
  9
$BLIPMODE
 70
     0
  9
$CHAMFERA
 40
0.0
  9
$CHAMFERB
 40
0.0
  9
$SKPOLY
 70
     0
  9
$TDCREATE
 40
2458060.468368056230247
  9
$TDUPDATE
 40
2459579.5989120369777083
  9
$TDINDWG
 40
0.4413959491
  9
$TDUSRTIMER
 40
0.4413959491
  9
$USRTIMER
 70
     1
  9
$ANGBASE
 50
0.0
  9
$ANGDIR
 70
     0
  9
$PDMODE
 70
     0
  9
$PDSIZE
 40
0.3125
  9
$PLINEWID
 40
0.0
  9
$COORDS
 70
     1
  9
$SPLFRAME
 70
     0
  9
$SPLINETYPE
 70
     6
  9
$SPLINESEGS
 70
     8
  9
$ATTDIA
 70
     1
  9
$ATTREQ
 70
     1
  9
$HANDLING
 70
     1
  9
$HANDSEED
  5
EC5D
  9
$SURFTAB1
 70
     6
  9
$SURFTAB2
 70
     6
  9
$SURFTYPE
 70
     6
  9
$SURFU
 70
     6
  9
$SURFV
 70
     6
  9
$UCSNAME
  2

  9
$UCSORG
 10
0.0
 20
0.0
 30
0.0
  9
$UCSXDIR
 10
1.0
 20
0.0
 30
0.0
  9
$UCSYDIR
 10
0.0
 20
1.0
 30
0.0
  9
$PUCSNAME
  2

  9
$PUCSORG
 10
0.0
 20
0.0
 30
0.0
  9
$PUCSXDIR
 10
1.0
 20
0.0
 30
0.0
  9
$PUCSYDIR
 10
0.0
 20
1.0
 30
0.0
  9
$USERI1
 70
     0
  9
$USERI2
 70
     0
  9
$USERI3
 70
     0
  9
$USERI4
 70
     0
  9
$USERI5
 70
     0
  9
$USERR1
 40
0.0
  9
$USERR2
 40
0.0
  9
$USERR3
 40
0.0
  9
$USERR4
 40
0.0
  9
$USERR5
 40
0.0
  9
$WORLDVIEW
 70
     1
  9
$SHADEDGE
 70
     3
  9
$SHADEDIF
 70
    70
  9
$TILEMODE
 70
     1
  9
$MAXACTVP
 70
    64
  9
$PLIMCHECK
 70
     0
  9
$PEXTMIN
 10
1.0000000000000000E+20
 20
1.0000000000000000E+20
 30
1.0000000000000000E+20
  9
$PEXTMAX
 10
-1.0000000000000000E+20
 20
-1.0000000000000000E+20
 30
-1.0000000000000000E+20
  9
$PLIMMIN
 10
0.0
 20
0.0
  9
$PLIMMAX
 10
12.0
 20
9.0
  9
$UNITMODE
 70
     0
  9
$VISRETAIN
 70
     1
  9
$PLINEGEN
 70
     0
  9
$PSLTSCALE
 70
     1
  0
ENDSEC
  0
SECTION
  2
TABLES
  0
TABLE
  2
VPORT
 70
     1
  0
VPORT
  2
*ACTIVE
 70
     0
 10
0.0
 20
0.0
 11
1.0
 21
1.0
 12
517.1335139528190439
 22
77.5694030507005863
 13
0.0
 23
0.0
 14
1.0
 24
1.0
 15
0.0
 25
0.0
 16
0.0
 26
0.0
 36
17.1152628219792007
 17
3803.5440673828129547
 27
125.9952621967499056
 37
0.0
 40
3.7254844868735111
 41
2.2831541218637992
 42
50.0
 43
0.0
 44
0.0
 50
0.0
 51
0.0
 71
     0
 72
   100
 73
     1
 74
     1
 75
     0
 76
     0
 77
     0
 78
     0
  0
ENDTAB
  0
TABLE
  2
LTYPE
 70
     2
  0
LTYPE
  2
CONTINUOUS
 70
     0
  3
Solid line
 72
    65
 73
     0
 40
0.0
  0
LTYPE
  2
PHANTOM2
 70
     0
  3
___ _ _ ___ _ _ ___ _ _ ___ _ _
 72
    65
 73
     6
 40
1.25
 49
0.625
 49
-0.125
 49
0.125
 49
-0.125
 49
0.125
 49
-0.125
  0
ENDTAB
  0
TABLE
  2
LAYER
 70
     2
  0
LAYER
  2
0
 70
     0
 62
   255
  6
CONTINUOUS
  0
LAYER
  2
DEFPOINTS
 70
     0
 62
     7
  6
CONTINUOUS
  0
ENDTAB
  0
TABLE
  2
STYLE
 70
     1
  0
STYLE
  2
STANDARD
 70
     0
 40
0.0
 41
0.8
 50
0.0
 71
     0
 42
0.2
  3
txt
  4

  0
ENDTAB
  0
TABLE
  2
VIEW
 70
     0
  0
ENDTAB
  0
TABLE
  2
UCS
 70
     0
  0
ENDTAB
  0
TABLE
  2
APPID
 70
     9
  0
APPID
  2
ACAD
 70
     0
  0
APPID
  2
ACAD_MLEADERVER
 70
     0
  0
APPID
  2
ACAD_EXEMPT_FROM_CAD_STANDARDS
 70
     0
  0
APPID
  2
ACAD_NAV_VCDISPLAY
 70
     0
  0
APPID
  2
ACAECLAYERSTANDARD
 70
     0
  0
APPID
  2
ACCMTRANSPARENCY
 70
     0
  0
APPID
  2
ACAD_DSTYLE_DIMJAG
 70
     0
  0
APPID
  2
ACAD_DSTYLE_DIMTALN
 70
     0
  0
APPID
  2
ACDBATTR
 70
     0
  0
ENDTAB
  0
TABLE
  2
DIMSTYLE
 70
     1
  0
DIMSTYLE
  2
STANDARD
 70
     0
  3

  4

  5

  6

  7

 40
1.0
 41
0.1875
 42
0.0625
 43
0.38
 44
0.125
 45
0.0
 46
0.0
 47
0.01
 48
0.01
140
0.15625
141
0.09
142
0.0
143
25.3999999999999986
144
1.0
145
0.0
146
1.0
147
0.09
 71
     1
 72
     0
 73
     1
 74
     1
 75
     0
 76
     0
 77
     0
 78
     4
170
     0
171
     2
172
     0
173
     0
174
     0
175
     0
176
     0
177
     0
178
     0
  0
ENDTAB
  0
ENDSEC
  0
SECTION
  2
BLOCKS
  0
BLOCK
  8
0
  2
$MODEL_SPACE
 70
     0
 10
0.0
 20
0.0
 30
0.0
  3
$MODEL_SPACE
  1

  0
ENDBLK
  5
21
  8
0
  0
BLOCK
 67
     1
  8
0
  2
$PAPER_SPACE
 70
     0
 10
0.0
 20
0.0
 30
0.0
  3
$PAPER_SPACE
  1

  0
ENDBLK
  5
1D
 67
     1
  8
0
  0
ENDSEC
  0
SECTION
  2
ENTITIES
  0
ATTDEF
  5
3930
  8
DEFPOINTS
 10
4320.6776039409533041
 20
201.7185142613421931
 30
0.0
 40
0.001
  1
P21248-LV
  3

  2
MODELNUMBER
 70
     0
1001
ACDBATTR
1070
     0
1070
     1
  0
ATTDEF
  5
3931
  8
DEFPOINTS
 10
4320.6776039409533041
 20
201.7168475946756132
 30
0.0
 40
0.001
  1
CENTRAL PARK WEST
  3

  2
TRADENAME
 70
     0
1001
ACDBATTR
1070
     0
1070
     1
  0
ATTDEF
  5
3932
  8
DEFPOINTS
 10
4320.6776039409533041
 20
201.7151809280088912
 30
0.0
 40
0.001
  1
BATH FAUCET HANDLES
  3

  2
PRODUCT
 70
     0
1001
ACDBATTR
1070
     0
1070
     1
  0
CIRCLE
  5
EB05
  8
0
 10
4320.6775813356307481
 20
204.9961652474505058
 30
0.0
 40
0.3335000000000008
  0
CIRCLE
  5
EB06
  8
0
 10
4320.6775813356307481
 20
204.9961652474505058
 30
0.0
 40
0.3375000000000003
  0
ARC
  5
EB07
  8
0
 10
4320.3491479499316483
 20
204.9382535801505014
 30
0.0
 40
0.0199999999999999
 50
281.7182721554252112
 51
98.2817278566735979
  0
ARC
  5
EB08
  8
0
 10
4320.3963102884072214
 20
204.8169758279954067
 30
0.0
 40
0.0199999999999999
 50
304.2182721554285081
 51
120.7817278566383976
  0
ARC
  5
EB09
  8
0
 10
4320.486293594091876
 20
204.7229780405963027
 30
0.0
 40
0.0199999999999999
 50
326.7182721554157752
 51
143.2817278566481036
  0
ARC
  5
EB0A
  8
0
 10
4320.6053987244013115
 20
204.6705705289924992
 30
0.0
 40
0.0199999999999999
 50
349.2182721554045202
 51
165.7817278566512869
  0
ARC
  5
EB0B
  8
0
 10
4320.7354930029314346
 20
204.6677318617504966
 30
0.0
 40
0.0199999999999999
 50
11.71827215540522
 51
188.2817278566604955
  0
ARC
  5
EB0C
  8
0
 10
4320.856770755085563
 20
204.7148942002251886
 30
0.0
 40
0.0199999999999999
 50
34.2182721554082505
 51
210.7817278566531058
  0
ARC
  5
EB0D
  8
0
 10
4320.9507685424860028
 20
204.8048775059116053
 30
0.0
 40
0.0199999999999999
 50
56.7182721554214027
 51
233.2817278566735126
  0
ARC
  5
EB0E
  8
0
 10
4321.0031760540896357
 20
204.9239826362195913
 30
0.0
 40
0.0199999999999999
 50
79.218272155410375
 51
255.7817278566510026
  0
ARC
  5
EB0F
  8
0
 10
4321.0060147213316668
 20
205.0540769147505102
 30
0.0
 40
0.0199999999999999
 50
101.7182721554250975
 51
278.2817278566736263
  0
ARC
  5
EB10
  8
0
 10
4320.9588523828570032
 20
205.1753546669054913
 30
0.0
 40
0.0199999999999999
 50
124.2182721554283944
 51
300.7817278566383834
  0
ARC
  5
EB11
  8
0
 10
4320.8688690771714391
 20
205.2693524543045953
 30
0.0
 40
0.0199999999999999
 50
146.7182721554158036
 51
323.2817278566481036
  0
ARC
  5
EB12
  8
0
 10
4320.7497639468629131
 20
205.3217599659085124
 30
0.0
 40
0.0199999999999999
 50
169.2182721554044917
 51
345.7817278566512869
  0
ARC
  5
EB13
  8
0
 10
4320.6196696683318805
 20
205.3245986331504866
 30
0.0
 40
0.0199999999999999
 50
191.7182721554052023
 51
8.2817278566605506
  0
ARC
  5
EB14
  8
0
 10
4320.4983919161768426
 20
205.2774362946757094
 30
0.0
 40
0.0199999999999999
 50
214.2182721554081866
 51
30.781727856653049
  0
ARC
  5
EB15
  8
0
 10
4320.4043941287773123
 20
205.1874529889894063
 30
0.0
 40
0.0199999999999999
 50
236.7182721554214027
 51
53.2817278566734771
  0
ARC
  5
EB16
  8
0
 10
4320.3519866171736794
 20
205.0683478586813067
 30
0.0
 40
0.0199999999999999
 50
259.2182721554103182
 51
75.7817278566509884
  0
LINE
  5
EB17
  8
0
 10
4319.4260813356322615
 20
201.7151652474504999
 30
0.0
 11
4321.9290813356319632
 21
201.7151652474504999
 31
0.0
  0
LINE
  5
EB18
  8
0
 10
4319.4360813356315703
 20
201.908165247450512
 30
0.0
 11
4321.9190813356308354
 21
201.908165247450512
 31
0.0
  0
LINE
  5
EB19
  8
0
 10
4319.7729116996306402
 20
202.2101652474505045
 30
0.0
 11
4321.5822509716317654
 21
202.2101652474505045
 31
0.0
  0
LINE
  5
EB1A
  8
0
 10
4319.4160813356311337
 20
201.8881652474505017
 30
0.0
 11
4319.4160813356311337
 21
201.7251652474504908
 31
0.0
  0
ARC
  5
EB1B
  8
0
 10
4319.4360813356315703
 20
201.8881652474505017
 30
0.0
 40
0.0199999999999996
 50
90.0
 51
180.0000000000015916
  0
ARC
  5
EB1C
  8
0
 10
4319.4260813356322615
 20
201.7251652474504908
 30
0.0
 40
0.0100000000000007
 50
180.0000000000048885
 51
270.0
  0
LINE
  5
EB1D
  8
0
 10
4319.9102813356321349
 20
202.2301652474504863
 30
0.0
 11
4319.9102813356321349
 21
203.8441652474504906
 31
0.0
  0
LINE
  5
EB1E
  8
0
 10
4319.9102813356321349
 20
203.894165247450502
 30
0.0
 11
4319.9102813356321349
 21
203.974165247450486
 31
0.0
  0
ARC
  5
EB1F
  8
0
 10
4319.8902813356316983
 20
202.2301652474504863
 30
0.0
 40
0.0199999999999676
 50
270.0
 51
0.000000000043968
  0
ARC
  5
EB20
  8
0
 10
4319.7729116996306402
 20
202.1901652474701052
 30
0.0
 40
0.0199999999803207
 50
89.9999999779573869
 51
175.3523317743236021
  0
ARC
  5
EB21
  8
0
 10
4319.5049665316446408
 20
202.2101289339242101
 30
0.0
 40
0.2486883440016033
 50
328.5544907644970181
 51
355.7700517274279832
  0
ARC
  5
EB22
  8
0
 10
4319.5988697695702285
 20
202.1507066654363882
 30
0.0
 40
0.1375867868985634
 50
280.123431125728473
 51
329.265435913242527
  0
ARC
  5
EB23
  8
0
 10
4319.6260813356975632
 20
201.9954924676256951
 30
0.0
 40
0.0200000000669718
 50
98.7081529834180316
 51
179.999999928942799
  0
LINE
  5
EB24
  8
0
 10
4319.6230533061307142
 20
202.0152619147505106
 30
0.0
 11
4321.732109365130782
 21
202.0152619147505106
 31
0.0
  0
LINE
  5
EB25
  8
0
 10
4319.6060813356307335
 20
201.9281652474504938
 30
0.0
 11
4319.6060813356307335
 21
201.9954924676256951
 31
0.0
  0
ARC
  5
EB26
  8
0
 10
4319.5860813356312065
 20
201.9281652474504938
 30
0.0
 40
0.0199999999999925
 50
270.0
 51
0.0000000000048853
  0
LINE
  5
EB27
  8
0
 10
4319.9252813356306433
 20
203.9891652474505008
 30
0.0
 11
4321.4298813356308528
 21
203.9891652474505008
 31
0.0
  0
LINE
  5
EB28
  8
0
 10
4319.9252813356306433
 20
203.8791652474504872
 30
0.0
 11
4321.4298813356308528
 21
203.8791652474504872
 31
0.0
  0
LINE
  5
EB29
  8
0
 10
4319.9252813356306433
 20
203.8591652474505054
 30
0.0
 11
4321.4298813356308528
 21
203.8591652474505054
 31
0.0
  0
LINE
  5
EB2A
  8
0
 10
4319.9875813356320577
 20
203.8791652474504872
 30
0.0
 11
4319.9875813356320577
 21
203.8591652474505054
 31
0.0
  0
ARC
  5
EB2B
  8
0
 10
4319.9252813356306433
 20
203.894165247450502
 30
0.0
 40
0.0149999999999997
 50
180.0
 51
270.0
  0
ARC
  5
EB2C
  8
0
 10
4319.9252813356306433
 20
203.8441652474504906
 30
0.0
 40
0.0149999999999961
 50
90.0
 51
180.0000000000129887
  0
ARC
  5
EB2D
  8
0
 10
4319.9252813356306433
 20
203.974165247450486
 30
0.0
 40
0.0150000000000077
 50
90.0
 51
179.9999999999836859
  0
LINE
  5
EB2E
  8
0
 10
4320.1411209952439094
 20
204.0711652474504945
 30
0.0
 11
4321.2139044233599634
 21
204.0711652474504945
 31
0.0
  0
LINE
  5
EB2F
  8
0
 10
4320.1411209952439094
 20
204.316165247450499
 30
0.0
 11
4321.2139418226242924
 21
204.316165247450499
 31
0.0
  0
LINE
  5
EB30
  8
0
 10
4320.247581335632276
 20
204.3981652474504926
 30
0.0
 11
4321.1075813356319486
 21
204.3981652474504926
 31
0.0
  0
LINE
  5
EB31
  8
0
 10
4320.3035813356318613
 20
204.5071652474505015
 30
0.0
 11
4321.0515813356314538
 21
204.5071652474505015
 31
0.0
  0
LINE
  5
EB32
  8
0
 10
4320.2140813356309081
 20
204.5781652474504995
 30
0.0
 11
4321.141081335630588
 21
204.5781652474504995
 31
0.0
  0
LINE
  5
EB33
  8
0
 10
4320.2140813356309081
 20
205.4141652474505122
 30
0.0
 11
4321.141081335630588
 21
205.4141652474505122
 31
0.0
  0
LINE
  5
EB34
  8
0
 10
4320.1990813356323997
 20
205.3991652474504974
 30
0.0
 11
4320.1990813356323997
 21
204.5931652474504858
 31
0.0
  0
ARC
  5
EB35
  8
0
 10
4320.2140813356309081
 20
205.3991652474504974
 30
0.0
 40
0.0150000000000006
 50
90.0
 51
180.0
  0
ARC
  5
EB36
  8
0
 10
4320.2140813356309081
 20
204.5931652474504858
 30
0.0
 40
0.0149999999999997
 50
179.9999999999967031
 51
270.0
  0
ARC
  5
EB37
  8
0
 10
4320.2835813356323342
 20
204.5681652474505086
 30
0.0
 40
0.0099999999999972
 50
359.9999999999951115
 51
90.0
  0
LINE
  5
EB38
  8
0
 10
4320.293581335631643
 20
204.5681652474505086
 30
0.0
 11
4320.293581335631643
 21
204.5171652474504924
 31
0.0
  0
ARC
  5
EB39
  8
0
 10
4320.3035813356318613
 20
204.5171652474504924
 30
0.0
 40
0.0099999999999998
 50
180.0
 51
270.0
  0
ARC
  5
EB3A
  8
0
 10
4320.3640813356323633
 20
204.4971652474505106
 30
0.0
 40
0.0099999999999928
 50
359.9999999999789111
 51
90.0
  0
LINE
  5
EB3B
  8
0
 10
4320.3740813356307626
 20
204.4971652474505106
 30
0.0
 11
4320.3740813356307626
 21
204.408165247450512
 31
0.0
  0
ARC
  5
EB3C
  8
0
 10
4320.3640813356323633
 20
204.408165247450512
 30
0.0
 40
0.0099999999999752
 50
270.0
 51
0.0000000000667662
  0
ARC
  5
EB3D
  8
0
 10
4320.247581335632276
 20
204.3881652474505017
 30
0.0
 40
0.0100000000000007
 50
90.0
 51
180.0
  0
LINE
  5
EB3E
  8
0
 10
4320.2375813356311482
 20
204.3881652474505017
 30
0.0
 11
4320.2375813356311482
 21
204.3261652474504899
 31
0.0
  0
ARC
  5
EB3F
  8
0
 10
4320.2275813356318395
 20
204.3261652474504899
 30
0.0
 40
0.0099999999999998
 50
270.0
 51
0.0
  0
ARC
  5
EB40
  8
0
 10
4320.1416493253773297
 20
204.296168754226187
 30
0.0
 40
0.0200679900829191
 50
110.0272005417807009
 51
179.9895024219358959
  0
ARC
  5
EB41
  8
0
 10
4320.1416877506908349
 20
204.0911821095147047
 30
0.0
 40
0.0201064221606124
 50
180.0481538751608923
 51
249.6431372921223897
  0
ARC
  5
EB42
  8
0
 10
4320.1411896215749948
 20
204.0898395877744917
 30
0.0
 40
0.0186744664209933
 50
249.6431372921229865
 51
269.7894446984561228
  0
ARC
  5
EB43
  8
0
 10
4320.2275813356318395
 20
204.0611652474505036
 30
0.0
 40
0.0099999999999953
 50
359.9999999999902229
 51
90.0
  0
LINE
  5
EB44
  8
0
 10
4320.2375813356311482
 20
204.0611652474505036
 30
0.0
 11
4320.2375813356311482
 21
203.9991652474504917
 31
0.0
  0
ARC
  5
EB45
  8
0
 10
4320.247581335632276
 20
203.9991652474504917
 30
0.0
 40
0.0099999999999998
 50
180.0
 51
270.0
  0
LINE
  5
EB46
  8
0
 10
4320.5951389826323066
 20
204.0797264653054128
 30
0.0
 11
4320.5951389826323066
 21
204.3076040295954954
 31
0.0
  0
LINE
  5
EB47
  8
0
 10
4320.555826418632023
 20
204.0793803373632045
 30
0.0
 11
4320.555826418632023
 21
204.307950157537789
 31
0.0
  0
LINE
  5
EB48
  8
0
 10
4320.4955073402315975
 20
204.0911652469033868
 30
0.0
 11
4320.4955073402315975
 21
204.2961652479976067
 31
0.0
  0
LINE
  5
EB49
  8
0
 10
4320.4582144842315756
 20
204.0911055679198114
 30
0.0
 11
4320.4582144842315756
 21
204.2962249269812105
 31
0.0
  0
LINE
  5
EB4A
  8
0
 10
4320.4020760093317222
 20
204.0911652474505047
 30
0.0
 11
4320.4020760093317222
 21
204.2961652474504888
 31
0.0
  0
LINE
  5
EB4B
  8
0
 10
4320.3680728249319145
 20
204.0906649032903033
 30
0.0
 11
4320.3680728249319145
 21
204.2966655916106902
 31
0.0
  0
LINE
  5
EB4C
  8
0
 10
4320.3180266818308155
 20
204.0885323781336069
 30
0.0
 11
4320.3180266818308155
 21
204.2987981167673013
 31
0.0
  0
LINE
  5
EB4D
  8
0
 10
4320.2884711067308672
 20
204.0911652474505047
 30
0.0
 11
4320.2884711067308672
 21
204.2961652474504888
 31
0.0
  0
LINE
  5
EB4E
  8
0
 10
4320.246221556931232
 20
204.0911652474505047
 30
0.0
 11
4320.246221556931232
 21
204.2961652474506025
 31
0.0
  0
LINE
  5
EB4F
  8
0
 10
4320.2221200706308082
 20
204.0911652474505047
 30
0.0
 11
4320.2221200706308082
 21
204.2961652836982012
 31
0.0
  0
LINE
  5
EB50
  8
0
 10
4320.1891058719311332
 20
204.0911652474505047
 30
0.0
 11
4320.1891058719311332
 21
204.2961652837012991
 31
0.0
  0
LINE
  5
EB51
  8
0
 10
4320.1712792216312664
 20
204.0911652474505047
 30
0.0
 11
4320.1712792216312664
 21
204.2961652474504888
 31
0.0
  0
LINE
  5
EB52
  8
0
 10
4320.1486246329322967
 20
204.0911652474505047
 30
0.0
 11
4320.1486246329322967
 21
204.2961652474504888
 31
0.0
  0
LINE
  5
EB53
  8
0
 10
4320.1376798839319235
 20
204.0911652474505047
 30
0.0
 11
4320.1376798839319235
 21
204.2961652474504888
 31
0.0
  0
LINE
  5
EB54
  8
0
 10
4320.1261563800308068
 20
204.0911652474505047
 30
0.0
 11
4320.1261563800308068
 21
204.2961652474504888
 31
0.0
  0
LINE
  5
EB55
  8
0
 10
4320.1215813356320723
 20
204.2961724310291061
 30
0.0
 11
4320.1215813356320723
 21
204.0911652112015133
 31
0.0
  0
ARC
  5
EB56
  8
0
 10
4320.1462627951223112
 20
204.0911821095147047
 30
0.0
 40
0.0201064221606124
 50
180.0481538751608923
 51
264.5901048721564734
  0
ARC
  5
EB57
  8
0
 10
4320.157786299021609
 20
204.0911821095147047
 30
0.0
 40
0.0201064221606124
 50
180.0481538751608923
 51
264.5901048721564734
  0
ARC
  5
EB58
  8
0
 10
4320.1687310480210726
 20
204.0911821095147047
 30
0.0
 40
0.0201064221606124
 50
180.0481538751608923
 51
264.5901048721564734
  0
ARC
  5
EB59
  8
0
 10
4320.1913856367218614
 20
204.0911821095147047
 30
0.0
 40
0.0201064221606124
 50
180.0481538751608923
 51
264.5901048721564734
  0
ARC
  5
EB5A
  8
0
 10
4320.2092122870208186
 20
204.0911821095147047
 30
0.0
 40
0.0201064221606124
 50
180.0481538751608923
 51
264.5901048721564734
  0
ARC
  5
EB5B
  8
0
 10
4320.2422264857223126
 20
204.0911821095147047
 30
0.0
 40
0.0201064221606124
 50
180.0481538751608923
 51
264.5901048721564734
  0
ARC
  5
EB5C
  8
0
 10
4320.2666384944714082
 20
204.0914277236983878
 30
0.0
 40
0.0204186246422069
 50
180.736543019111906
 51
262.9096070500502833
  0
ARC
  5
EB5D
  8
0
 10
4320.3268639970192453
 20
204.0929998720307879
 30
0.0
 40
0.0384366995459632
 50
182.7358280303396043
 51
214.6155486948136968
  0
ARC
  5
EB5E
  8
0
 10
4320.3376146116588643
 20
204.0898488132463058
 30
0.0
 40
0.0196321164508832
 50
183.8448638568762021
 51
252.1166590450920921
  0
ARC
  5
EB5F
  8
0
 10
4320.3887158511988673
 20
204.0909150753703898
 30
0.0
 40
0.0206445421240691
 50
180.6943314650496006
 51
253.069948719290494
  0
ARC
  5
EB60
  8
0
 10
4320.525608037533857
 20
204.0973910403043021
 30
0.0
 40
0.123688813109454
 50
182.8851635146814942
 51
192.2413675208943005
  0
ARC
  5
EB61
  8
0
 10
4320.4786217099435817
 20
204.0911354099349921
 30
0.0
 40
0.0204072475323024
 50
180.0837850441540127
 51
258.1202692173263245
  0
LINE
  5
EB62
  8
0
 10
4320.4955073402043126
 20
204.0911652474505047
 30
0.0
 11
4320.4965058790694457
 21
204.0711652474504945
 31
0.0
  0
ARC
  5
EB63
  8
0
 10
4320.5704698744057168
 20
204.0852727923995076
 30
0.0
 40
0.0157845438116747
 50
201.9196132881421875
 51
243.349201306180106
  0
ARC
  5
EB64
  8
0
 10
4320.5830675093939135
 20
204.0818343136982094
 30
0.0
 40
0.0122541213874428
 50
299.4655912738302845
 51
350.0952141292918895
  0
ARC
  5
EB65
  8
0
 10
4320.1411709219410113
 20
204.2976945256139061
 30
0.0
 40
0.018470789312874
 50
90.1548711565411196
 51
110.2538019962471054
  0
ARC
  5
EB66
  8
0
 10
4320.2275813356318395
 20
204.3261652474504899
 30
0.0
 40
0.0099999999999953
 50
270.0
 51
0.0000000000097707
  0
ARC
  5
EB67
  8
0
 10
4320.1462627951368631
 20
204.2961483853557922
 30
0.0
 40
0.0201064221923761
 50
95.4098951628089651
 51
179.9519493341366001
  0
ARC
  5
EB68
  8
0
 10
4320.157786299021609
 20
204.2961483853862035
 30
0.0
 40
0.0201064221606122
 50
95.4098951278433276
 51
179.9519494208643096
  0
ARC
  5
EB69
  8
0
 10
4320.1687310480210726
 20
204.2961483853862035
 30
0.0
 40
0.0201064221606124
 50
95.4098951278434839
 51
179.9519494208643096
  0
ARC
  5
EB6A
  8
0
 10
4320.1913856367218614
 20
204.2961483853862035
 30
0.0
 40
0.0201064221606116
 50
95.4098951278434839
 51
179.9519494208676065
  0
ARC
  5
EB6B
  8
0
 10
4320.2092122870499225
 20
204.296148385330099
 30
0.0
 40
0.0201064222191325
 50
95.409895192278384
 51
179.9518459650381885
  0
ARC
  5
EB6C
  8
0
 10
4320.242226485748688
 20
204.296148385330099
 30
0.0
 40
0.0201064222191308
 50
95.409895192278384
 51
179.9518459650431055
  0
ARC
  5
EB6D
  8
0
 10
4320.2666384944714082
 20
204.295902771202492
 30
0.0
 40
0.0204186246422096
 50
97.0903929499496456
 51
179.2634569808799085
  0
ARC
  5
EB6E
  8
0
 10
4320.3268639970192453
 20
204.2943306228702056
 30
0.0
 40
0.0384366995459632
 50
145.3844513051863032
 51
177.2641719696603104
  0
ARC
  5
EB6F
  8
0
 10
4320.3376146116588643
 20
204.2974816816546877
 30
0.0
 40
0.0196321164508832
 50
107.8833409549089026
 51
176.1551361431253042
  0
ARC
  5
EB70
  8
0
 10
4320.3887158511988673
 20
204.2964154195306037
 30
0.0
 40
0.0206445421240691
 50
106.9300512807094066
 51
179.3056685349503994
  0
ARC
  5
EB71
  8
0
 10
4320.525608037533857
 20
204.2899394545966913
 30
0.0
 40
0.123688813109454
 50
167.7586324791056995
 51
177.1148364853185058
  0
ARC
  5
EB72
  8
0
 10
4320.4786217099435817
 20
204.2961950849660013
 30
0.0
 40
0.0204072475323024
 50
101.8797307826736045
 51
179.9162149558443105
  0
LINE
  5
EB73
  8
0
 10
4320.4955073402043126
 20
204.2961652474504888
 30
0.0
 11
4320.4965058790694457
 21
204.316165247450499
 31
0.0
  0
ARC
  5
EB74
  8
0
 10
4320.5704698744057168
 20
204.3020577025014859
 30
0.0
 40
0.0157845438116747
 50
116.650798693819894
 51
158.0803867118576989
  0
ARC
  5
EB75
  8
0
 10
4320.5830675093939135
 20
204.3054961812028125
 30
0.0
 40
0.0122541213874428
 50
9.9047858707080323
 51
60.5344087261696728
  0
LINE
  5
EB76
  8
0
 10
4321.9390813356312719
 20
201.8881652474505017
 30
0.0
 11
4321.9390813356312719
 21
201.7251652474504908
 31
0.0
  0
ARC
  5
EB77
  8
0
 10
4321.9190813356308354
 20
201.8881652474505017
 30
0.0
 40
0.0199999999999996
 50
359.9999999999984084
 51
90.0
  0
ARC
  5
EB78
  8
0
 10
4321.9290813356319632
 20
201.7251652474504908
 30
0.0
 40
0.0100000000000007
 50
270.0
 51
359.9999999999951115
  0
LINE
  5
EB79
  8
0
 10
4321.4448813356320898
 20
202.2301652474504863
 30
0.0
 11
4321.4448813356320898
 21
203.8441652474504906
 31
0.0
  0
LINE
  5
EB7A
  8
0
 10
4321.4448813356320898
 20
203.894165247450502
 30
0.0
 11
4321.4448813356320898
 21
203.974165247450486
 31
0.0
  0
ARC
  5
EB7B
  8
0
 10
4321.4648813356307073
 20
202.2301652474504863
 30
0.0
 40
0.0199999999999676
 50
179.9999999999560032
 51
270.0
  0
ARC
  5
EB7C
  8
0
 10
4321.5822509716317654
 20
202.1901652474701052
 30
0.0
 40
0.0199999999803207
 50
4.6476682256763553
 51
90.0000000220426273
  0
ARC
  5
EB7D
  8
0
 10
4321.8501961396168554
 20
202.2101289339242101
 30
0.0
 40
0.2486883440016033
 50
184.2299482725719031
 51
211.4455092355028967
  0
ARC
  5
EB7E
  8
0
 10
4321.7562929016949056
 20
202.1507066654363882
 30
0.0
 40
0.1375867868985634
 50
210.7345640867573877
 51
259.876568874271527
  0
ARC
  5
EB7F
  8
0
 10
4321.729081335563933
 20
201.9954924676256951
 30
0.0
 40
0.0200000000669718
 50
0.0000000710571538
 51
81.2918470165819969
  0
LINE
  5
EB80
  8
0
 10
4321.7490813356316721
 20
201.9281652474504938
 30
0.0
 11
4321.7490813356316721
 21
201.9954924676256951
 31
0.0
  0
ARC
  5
EB81
  8
0
 10
4321.7690813356321087
 20
201.9281652474504938
 30
0.0
 40
0.0199999999999925
 50
179.9999999999951115
 51
270.0
  0
LINE
  5
EB82
  8
0
 10
4321.3675813356321669
 20
203.8791652474504872
 30
0.0
 11
4321.3675813356321669
 21
203.8591652474505054
 31
0.0
  0
ARC
  5
EB83
  8
0
 10
4321.4298813356308528
 20
203.894165247450502
 30
0.0
 40
0.0149999999999997
 50
270.0
 51
0.0
  0
ARC
  5
EB84
  8
0
 10
4321.4298813356308528
 20
203.8441652474504906
 30
0.0
 40
0.0149999999999961
 50
359.9999999999869829
 51
90.0
  0
ARC
  5
EB85
  8
0
 10
4321.4298813356308528
 20
203.974165247450486
 30
0.0
 40
0.0150000000000077
 50
0.0000000000162844
 51
90.0
  0
LINE
  5
EB86
  8
0
 10
4321.1560813356318249
 20
205.3991652474504974
 30
0.0
 11
4321.1560813356318249
 21
204.5931652474504858
 31
0.0
  0
ARC
  5
EB87
  8
0
 10
4321.141081335630588
 20
205.3991652474504974
 30
0.0
 40
0.0150000000000006
 50
0.0
 51
90.0
  0
ARC
  5
EB88
  8
0
 10
4321.141081335630588
 20
204.5931652474504858
 30
0.0
 40
0.0149999999999997
 50
270.0
 51
0.0000000000032569
  0
ARC
  5
EB89
  8
0
 10
4321.0715813356318904
 20
204.5681652474505086
 30
0.0
 40
0.0099999999999972
 50
90.0
 51
180.0000000000048885
  0
LINE
  5
EB8A
  8
0
 10
4321.0615813356316721
 20
204.5681652474505086
 30
0.0
 11
4321.0615813356316721
 21
204.5171652474504924
 31
0.0
  0
ARC
  5
EB8B
  8
0
 10
4321.0515813356314538
 20
204.5171652474504924
 30
0.0
 40
0.0099999999999998
 50
270.0
 51
0.0
  0
ARC
  5
EB8C
  8
0
 10
4320.9910813356309518
 20
204.4971652474505106
 30
0.0
 40
0.0099999999999928
 50
90.0
 51
180.0000000000194973
  0
LINE
  5
EB8D
  8
0
 10
4320.981081335631643
 20
204.4971652474505106
 30
0.0
 11
4320.981081335631643
 21
204.408165247450512
 31
0.0
  0
ARC
  5
EB8E
  8
0
 10
4320.9910813356309518
 20
204.408165247450512
 30
0.0
 40
0.0099999999999752
 50
179.999999999933209
 51
270.0
  0
ARC
  5
EB8F
  8
0
 10
4321.1075813356319486
 20
204.3881652474505017
 30
0.0
 40
0.0100000000000007
 50
0.0
 51
90.0
  0
LINE
  5
EB90
  8
0
 10
4321.1175813356321669
 20
204.3881652474505017
 30
0.0
 11
4321.1175813356321669
 21
204.3261652474504899
 31
0.0
  0
ARC
  5
EB91
  8
0
 10
4321.1275813356305662
 20
204.3261652474504899
 30
0.0
 40
0.0099999999999998
 50
180.0
 51
270.0
  0
ARC
  5
EB92
  8
0
 10
4321.1275813356305662
 20
204.0611652474505036
 30
0.0
 40
0.0099999999999953
 50
90.0
 51
180.0000000000098055
  0
LINE
  5
EB93
  8
0
 10
4321.1175813356321669
 20
204.0611652474505036
 30
0.0
 11
4321.1175813356321669
 21
203.9991652474504917
 31
0.0
  0
ARC
  5
EB94
  8
0
 10
4321.1075813356319486
 20
203.9991652474504917
 30
0.0
 40
0.0099999999999998
 50
270.0
 51
0.0
  0
LINE
  5
EB95
  8
0
 10
4320.6575845706311156
 20
204.0797264653054128
 30
0.0
 11
4320.6575845706311156
 21
204.3076040295954954
 31
0.0
  0
ARC
  5
EB96
  8
0
 10
4320.6696560438685992
 20
204.0818343136982094
 30
0.0
 40
0.0122541213874428
 50
189.9047858707079968
 51
240.5344087261696018
  0
ARC
  5
EB97
  8
0
 10
4321.1275813356305662
 20
204.3261652474504899
 30
0.0
 40
0.0099999999999953
 50
179.9999999999901945
 51
270.0
  0
ARC
  5
EB98
  8
0
 10
4320.6696560438685992
 20
204.3054961812028125
 30
0.0
 40
0.0122541213874428
 50
119.4655912738302987
 51
170.0952141292920032
  0
ARC
  5
EB99
  8
0
 10
4320.1425342323782388
 20
204.296168754226187
 30
0.0
 40
0.0200679900829191
 50
110.0272005417807009
 51
179.9895024219358959
  0
ARC
  5
EB9A
  8
0
 10
4320.1425726576917441
 20
204.0911821095147047
 30
0.0
 40
0.0201064221606124
 50
180.0481538751608923
 51
249.6431372921223897
  0
ARC
  5
EB9B
  8
0
 10
4320.1420745285749945
 20
204.0898395877744917
 30
0.0
 40
0.0186744664209933
 50
249.6431372921229865
 51
269.7894446984561228
  0
LINE
  5
EB9C
  8
0
 10
4320.122466242632072
 20
204.2961724310291061
 30
0.0
 11
4320.122466242632072
 21
204.0911652112015133
 31
0.0
  0
ARC
  5
EB9D
  8
0
 10
4320.1420558289419205
 20
204.2976945256139061
 30
0.0
 40
0.018470789312874
 50
90.1548711565411196
 51
110.2538019962471054
  0
ARC
  5
EB9E
  8
0
 10
4321.213513345885076
 20
204.296168754226187
 30
0.0
 40
0.0200679900829191
 50
0.0104975780640987
 51
69.9727994582192849
  0
ARC
  5
EB9F
  8
0
 10
4321.2134749205715707
 20
204.0911821095147047
 30
0.0
 40
0.0201064221606124
 50
290.3568627078776103
 51
359.9518461248374024
  0
ARC
  5
EBA0
  8
0
 10
4321.2139730496892298
 20
204.0898395877744917
 30
0.0
 40
0.0186744664209933
 50
269.7894450482742741
 51
290.356862707876985
  0
LINE
  5
EBA1
  8
0
 10
4320.760023688631918
 20
204.0797264653054128
 30
0.0
 11
4320.760023688631918
 21
204.3076040295954954
 31
0.0
  0
LINE
  5
EBA2
  8
0
 10
4320.7993362526322016
 20
204.0793803373632045
 30
0.0
 11
4320.7993362526322016
 21
204.307950157537789
 31
0.0
  0
LINE
  5
EBA3
  8
0
 10
4320.8596553310308082
 20
204.0911652469033868
 30
0.0
 11
4320.8596553310308082
 21
204.2961652479976067
 31
0.0
  0
LINE
  5
EBA4
  8
0
 10
4320.8969481870317395
 20
204.0911055679198114
 30
0.0
 11
4320.8969481870317395
 21
204.2962249269812105
 31
0.0
  0
LINE
  5
EBA5
  8
0
 10
4320.953086661931593
 20
204.0911652474505047
 30
0.0
 11
4320.953086661931593
 21
204.2961652474504888
 31
0.0
  0
LINE
  5
EBA6
  8
0
 10
4320.9870898463323101
 20
204.0906649032903033
 30
0.0
 11
4320.9870898463323101
 21
204.2966655916106902
 31
0.0
  0
LINE
  5
EBA7
  8
0
 10
4321.0371359894306806
 20
204.0885323781336069
 30
0.0
 11
4321.0371359894306806
 21
204.2987981167673013
 31
0.0
  0
LINE
  5
EBA8
  8
0
 10
4321.066691564530629
 20
204.0911652474505047
 30
0.0
 11
4321.066691564530629
 21
204.2961652474504888
 31
0.0
  0
LINE
  5
EBA9
  8
0
 10
4321.1089411143311736
 20
204.0911652474505047
 30
0.0
 11
4321.1089411143311736
 21
204.2961652474506025
 31
0.0
  0
LINE
  5
EBAA
  8
0
 10
4321.1330426006315975
 20
204.0911652474505047
 30
0.0
 11
4321.1330426006315975
 21
204.2961652836982012
 31
0.0
  0
LINE
  5
EBAB
  8
0
 10
4321.166056799332182
 20
204.0911652474505047
 30
0.0
 11
4321.166056799332182
 21
204.2961652837012991
 31
0.0
  0
LINE
  5
EBAC
  8
0
 10
4321.1838834496320487
 20
204.0911652474505047
 30
0.0
 11
4321.1838834496320487
 21
204.2961652474504888
 31
0.0
  0
LINE
  5
EBAD
  8
0
 10
4321.206538038331928
 20
204.0911652474505047
 30
0.0
 11
4321.206538038331928
 21
204.2961652474504888
 31
0.0
  0
LINE
  5
EBAE
  8
0
 10
4321.2174827873323011
 20
204.0911652474505047
 30
0.0
 11
4321.2174827873323011
 21
204.2961652474504888
 31
0.0
  0
LINE
  5
EBAF
  8
0
 10
4321.2290062912315989
 20
204.0911652474505047
 30
0.0
 11
4321.2290062912315989
 21
204.2961652474504888
 31
0.0
  0
LINE
  5
EBB0
  8
0
 10
4321.2335813356321523
 20
204.2961724310291061
 30
0.0
 11
4321.2335813356321523
 21
204.0911652112015133
 31
0.0
  0
ARC
  5
EBB1
  8
0
 10
4321.2088998761419134
 20
204.0911821095147047
 30
0.0
 40
0.0201064221606124
 50
275.4098951278435266
 51
359.951846124838994
  0
ARC
  5
EBB2
  8
0
 10
4321.1973763722417061
 20
204.0911821095147047
 30
0.0
 40
0.0201064221606124
 50
275.4098951278435266
 51
359.951846124838994
  0
ARC
  5
EBB3
  8
0
 10
4321.1864316232422425
 20
204.0911821095147047
 30
0.0
 40
0.0201064221606124
 50
275.4098951278435266
 51
359.951846124838994
  0
ARC
  5
EBB4
  8
0
 10
4321.1637770345414538
 20
204.0911821095147047
 30
0.0
 40
0.0201064221606124
 50
275.4098951278435266
 51
359.951846124838994
  0
ARC
  5
EBB5
  8
0
 10
4321.1459503842406775
 20
204.0911821095147047
 30
0.0
 40
0.0201064221606124
 50
275.4098951278435266
 51
359.951846124838994
  0
ARC
  5
EBB6
  8
0
 10
4321.1129361855410025
 20
204.0911821095147047
 30
0.0
 40
0.0201064221606124
 50
275.4098951278435266
 51
359.951846124838994
  0
ARC
  5
EBB7
  8
0
 10
4321.0885241767919069
 20
204.0914277236983878
 30
0.0
 40
0.0204186246422069
 50
277.0903929499497167
 51
359.2634569808881224
  0
ARC
  5
EBB8
  8
0
 10
4321.0282986742440698
 20
204.0929998720307879
 30
0.0
 40
0.0384366995459632
 50
325.3844513051863032
 51
357.2641719696603104
  0
ARC
  5
EBB9
  8
0
 10
4321.0175480596044508
 20
204.0898488132463058
 30
0.0
 40
0.0196321164508832
 50
287.8833409549080216
 51
356.1551361431236842
  0
ARC
  5
EBBA
  8
0
 10
4320.9664468200653573
 20
204.0909150753703898
 30
0.0
 40
0.0206445421240691
 50
286.930051280709506
 51
359.3056685349504278
  0
ARC
  5
EBBB
  8
0
 10
4320.8295546337285487
 20
204.0973910403043021
 30
0.0
 40
0.123688813109454
 50
347.7586324791056995
 51
357.1148364853185058
  0
ARC
  5
EBBC
  8
0
 10
4320.8765409613179145
 20
204.0911354099349921
 30
0.0
 40
0.0204072475323024
 50
281.8797307826736755
 51
359.9162149558459873
  0
LINE
  5
EBBD
  8
0
 10
4320.8596553310590025
 20
204.0911652474505047
 30
0.0
 11
4320.858656792194779
 21
204.0711652474504945
 31
0.0
  0
ARC
  5
EBBE
  8
0
 10
4320.7846927968575983
 20
204.0852727923995076
 30
0.0
 40
0.0157845438116747
 50
296.6507986938199224
 51
338.0803867118577273
  0
ARC
  5
EBBF
  8
0
 10
4320.7720951618703111
 20
204.0818343136982094
 30
0.0
 40
0.0122541213874428
 50
189.9047858707079968
 51
240.5344087261696018
  0
ARC
  5
EBC0
  8
0
 10
4321.2139917493223038
 20
204.2976945256139061
 30
0.0
 40
0.018470789312874
 50
69.7461980037528519
 51
90.154870599480958
  0
ARC
  5
EBC1
  8
0
 10
4321.208899876126452
 20
204.2961483853557922
 30
0.0
 40
0.0201064221923761
 50
0.0480506658633768
 51
84.5901048371910349
  0
ARC
  5
EBC2
  8
0
 10
4321.1973763722417061
 20
204.2961483853862035
 30
0.0
 40
0.0201064221606122
 50
0.0480505791356495
 51
84.5901048721566582
  0
ARC
  5
EBC3
  8
0
 10
4321.1864316232422425
 20
204.2961483853862035
 30
0.0
 40
0.0201064221606124
 50
0.0480505791356495
 51
84.5901048721565161
  0
ARC
  5
EBC4
  8
0
 10
4321.1637770345414538
 20
204.2961483853862035
 30
0.0
 40
0.0201064221606116
 50
0.0480505791323926
 51
84.5901048721565161
  0
ARC
  5
EBC5
  8
0
 10
4321.1459503842133927
 20
204.296148385330099
 30
0.0
 40
0.0201064222191325
 50
0.0481540349618133
 51
84.5901048077216018
  0
ARC
  5
EBC6
  8
0
 10
4321.1129361855128082
 20
204.296148385330099
 30
0.0
 40
0.0201064222191308
 50
0.0481540349569279
 51
84.5901048077216018
  0
ARC
  5
EBC7
  8
0
 10
4321.0885241767919069
 20
204.295902771202492
 30
0.0
 40
0.0204186246422096
 50
0.7365430191200704
 51
82.9096070500503686
  0
ARC
  5
EBC8
  8
0
 10
4321.0282986742440698
 20
204.2943306228702056
 30
0.0
 40
0.0384366995459632
 50
2.7358280303396758
 51
34.6155486948136613
  0
ARC
  5
EBC9
  8
0
 10
4321.0175480596044508
 20
204.2974816816546877
 30
0.0
 40
0.0196321164508832
 50
3.844863856874646
 51
72.1166590450910832
  0
ARC
  5
EBCA
  8
0
 10
4320.9664468200653573
 20
204.2964154195306037
 30
0.0
 40
0.0206445421240691
 50
0.6943314650495664
 51
73.069948719290565
  0
ARC
  5
EBCB
  8
0
 10
4320.8295546337285487
 20
204.2899394545966913
 30
0.0
 40
0.123688813109454
 50
2.8851635146814729
 51
12.2413675208943005
  0
ARC
  5
EBCC
  8
0
 10
4320.8765409613179145
 20
204.2961950849660013
 30
0.0
 40
0.0204072475323024
 50
0.0837850441540086
 51
78.1202692173263245
  0
LINE
  5
EBCD
  8
0
 10
4320.8596553310590025
 20
204.2961652474504888
 30
0.0
 11
4320.858656792194779
 21
204.316165247450499
 31
0.0
  0
ARC
  5
EBCE
  8
0
 10
4320.7846927968575983
 20
204.3020577025014859
 30
0.0
 40
0.0157845438116747
 50
21.9196132881422692
 51
63.3492013061800989
  0
ARC
  5
EBCF
  8
0
 10
4320.7720951618703111
 20
204.3054961812028125
 30
0.0
 40
0.0122541213874428
 50
119.4655912738302987
 51
170.0952141292920032
  0
LINE
  5
EBD0
  8
0
 10
4320.6975781006321995
 20
204.0797264653054128
 30
0.0
 11
4320.6975781006321995
 21
204.3076040295954954
 31
0.0
  0
ARC
  5
EBD1
  8
0
 10
4320.6855066273938064
 20
204.0818343136982094
 30
0.0
 40
0.0122541213874428
 50
299.4655912738302845
 51
350.0952141292918895
  0
ARC
  5
EBD2
  8
0
 10
4320.6855066273938064
 20
204.3054961812028125
 30
0.0
 40
0.0122541213874428
 50
9.9047858707080323
 51
60.5344087261696728
  0
ARC
  5
EBD3
  8
0
 10
4321.2126284388850763
 20
204.296168754226187
 30
0.0
 40
0.0200679900829191
 50
0.0104975780640987
 51
69.9727994582192849
  0
ARC
  5
EBD4
  8
0
 10
4321.212590013571571
 20
204.0911821095147047
 30
0.0
 40
0.0201064221606124
 50
290.3568627078776103
 51
359.951846124838994
  0
ARC
  5
EBD5
  8
0
 10
4321.2130881426892302
 20
204.0898395877744917
 30
0.0
 40
0.0186744664209933
 50
270.2105553015438772
 51
290.356862707876985
  0
LINE
  5
EBD6
  8
0
 10
4321.2326964286321527
 20
204.2961724310291061
 30
0.0
 11
4321.2326964286321527
 21
204.0911652112015133
 31
0.0
  0
ARC
  5
EBD7
  8
0
 10
4321.2131068423223041
 20
204.2976945256139061
 30
0.0
 40
0.018470789312874
 50
69.7461980037528519
 51
89.8451288434588946
  0
ENDSEC
  0
EOF
