  0
SECTION
  2
HEADER
  9
$ACADVER
  1
AC1009
  9
$INSBASE
 10
4321.2932553535711122
 20
204.0644390907133072
 30
0.0
  9
$EXTMIN
 10
4320.0317553535705883
 20
202.8029390907132949
 30
0.0
  9
$EXTMAX
 10
4324.2094553535698651
 20
205.3259390907132911
 30
0.0
  9
$LIMMIN
 10
0.0
 20
0.0
  9
$LIMMAX
 10
11.6929133858000007
 20
8.2677165353999982
  9
$ORTHOMODE
 70
     0
  9
$REGENMODE
 70
     1
  9
$FILLMODE
 70
     1
  9
$QTEXTMODE
 70
     0
  9
$MIRRTEXT
 70
     0
  9
$DRAGMODE
 70
     2
  9
$LTSCALE
 40
0.6431102362
  9
$OSMODE
 70
     7
  9
$ATTMODE
 70
     1
  9
$TEXTSIZE
 40
0.2
  9
$TRACEWID
 40
0.05
  9
$TEXTSTYLE
  7
STANDARD
  9
$CLAYER
  8
0
  9
$CELTYPE
  6
BYLAYER
  9
$CECOLOR
 62
   256
  9
$DIMSCALE
 40
1.0
  9
$DIMASZ
 40
0.1875
  9
$DIMEXO
 40
0.0625
  9
$DIMDLI
 40
0.4443307087
  9
$DIMRND
 40
0.0
  9
$DIMDLE
 40
0.0
  9
$DIMEXE
 40
0.125
  9
$DIMTP
 40
0.01
  9
$DIMTM
 40
0.01
  9
$DIMTXT
 40
2.0
  9
$DIMCEN
 40
0.1052362205
  9
$DIMTSZ
 40
0.0
  9
$DIMTOL
 70
     1
  9
$DIMLIM
 70
     0
  9
$DIMTIH
 70
     1
  9
$DIMTOH
 70
     1
  9
$DIMSE1
 70
     0
  9
$DIMSE2
 70
     0
  9
$DIMTAD
 70
     0
  9
$DIMZIN
 70
     0
  9
$DIMBLK
  1

  9
$DIMASO
 70
     1
  9
$DIMSHO
 70
     1
  9
$DIMPOST
  1
\X
  9
$DIMAPOST
  1

  9
$DIMALT
 70
     1
  9
$DIMALTD
 70
     2
  9
$DIMALTF
 40
25.3999999999999986
  9
$DIMLFAC
 40
1.0
  9
$DIMTOFL
 70
     0
  9
$DIMTVP
 40
0.0
  9
$DIMTIX
 70
     0
  9
$DIMSOXD
 70
     0
  9
$DIMSAH
 70
     0
  9
$DIMBLK1
  1

  9
$DIMBLK2
  1

  9
$DIMSTYLE
  2
STANDARD
  9
$DIMCLRD
 70
     0
  9
$DIMCLRE
 70
     0
  9
$DIMCLRT
 70
     0
  9
$DIMTFAC
 40
1.0
  9
$DIMGAP
 40
0.09
  9
$LUNITS
 70
     2
  9
$LUPREC
 70
     4
  9
$SKETCHINC
 40
0.1
  9
$FILLETRAD
 40
0.0
  9
$AUNITS
 70
     0
  9
$AUPREC
 70
     0
  9
$MENU
  1
.
  9
$ELEVATION
 40
0.0
  9
$PELEVATION
 40
0.0
  9
$THICKNESS
 40
0.0
  9
$LIMCHECK
 70
     0
  9
$BLIPMODE
 70
     0
  9
$CHAMFERA
 40
0.0
  9
$CHAMFERB
 40
0.0
  9
$SKPOLY
 70
     0
  9
$TDCREATE
 40
2458060.468368056230247
  9
$TDUPDATE
 40
2459579.5991666670888662
  9
$TDINDWG
 40
0.4406204861
  9
$TDUSRTIMER
 40
0.4406204861
  9
$USRTIMER
 70
     1
  9
$ANGBASE
 50
0.0
  9
$ANGDIR
 70
     0
  9
$PDMODE
 70
     0
  9
$PDSIZE
 40
0.3125
  9
$PLINEWID
 40
0.0
  9
$COORDS
 70
     1
  9
$SPLFRAME
 70
     0
  9
$SPLINETYPE
 70
     6
  9
$SPLINESEGS
 70
     8
  9
$ATTDIA
 70
     1
  9
$ATTREQ
 70
     1
  9
$HANDLING
 70
     1
  9
$HANDSEED
  5
E9A9
  9
$SURFTAB1
 70
     6
  9
$SURFTAB2
 70
     6
  9
$SURFTYPE
 70
     6
  9
$SURFU
 70
     6
  9
$SURFV
 70
     6
  9
$UCSNAME
  2

  9
$UCSORG
 10
0.0
 20
0.0
 30
0.0
  9
$UCSXDIR
 10
1.0
 20
0.0
 30
0.0
  9
$UCSYDIR
 10
0.0
 20
1.0
 30
0.0
  9
$PUCSNAME
  2

  9
$PUCSORG
 10
0.0
 20
0.0
 30
0.0
  9
$PUCSXDIR
 10
1.0
 20
0.0
 30
0.0
  9
$PUCSYDIR
 10
0.0
 20
1.0
 30
0.0
  9
$USERI1
 70
     0
  9
$USERI2
 70
     0
  9
$USERI3
 70
     0
  9
$USERI4
 70
     0
  9
$USERI5
 70
     0
  9
$USERR1
 40
0.0
  9
$USERR2
 40
0.0
  9
$USERR3
 40
0.0
  9
$USERR4
 40
0.0
  9
$USERR5
 40
0.0
  9
$WORLDVIEW
 70
     1
  9
$SHADEDGE
 70
     3
  9
$SHADEDIF
 70
    70
  9
$TILEMODE
 70
     1
  9
$MAXACTVP
 70
    64
  9
$PLIMCHECK
 70
     0
  9
$PEXTMIN
 10
1.0000000000000000E+20
 20
1.0000000000000000E+20
 30
1.0000000000000000E+20
  9
$PEXTMAX
 10
-1.0000000000000000E+20
 20
-1.0000000000000000E+20
 30
-1.0000000000000000E+20
  9
$PLIMMIN
 10
0.0
 20
0.0
  9
$PLIMMAX
 10
12.0
 20
9.0
  9
$UNITMODE
 70
     0
  9
$VISRETAIN
 70
     1
  9
$PLINEGEN
 70
     0
  9
$PSLTSCALE
 70
     1
  0
ENDSEC
  0
SECTION
  2
TABLES
  0
TABLE
  2
VPORT
 70
     1
  0
VPORT
  2
*ACTIVE
 70
     0
 10
0.0
 20
0.0
 11
1.0
 21
1.0
 12
518.5765379707586362
 22
78.0691768939634159
 13
0.0
 23
0.0
 14
1.0
 24
1.0
 15
0.0
 25
0.0
 16
0.0
 26
0.0
 36
17.1152628219792007
 17
3803.5440673828129547
 27
125.9952621967499056
 37
0.0
 40
2.541064439140825
 41
2.2831541218637992
 42
50.0
 43
0.0
 44
0.0
 50
0.0
 51
0.0
 71
     0
 72
   100
 73
     1
 74
     1
 75
     0
 76
     0
 77
     0
 78
     0
  0
ENDTAB
  0
TABLE
  2
LTYPE
 70
     2
  0
LTYPE
  2
CONTINUOUS
 70
     0
  3
Solid line
 72
    65
 73
     0
 40
0.0
  0
LTYPE
  2
PHANTOM2
 70
     0
  3
___ _ _ ___ _ _ ___ _ _ ___ _ _
 72
    65
 73
     6
 40
1.25
 49
0.625
 49
-0.125
 49
0.125
 49
-0.125
 49
0.125
 49
-0.125
  0
ENDTAB
  0
TABLE
  2
LAYER
 70
     2
  0
LAYER
  2
0
 70
     0
 62
   255
  6
CONTINUOUS
  0
LAYER
  2
DEFPOINTS
 70
     0
 62
     7
  6
CONTINUOUS
  0
ENDTAB
  0
TABLE
  2
STYLE
 70
     1
  0
STYLE
  2
STANDARD
 70
     0
 40
0.0
 41
0.8
 50
0.0
 71
     0
 42
0.2
  3
txt
  4

  0
ENDTAB
  0
TABLE
  2
VIEW
 70
     0
  0
ENDTAB
  0
TABLE
  2
UCS
 70
     0
  0
ENDTAB
  0
TABLE
  2
APPID
 70
     9
  0
APPID
  2
ACAD
 70
     0
  0
APPID
  2
ACAD_MLEADERVER
 70
     0
  0
APPID
  2
ACAD_EXEMPT_FROM_CAD_STANDARDS
 70
     0
  0
APPID
  2
ACAD_NAV_VCDISPLAY
 70
     0
  0
APPID
  2
ACAECLAYERSTANDARD
 70
     0
  0
APPID
  2
ACCMTRANSPARENCY
 70
     0
  0
APPID
  2
ACAD_DSTYLE_DIMJAG
 70
     0
  0
APPID
  2
ACAD_DSTYLE_DIMTALN
 70
     0
  0
APPID
  2
ACDBATTR
 70
     0
  0
ENDTAB
  0
TABLE
  2
DIMSTYLE
 70
     1
  0
DIMSTYLE
  2
STANDARD
 70
     0
  3

  4

  5

  6

  7

 40
1.0
 41
0.1875
 42
0.0625
 43
0.38
 44
0.125
 45
0.0
 46
0.0
 47
0.01
 48
0.01
140
0.15625
141
0.09
142
0.0
143
25.3999999999999986
144
1.0
145
0.0
146
1.0
147
0.09
 71
     1
 72
     0
 73
     1
 74
     1
 75
     0
 76
     0
 77
     0
 78
     4
170
     0
171
     2
172
     0
173
     0
174
     0
175
     0
176
     0
177
     0
178
     0
  0
ENDTAB
  0
ENDSEC
  0
SECTION
  2
BLOCKS
  0
BLOCK
  8
0
  2
$MODEL_SPACE
 70
     0
 10
0.0
 20
0.0
 30
0.0
  3
$MODEL_SPACE
  1

  0
ENDBLK
  5
21
  8
0
  0
BLOCK
 67
     1
  8
0
  2
$PAPER_SPACE
 70
     0
 10
0.0
 20
0.0
 30
0.0
  3
$PAPER_SPACE
  1

  0
ENDBLK
  5
1D
 67
     1
  8
0
  0
ENDSEC
  0
SECTION
  2
ENTITIES
  0
ATTDEF
  5
3930
  8
DEFPOINTS
 10
4321.2932881416663804
 20
204.0678006451344118
 30
0.0
 40
0.001
  1
P21248-LV
  3

  2
MODELNUMBER
 70
     0
1001
ACDBATTR
1070
     0
1070
     1
  0
ATTDEF
  5
3931
  8
DEFPOINTS
 10
4321.2932881416663804
 20
204.0661339784676898
 30
0.0
 40
0.001
  1
CENTRAL PARK WEST
  3

  2
TRADENAME
 70
     0
1001
ACDBATTR
1070
     0
1070
     1
  0
ATTDEF
  5
3932
  8
DEFPOINTS
 10
4321.2932881416663804
 20
204.0644673118011099
 30
0.0
 40
0.001
  1
BATH FAUCET HANDLES
  3

  2
PRODUCT
 70
     0
1001
ACDBATTR
1070
     0
1070
     1
  0
ARC
  5
E873
  8
0
 10
4321.2932553535711122
 20
204.0644390907133072
 30
0.0
 40
1.0714999999999999
 50
165.547102675372912
 51
194.4528973246270027
  0
ARC
  5
E874
  8
0
 10
4321.2932553535711122
 20
204.0644390907133072
 30
0.0
 40
1.0714999999999999
 50
198.1336584135407008
 51
341.8656687253144923
  0
ARC
  5
E875
  8
0
 10
4321.2932553535711122
 20
204.0644390907133072
 30
0.0
 40
1.0714999999999999
 50
18.1343312746854792
 51
161.8663415116600106
  0
ARC
  5
E876
  8
0
 10
4321.2932553535711122
 20
204.0644390907133072
 30
0.0
 40
0.9246038721923124
 50
21.1428849021661094
 51
158.8571150978339119
  0
ARC
  5
E877
  8
0
 10
4321.2932553535711122
 20
204.0644390907133072
 30
0.0
 40
0.7673000000000006
 50
25.7624490946735385
 51
154.2375509053264864
  0
ARC
  5
E878
  8
0
 10
4321.2932553535711122
 20
204.0644390907133072
 30
0.0
 40
1.2615000000000001
 50
15.3293917198265497
 51
344.6706082801734965
  0
ARC
  5
E879
  8
0
 10
4321.2932553535711122
 20
204.0644390907133072
 30
0.0
 40
0.556000000000001
 50
224.4140515724650129
 51
230.8800660794603061
  0
ARC
  5
E87A
  8
0
 10
4320.882366395570898
 20
203.6898643128133131
 30
0.0
 40
0.0199999999999996
 50
313.3834964911338261
 51
131.3223858632541123
  0
ARC
  5
E87B
  8
0
 10
4321.2932553535711122
 20
204.0644390907133072
 30
0.0
 40
0.556000000000001
 50
235.0022868665620877
 51
241.4683013735678969
  0
ARC
  5
E87C
  8
0
 10
4320.9581904957249208
 20
203.6207415123089106
 30
0.0
 40
0.0199999999999996
 50
323.9717317852635006
 51
141.9106211573474923
  0
ARC
  5
E87D
  8
0
 10
4321.2932553535711122
 20
204.0644390907133072
 30
0.0
 40
0.5560000000000013
 50
245.590522160701596
 51
252.0565366677008967
  0
ARC
  5
E87E
  8
0
 10
4321.0454248277474107
 20
203.5667283006804951
 30
0.0
 40
0.0199999999999996
 50
334.5599670793882865
 51
152.4988564514802931
  0
ARC
  5
E87F
  8
0
 10
4321.2932553535711122
 20
204.0644390907133072
 30
0.0
 40
0.5560000000000012
 50
256.1787574547914801
 51
262.6447719618028032
  0
ARC
  5
E880
  8
0
 10
4321.1410987310855489
 20
203.5296640330682862
 30
0.0
 40
0.0199999999999996
 50
345.1482023735017037
 51
163.0870917455899018
  0
ARC
  5
E881
  8
0
 10
4321.2932553535711122
 20
204.0644390907133072
 30
0.0
 40
0.5560000000000014
 50
266.7669927489336033
 51
273.2330072559204268
  0
ARC
  5
E882
  8
0
 10
4321.2419541457120431
 20
203.5108108886522018
 30
0.0
 40
0.0199999999999996
 50
355.7364376676121083
 51
173.6753270397074971
  0
ARC
  5
E883
  8
0
 10
4321.2932553535711122
 20
204.0644390907133072
 30
0.0
 40
0.5560000000000018
 50
277.3552280430316728
 51
283.821242550040779
  0
ARC
  5
E884
  8
0
 10
4321.3445565614429142
 20
203.5108108886535092
 30
0.0
 40
0.0199999999999996
 50
6.3246729617291351
 51
184.263562333826286
  0
ARC
  5
E885
  8
0
 10
4321.2932553535711122
 20
204.0644390907133072
 30
0.0
 40
0.5560000000000018
 50
287.9434633371739096
 51
294.4094778441635754
  0
ARC
  5
E886
  8
0
 10
4321.4454119760694084
 20
203.5296640330720948
 30
0.0
 40
0.0199999999999996
 50
16.9129082558463288
 51
194.8517976279345021
  0
ARC
  5
E887
  8
0
 10
4321.2932553535711122
 20
204.0644390907133072
 30
0.0
 40
0.556000000000002
 50
298.5316986312969902
 51
304.9977131382839275
  0
ARC
  5
E888
  8
0
 10
4321.5410858794057276
 20
203.566728300686691
 30
0.0
 40
0.0199999999999996
 50
27.5011435499634693
 51
205.4400329220538026
  0
ARC
  5
E889
  8
0
 10
4321.2932553535711122
 20
204.0644390907133072
 30
0.0
 40
0.5560000000000026
 50
309.1199339253881817
 51
315.5859484324265054
  0
ARC
  5
E88A
  8
0
 10
4321.6283202114273081
 20
203.620741512317295
 30
0.0
 40
0.0199999999999996
 50
38.0893788440897012
 51
216.0282682161671914
  0
ARC
  5
E88B
  8
0
 10
4321.2932553535711122
 20
204.0644390907133072
 30
0.0
 40
0.5560000000000028
 50
319.7081692195110918
 51
323.1429825138416163
  0
ARC
  5
E88C
  8
0
 10
4321.7041443115804213
 20
203.689864312823687
 30
0.0
 40
0.0199999999999997
 50
48.6776141381946488
 51
226.6165035103026071
  0
ARC
  5
E88D
  8
0
 10
4321.2932553535711122
 20
204.0644390907133925
 30
0.0
 40
0.556000000000004
 50
36.8570174861571118
 51
40.2918307853440822
  0
ARC
  5
E88E
  8
0
 10
4321.2932553535711122
 20
204.0644390907133925
 30
0.0
 40
0.5560000000000042
 50
44.4140515724650626
 51
50.8800660794603488
  0
ARC
  5
E88F
  8
0
 10
4321.7041443115704169
 20
204.4390138686133866
 30
0.0
 40
0.0199999999999997
 50
133.3834964911337977
 51
311.3223858632541123
  0
ARC
  5
E890
  8
0
 10
4321.2932553535711122
 20
204.0644390907133072
 30
0.0
 40
0.556000000000004
 50
55.0022868665621019
 51
61.4683013735678472
  0
ARC
  5
E891
  8
0
 10
4321.6283202114163942
 20
204.5081366691177891
 30
0.0
 40
0.0199999999999997
 50
143.9717317852635006
 51
321.9106211573475775
  0
ARC
  5
E892
  8
0
 10
4321.2932553535711122
 20
204.0644390907133072
 30
0.0
 40
0.5560000000000044
 50
65.5905221607016102
 51
72.0565366677008825
  0
ARC
  5
E893
  8
0
 10
4321.5410858793948137
 20
204.5621498807462899
 30
0.0
 40
0.0199999999999997
 50
154.5599670793882865
 51
332.4988564514803215
  0
ARC
  5
E894
  8
0
 10
4321.2932553535711122
 20
204.0644390907133072
 30
0.0
 40
0.556000000000005
 50
76.1787574547914801
 51
82.6447719618025758
  0
ARC
  5
E895
  8
0
 10
4321.445411976053947
 20
204.5992141483584135
 30
0.0
 40
0.0199999999999997
 50
165.1482023735017037
 51
343.0870917455898734
  0
ARC
  5
E896
  8
0
 10
4321.2932553535711122
 20
204.0644390907133072
 30
0.0
 40
0.5560000000000055
 50
86.7669927489336885
 51
93.2330072559203842
  0
ARC
  5
E897
  8
0
 10
4321.3445565614292718
 20
204.6180672927744979
 30
0.0
 40
0.0199999999999998
 50
175.7364376676121083
 51
353.6753270397074971
  0
ARC
  5
E898
  8
0
 10
4321.2932553535711122
 20
204.0644390907133072
 30
0.0
 40
0.5560000000000058
 50
97.3552280430318007
 51
103.8212425500403953
  0
ARC
  5
E899
  8
0
 10
4321.2419541456993102
 20
204.6180672927731905
 30
0.0
 40
0.0199999999999998
 50
186.3246729617291066
 51
4.263562333826302
  0
ARC
  5
E89A
  8
0
 10
4321.2932553535711122
 20
204.0644390907133072
 30
0.0
 40
0.5560000000000056
 50
107.943463337173398
 51
114.4094778441628932
  0
ARC
  5
E89B
  8
0
 10
4321.1410987310719065
 20
204.599214148354605
 30
0.0
 40
0.0199999999999998
 50
196.912908255846304
 51
14.8517976279360493
  0
ARC
  5
E89C
  8
0
 10
4321.2932553535711122
 20
204.0644390907133072
 30
0.0
 40
0.5560000000000062
 50
118.531698631296905
 51
124.9977131382830038
  0
ARC
  5
E89D
  8
0
 10
4321.0454248277346778
 20
204.5621498807400087
 30
0.0
 40
0.0199999999999998
 50
207.5011435499635013
 51
25.4400329220538595
  0
ARC
  5
E89E
  8
0
 10
4321.2932553535711122
 20
204.0644390907133072
 30
0.0
 40
0.5560000000000064
 50
129.1199339253882954
 51
135.5859484324265054
  0
ARC
  5
E89F
  8
0
 10
4320.9581904957140068
 20
204.5081366691094047
 30
0.0
 40
0.0199999999999998
 50
218.0893788440897083
 51
36.028268216167227
  0
ARC
  5
E8A0
  8
0
 10
4321.2932553535711122
 20
204.0644390907133072
 30
0.0
 40
0.5560000000000064
 50
139.7081692195098128
 51
143.1429825138415879
  0
ARC
  5
E8A1
  8
0
 10
4320.8823663955618031
 20
204.439013868603098
 30
0.0
 40
0.0199999999999998
 50
228.677614138194599
 51
46.6165035103025787
  0
ARC
  5
E8A2
  8
0
 10
4321.2932553535711122
 20
204.0644390907133072
 30
0.0
 40
0.5560000000000084
 50
216.8570174861571047
 51
220.2918307853427962
  0
CIRCLE
  5
E8A3
  8
0
 10
4321.2932553535711122
 20
204.0644390907133072
 30
0.0
 40
0.4785000000000004
  0
LINE
  5
E8A4
  8
0
 10
4320.2756649535704128
 20
204.3979390907132938
 30
0.0
 11
4320.950122726149857
 21
204.3979390907132938
 31
0.0
  0
LINE
  5
E8A5
  8
0
 10
4321.6363879809896389
 20
204.3979390907132938
 30
0.0
 11
4324.189455353570338
 21
204.3979390907132938
 31
0.0
  0
LINE
  5
E8A6
  8
0
 10
4320.2756649932143773
 20
203.7309390907132922
 30
0.0
 11
4320.950122726149857
 21
203.7309390907132922
 31
0.0
  0
LINE
  5
E8A7
  8
0
 10
4321.6363879809896389
 20
203.7309390907132922
 30
0.0
 11
4324.189455353570338
 21
203.7309390907132922
 31
0.0
  0
LINE
  5
E8A8
  8
0
 10
4320.2556649535699762
 20
204.3779390907133973
 30
0.0
 11
4320.2556649535699762
 21
203.7508918302312111
 31
0.0
  0
ARC
  5
E8A9
  8
0
 10
4320.2756649535704128
 20
204.3779390907133973
 30
0.0
 40
0.0199999999999978
 50
90.0
 51
180.0000000000048885
  0
ARC
  5
E8AA
  8
0
 10
4320.2756649932143773
 20
203.7509391864221868
 30
0.0
 40
0.0200000957089006
 50
180.1356649721064116
 51
270.000000000208388
  0
LINE
  5
E8AB
  8
0
 10
4324.2094553535698651
 20
204.3779390907133973
 30
0.0
 11
4324.2094553535698651
 21
203.7509390907133877
 31
0.0
  0
ARC
  5
E8AC
  8
0
 10
4324.189455353570338
 20
204.3779390907133973
 30
0.0
 40
0.0199999999999996
 50
0.0
 51
90.0
  0
ARC
  5
E8AD
  8
0
 10
4324.189455353570338
 20
203.7509390907133877
 30
0.0
 40
0.019999999999996
 50
270.0
 51
0.0
  0
LINE
  5
E8AE
  8
0
 10
4321.976094753079451
 20
204.3957532889118056
 30
0.0
 11
4324.189657587223337
 21
204.3957532889118056
 31
0.0
  0
LINE
  5
E8AF
  8
0
 10
4321.9833056456218401
 20
204.3888104850477987
 30
0.0
 11
4324.189455353570338
 21
204.3888104850477987
 31
0.0
  0
LINE
  5
E8B0
  8
0
 10
4321.9757107774366887
 20
204.3559455161135077
 30
0.0
 11
4324.189455353570338
 21
204.3559455161135077
 31
0.0
  0
LINE
  5
E8B1
  8
0
 10
4321.9817357191377596
 20
204.3344631956800015
 30
0.0
 11
4324.189455354783604
 21
204.3344631956800015
 31
0.0
  0
LINE
  5
E8B2
  8
0
 10
4321.9798862695979551
 20
204.2717585325601988
 30
0.0
 11
4324.1917818102829187
 21
204.2717585325601988
 31
0.0
  0
LINE
  5
E8B3
  8
0
 10
4321.9823610989933513
 20
204.2390071841055885
 30
0.0
 11
4324.189455353570338
 21
204.2390071841055885
 31
0.0
  0
LINE
  5
E8B4
  8
0
 10
4322.0005473489782162
 20
204.1560090433411858
 30
0.0
 11
4324.198690424806955
 21
204.1560090433411858
 31
0.0
  0
LINE
  5
E8B5
  8
0
 10
4322.0005473491501107
 20
204.1169747627758966
 30
0.0
 11
4324.18945535228886
 21
204.1169747627758966
 31
0.0
  0
ARC
  5
E8B6
  8
0
 10
4322.0127750533692961
 20
202.2469134750976139
 30
0.0
 40
2.1491528540014699
 50
90.9779334397771606
 51
93.182566228425955
  0
ARC
  5
E8B7
  8
0
 10
4322.0163805005240647
 20
206.1688814154900058
 30
0.0
 40
1.7803781798909499
 50
266.0410158951240192
 51
268.9355303070774994
  0
ARC
  5
E8B8
  8
0
 10
4322.0125830655033496
 20
203.7270607116043095
 30
0.0
 40
0.6299648108979616
 50
93.3554804472080235
 51
100.900051946734294
  0
ARC
  5
E8B9
  8
0
 10
4322.0155955360487496
 20
204.9550045696173868
 30
0.0
 40
0.6214644671816344
 50
258.6658752913601802
 51
266.8767551208146074
  0
ARC
  5
E8BA
  8
0
 10
4322.0146708119127652
 20
203.8412702932299112
 30
0.0
 40
0.4318912925561384
 50
94.6196079620544452
 51
106.2992086404596961
  0
ARC
  5
E8BB
  8
0
 10
4322.0159082262325683
 20
204.6602453802522916
 30
0.0
 40
0.4225719200786519
 50
253.1557379737967892
 51
265.4466128463337782
  0
ARC
  5
E8BC
  8
0
 10
4322.0218352247711664
 20
204.532645861094494
 30
0.0
 40
0.416215852203877
 50
252.0349630616026957
 51
267.068257186135213
  0
ARC
  5
E8BD
  8
0
 10
4322.0250182579093234
 20
203.7131846435844125
 30
0.0
 40
0.4435000275129303
 50
93.163003665497115
 51
107.255821175194896
  0
ARC
  5
E8BE
  8
0
 10
4324.1895564702481352
 20
204.3760858515292966
 30
0.0
 40
0.0196676973191245
 50
12.8269217562256497
 51
89.7054255344832683
  0
ARC
  5
E8BF
  8
0
 10
4324.1795101363177309
 20
204.3738594252214114
 30
0.0
 40
0.029957667013542
 50
1.651882652405507
 51
12.7131493885309208
  0
ARC
  5
E8C0
  8
0
 10
4324.1893298060913366
 20
204.3676732100124127
 30
0.0
 40
0.0211376478500985
 50
32.774511213033243
 51
89.6596885771654257
  0
ARC
  5
E8C1
  8
0
 10
4324.1937596619372925
 20
204.370525268942913
 30
0.0
 40
0.0158690747066809
 50
8.4773749320789786
 51
32.7745112130359928
  0
ARC
  5
E8C2
  8
0
 10
4324.1889879987456879
 20
204.3346698420596965
 30
0.0
 40
0.0212808065395016
 50
15.8928825049781608
 51
88.7416072840564567
  0
ARC
  5
E8C3
  8
0
 10
4324.1886795983846241
 20
204.3062209688123119
 30
0.0
 40
0.0282528790822843
 50
42.663199422817307
 51
88.4265973630995461
  0
ARC
  5
E8C4
  8
0
 10
4324.1906185814659693
 20
204.251580928706602
 30
0.0
 40
0.0202111058221119
 50
21.2510759895483687
 51
86.7005787713171259
  0
ARC
  5
E8C5
  8
0
 10
4324.1851757135946173
 20
204.1652387867742107
 30
0.0
 40
0.0738924337341511
 50
70.8173374563832283
 51
86.6797331016981616
  0
ARC
  5
E8C6
  8
0
 10
4324.1940728892377592
 20
204.1396119032634999
 30
0.0
 40
0.0170349005708286
 50
25.4451488818219715
 51
74.272453590839703
  0
ARC
  5
E8C7
  8
0
 10
4324.1880318945077306
 20
204.1657128468301039
 30
0.0
 40
0.0487588665713322
 50
271.6729206067694804
 51
296.0640524215978076
  0
LINE
  5
E8C8
  8
0
 10
4321.976094753079451
 20
203.7331248925148088
 30
0.0
 11
4324.189657587223337
 21
203.7331248925148088
 31
0.0
  0
LINE
  5
E8C9
  8
0
 10
4321.9833056456218401
 20
203.7400676963787873
 30
0.0
 11
4324.189455353570338
 21
203.7400676963787873
 31
0.0
  0
LINE
  5
E8CA
  8
0
 10
4321.9757107774366887
 20
203.7729326653133057
 30
0.0
 11
4324.189455353570338
 21
203.7729326653133057
 31
0.0
  0
LINE
  5
E8CB
  8
0
 10
4321.9817357191377596
 20
203.7944149857466982
 30
0.0
 11
4324.189455354783604
 21
203.7944149857466982
 31
0.0
  0
LINE
  5
E8CC
  8
0
 10
4321.9798862695979551
 20
203.8571196488665009
 30
0.0
 11
4324.1917818102829187
 21
203.8571196488665009
 31
0.0
  0
LINE
  5
E8CD
  8
0
 10
4321.9823610989933513
 20
203.8898709973211112
 30
0.0
 11
4324.189455353570338
 21
203.8898709973211112
 31
0.0
  0
LINE
  5
E8CE
  8
0
 10
4322.0005473489782162
 20
203.9728691380854002
 30
0.0
 11
4324.198690424806955
 21
203.9728691380854002
 31
0.0
  0
LINE
  5
E8CF
  8
0
 10
4322.0005473491501107
 20
204.0119034186508031
 30
0.0
 11
4324.18945535228886
 21
204.0119034186508031
 31
0.0
  0
ARC
  5
E8D0
  8
0
 10
4322.0127750533692961
 20
205.8819647063290859
 30
0.0
 40
2.1491528540014699
 50
266.8174337715740876
 51
269.0220665602228109
  0
ARC
  5
E8D1
  8
0
 10
4322.0163805005240647
 20
201.9599967659368076
 30
0.0
 40
1.7803781798909499
 50
91.0644696929225432
 51
93.9589841048760093
  0
ARC
  5
E8D2
  8
0
 10
4322.0125830655033496
 20
204.4018174698223902
 30
0.0
 40
0.6299648108979616
 50
259.0999480532656207
 51
266.6445195527920191
  0
ARC
  5
E8D3
  8
0
 10
4322.0155955360487496
 20
203.1738736118093129
 30
0.0
 40
0.6214644671816344
 50
93.1232448791854353
 51
101.3341247086398056
  0
ARC
  5
E8D4
  8
0
 10
4322.0146708119127652
 20
204.2876078881967885
 30
0.0
 40
0.4318912925561384
 50
253.7007913595402044
 51
265.3803920379456258
  0
ARC
  5
E8D5
  8
0
 10
4322.0159082262325683
 20
203.4686328011744081
 30
0.0
 40
0.4225719200786519
 50
94.5533871536661508
 51
106.8442620262031966
  0
ARC
  5
E8D6
  8
0
 10
4322.0218352247711664
 20
203.5962323203322057
 30
0.0
 40
0.416215852203877
 50
92.9317428138648722
 51
107.9650369383972048
  0
ARC
  5
E8D7
  8
0
 10
4322.0250182579093234
 20
204.4156935378424009
 30
0.0
 40
0.4435000275129231
 50
252.7441788248050898
 51
266.836996334502885
  0
ARC
  5
E8D8
  8
0
 10
4324.1895564702481352
 20
203.7527923298974031
 30
0.0
 40
0.0196676973191245
 50
270.2945744655166891
 51
347.1730782437742846
  0
ARC
  5
E8D9
  8
0
 10
4324.1795101363177309
 20
203.7550187562052884
 30
0.0
 40
0.029957667013542
 50
347.2868506114691058
 51
358.3481173475944956
  0
ARC
  5
E8DA
  8
0
 10
4324.1893298060913366
 20
203.761204971414287
 30
0.0
 40
0.0211376478500985
 50
270.3403114228344748
 51
327.225488786966821
  0
ARC
  5
E8DB
  8
0
 10
4324.1937596619372925
 20
203.7583529124837867
 30
0.0
 40
0.0158690747066809
 50
327.2254887869639788
 51
351.5226250679194209
  0
ARC
  5
E8DC
  8
0
 10
4324.1889879987456879
 20
203.7942083393668895
 30
0.0
 40
0.0212808065395016
 50
271.2583927159435007
 51
344.1071174950217824
  0
ARC
  5
E8DD
  8
0
 10
4324.1886795983846241
 20
203.8226572126143878
 30
0.0
 40
0.0282528790822843
 50
271.5734026369004255
 51
317.3368005771827143
  0
ARC
  5
E8DE
  8
0
 10
4324.1906185814659693
 20
203.8772972527200125
 30
0.0
 40
0.0202111058221119
 50
273.2994212286828883
 51
338.7489240104516171
  0
ARC
  5
E8DF
  8
0
 10
4324.1851757135946173
 20
203.9636393946524038
 30
0.0
 40
0.0738924337341511
 50
273.3202668983017816
 51
289.1826625436166864
  0
ARC
  5
E8E0
  8
0
 10
4324.1940728892377592
 20
203.9892662781631998
 30
0.0
 40
0.0170349005708286
 50
285.7275464091603112
 51
334.5548511181794993
  0
ARC
  5
E8E1
  8
0
 10
4324.1880318945077306
 20
203.9631653345967095
 30
0.0
 40
0.0487588665713322
 50
63.9359475784021924
 51
88.3270793932305054
  0
ARC
  5
E8E2
  8
0
 10
4321.2932553535711122
 20
204.0644390907133072
 30
0.0
 40
0.9246038721923124
 50
201.1428849021660881
 51
338.8571150978337982
  0
ARC
  5
E8E3
  8
0
 10
4321.2932553535711122
 20
204.0644390907133072
 30
0.0
 40
0.7673000000000006
 50
205.7624490946735136
 51
334.2375509053264864
  0
ENDSEC
  0
EOF
