  0
SECTION
  2
HEADER
  9
$ACADVER
  1
AC1009
  9
$INSBASE
 10
4325.5367615176692198
 20
192.5482752575273935
 30
0.0
  9
$EXTMIN
 10
4318.9751805176692869
 20
186.6665738167895086
 30
0.0
  9
$EXTMAX
 10
4332.0983425176700621
 20
193.5742752575274039
 30
0.0
  9
$LIMMIN
 10
0.0
 20
0.0
  9
$LIMMAX
 10
11.6929133858000007
 20
8.2677165353999982
  9
$ORTHOMODE
 70
     0
  9
$REGENMODE
 70
     1
  9
$FILLMODE
 70
     1
  9
$QTEXTMODE
 70
     0
  9
$MIRRTEXT
 70
     0
  9
$DRAGMODE
 70
     2
  9
$LTSCALE
 40
0.6431102362
  9
$OSMODE
 70
     7
  9
$ATTMODE
 70
     1
  9
$TEXTSIZE
 40
0.2
  9
$TRACEWID
 40
0.05
  9
$TEXTSTYLE
  7
STANDARD
  9
$CLAYER
  8
0
  9
$CELTYPE
  6
BYLAYER
  9
$CECOLOR
 62
   256
  9
$DIMSCALE
 40
1.0
  9
$DIMASZ
 40
0.1875
  9
$DIMEXO
 40
0.0625
  9
$DIMDLI
 40
0.4443307087
  9
$DIMRND
 40
0.0
  9
$DIMDLE
 40
0.0
  9
$DIMEXE
 40
0.125
  9
$DIMTP
 40
0.01
  9
$DIMTM
 40
0.01
  9
$DIMTXT
 40
2.0
  9
$DIMCEN
 40
0.1052362205
  9
$DIMTSZ
 40
0.0
  9
$DIMTOL
 70
     1
  9
$DIMLIM
 70
     0
  9
$DIMTIH
 70
     1
  9
$DIMTOH
 70
     1
  9
$DIMSE1
 70
     0
  9
$DIMSE2
 70
     0
  9
$DIMTAD
 70
     0
  9
$DIMZIN
 70
     0
  9
$DIMBLK
  1

  9
$DIMASO
 70
     1
  9
$DIMSHO
 70
     1
  9
$DIMPOST
  1
\X
  9
$DIMAPOST
  1

  9
$DIMALT
 70
     1
  9
$DIMALTD
 70
     2
  9
$DIMALTF
 40
25.3999999999999986
  9
$DIMLFAC
 40
1.0
  9
$DIMTOFL
 70
     0
  9
$DIMTVP
 40
0.0
  9
$DIMTIX
 70
     0
  9
$DIMSOXD
 70
     0
  9
$DIMSAH
 70
     0
  9
$DIMBLK1
  1

  9
$DIMBLK2
  1

  9
$DIMSTYLE
  2
STANDARD
  9
$DIMCLRD
 70
     0
  9
$DIMCLRE
 70
     0
  9
$DIMCLRT
 70
     0
  9
$DIMTFAC
 40
1.0
  9
$DIMGAP
 40
0.09
  9
$LUNITS
 70
     2
  9
$LUPREC
 70
     4
  9
$SKETCHINC
 40
0.1
  9
$FILLETRAD
 40
0.0
  9
$AUNITS
 70
     0
  9
$AUPREC
 70
     0
  9
$MENU
  1
.
  9
$ELEVATION
 40
0.0
  9
$PELEVATION
 40
0.0
  9
$THICKNESS
 40
0.0
  9
$LIMCHECK
 70
     0
  9
$BLIPMODE
 70
     0
  9
$CHAMFERA
 40
0.0
  9
$CHAMFERB
 40
0.0
  9
$SKPOLY
 70
     0
  9
$TDCREATE
 40
2458060.468368056230247
  9
$TDUPDATE
 40
2459576.5703935190103948
  9
$TDINDWG
 40
0.4362107639
  9
$TDUSRTIMER
 40
0.4362107639
  9
$USRTIMER
 70
     1
  9
$ANGBASE
 50
0.0
  9
$ANGDIR
 70
     0
  9
$PDMODE
 70
     0
  9
$PDSIZE
 40
0.3125
  9
$PLINEWID
 40
0.0
  9
$COORDS
 70
     1
  9
$SPLFRAME
 70
     0
  9
$SPLINETYPE
 70
     6
  9
$SPLINESEGS
 70
     8
  9
$ATTDIA
 70
     1
  9
$ATTREQ
 70
     1
  9
$HANDLING
 70
     1
  9
$HANDSEED
  5
E4F3
  9
$SURFTAB1
 70
     6
  9
$SURFTAB2
 70
     6
  9
$SURFTYPE
 70
     6
  9
$SURFU
 70
     6
  9
$SURFV
 70
     6
  9
$UCSNAME
  2

  9
$UCSORG
 10
0.0
 20
0.0
 30
0.0
  9
$UCSXDIR
 10
1.0
 20
0.0
 30
0.0
  9
$UCSYDIR
 10
0.0
 20
1.0
 30
0.0
  9
$PUCSNAME
  2

  9
$PUCSORG
 10
0.0
 20
0.0
 30
0.0
  9
$PUCSXDIR
 10
1.0
 20
0.0
 30
0.0
  9
$PUCSYDIR
 10
0.0
 20
1.0
 30
0.0
  9
$USERI1
 70
     0
  9
$USERI2
 70
     0
  9
$USERI3
 70
     0
  9
$USERI4
 70
     0
  9
$USERI5
 70
     0
  9
$USERR1
 40
0.0
  9
$USERR2
 40
0.0
  9
$USERR3
 40
0.0
  9
$USERR4
 40
0.0
  9
$USERR5
 40
0.0
  9
$WORLDVIEW
 70
     1
  9
$SHADEDGE
 70
     3
  9
$SHADEDIF
 70
    70
  9
$TILEMODE
 70
     1
  9
$MAXACTVP
 70
    64
  9
$PLIMCHECK
 70
     0
  9
$PEXTMIN
 10
1.0000000000000000E+20
 20
1.0000000000000000E+20
 30
1.0000000000000000E+20
  9
$PEXTMAX
 10
-1.0000000000000000E+20
 20
-1.0000000000000000E+20
 30
-1.0000000000000000E+20
  9
$PLIMMIN
 10
0.0
 20
0.0
  9
$PLIMMAX
 10
12.0
 20
9.0
  9
$UNITMODE
 70
     0
  9
$VISRETAIN
 70
     1
  9
$PLINEGEN
 70
     0
  9
$PSLTSCALE
 70
     1
  0
ENDSEC
  0
SECTION
  2
TABLES
  0
TABLE
  2
VPORT
 70
     1
  0
VPORT
  2
*ACTIVE
 70
     0
 10
0.0
 20
0.0
 11
1.0
 21
1.0
 12
521.9345933725726354
 22
64.1278952610913535
 13
0.0
 23
0.0
 14
1.0
 24
1.0
 15
0.0
 25
0.0
 16
0.0
 26
0.0
 36
17.1152628219792007
 17
3803.5440673828129547
 27
125.9952621967499056
 37
0.0
 40
6.9751949619173184
 41
2.2831541218637992
 42
50.0
 43
0.0
 44
0.0
 50
0.0
 51
0.0
 71
     0
 72
   100
 73
     1
 74
     1
 75
     0
 76
     0
 77
     0
 78
     0
  0
ENDTAB
  0
TABLE
  2
LTYPE
 70
     2
  0
LTYPE
  2
CONTINUOUS
 70
     0
  3
Solid line
 72
    65
 73
     0
 40
0.0
  0
LTYPE
  2
PHANTOM2
 70
     0
  3
___ _ _ ___ _ _ ___ _ _ ___ _ _
 72
    65
 73
     6
 40
1.25
 49
0.625
 49
-0.125
 49
0.125
 49
-0.125
 49
0.125
 49
-0.125
  0
ENDTAB
  0
TABLE
  2
LAYER
 70
     2
  0
LAYER
  2
0
 70
     0
 62
   255
  6
CONTINUOUS
  0
LAYER
  2
DEFPOINTS
 70
     0
 62
     7
  6
CONTINUOUS
  0
ENDTAB
  0
TABLE
  2
STYLE
 70
     1
  0
STYLE
  2
STANDARD
 70
     0
 40
0.0
 41
0.8
 50
0.0
 71
     0
 42
0.2
  3
txt
  4

  0
ENDTAB
  0
TABLE
  2
VIEW
 70
     0
  0
ENDTAB
  0
TABLE
  2
UCS
 70
     0
  0
ENDTAB
  0
TABLE
  2
APPID
 70
     9
  0
APPID
  2
ACAD
 70
     0
  0
APPID
  2
ACAD_MLEADERVER
 70
     0
  0
APPID
  2
ACAD_EXEMPT_FROM_CAD_STANDARDS
 70
     0
  0
APPID
  2
ACAD_NAV_VCDISPLAY
 70
     0
  0
APPID
  2
ACAECLAYERSTANDARD
 70
     0
  0
APPID
  2
ACCMTRANSPARENCY
 70
     0
  0
APPID
  2
ACAD_DSTYLE_DIMJAG
 70
     0
  0
APPID
  2
ACAD_DSTYLE_DIMTALN
 70
     0
  0
APPID
  2
ACDBATTR
 70
     0
  0
ENDTAB
  0
TABLE
  2
DIMSTYLE
 70
     1
  0
DIMSTYLE
  2
STANDARD
 70
     0
  3

  4

  5

  6

  7

 40
1.0
 41
0.1875
 42
0.0625
 43
0.38
 44
0.125
 45
0.0
 46
0.0
 47
0.01
 48
0.01
140
0.15625
141
0.09
142
0.0
143
25.3999999999999986
144
1.0
145
0.0
146
1.0
147
0.09
 71
     1
 72
     0
 73
     1
 74
     1
 75
     0
 76
     0
 77
     0
 78
     4
170
     0
171
     2
172
     0
173
     0
174
     0
175
     0
176
     0
177
     0
178
     0
  0
ENDTAB
  0
ENDSEC
  0
SECTION
  2
BLOCKS
  0
BLOCK
  8
0
  2
$MODEL_SPACE
 70
     0
 10
0.0
 20
0.0
 30
0.0
  3
$MODEL_SPACE
  1

  0
ENDBLK
  5
21
  8
0
  0
BLOCK
 67
     1
  8
0
  2
$PAPER_SPACE
 70
     0
 10
0.0
 20
0.0
 30
0.0
  3
$PAPER_SPACE
  1

  0
ENDBLK
  5
1D
 67
     1
  8
0
  0
ENDSEC
  0
SECTION
  2
ENTITIES
  0
ATTDEF
  5
3930
  8
DEFPOINTS
 10
4325.5367841229899568
 20
192.5516242714190867
 30
0.0
 40
0.001
  1
P21222-LV
  3

  2
MODELNUMBER
 70
     0
1001
ACDBATTR
1070
     0
1070
     1
  0
ATTDEF
  5
3931
  8
DEFPOINTS
 10
4325.5367841229899568
 20
192.5499576047523931
 30
0.0
 40
0.001
  1
CENTRAL PARK WEST
  3

  2
TRADENAME
 70
     0
1001
ACDBATTR
1070
     0
1070
     1
  0
ATTDEF
  5
3932
  8
DEFPOINTS
 10
4325.5367841229899568
 20
192.5482909380858132
 30
0.0
 40
0.001
  1
BATHROOM SINK FAUCET
  3

  2
PRODUCT
 70
     0
1001
ACDBATTR
1070
     0
1070
     1
  0
LINE
  5
DF6A
  8
0
 10
4325.064321517668759
 20
187.237798617127396
 30
0.0
 11
4325.064321517668759
 21
192.5482752575273935
 31
0.0
  0
ARC
  5
DF6B
  8
0
 10
4325.5367615176692198
 20
192.5482752575273935
 30
0.0
 40
0.4724399999999999
 50
0.0
 51
180.0
  0
ARC
  5
DF6C
  8
0
 10
4325.5367615176692198
 20
192.5482752575273935
 30
0.0
 40
0.7383094638
 50
309.7839363991078017
 51
230.2160636008921983
  0
ARC
  5
DF6D
  8
0
 10
4325.5367615176692198
 20
192.5482752575273935
 30
0.0
 40
0.8603999999999999
 50
303.3048417092546742
 51
236.6951582907452973
  0
ARC
  5
DF6E
  8
0
 10
4325.5367615176692198
 20
192.5482752575273935
 30
0.0
 40
1.0259999999999989
 50
297.4173002412480855
 51
242.5826997587518861
  0
ARC
  5
DF6F
  8
0
 10
4329.5367615176692198
 20
192.5482752575273935
 30
0.0
 40
0.6500000000000004
 50
205.5163873662293099
 51
334.4836126337692122
  0
ARC
  5
DF70
  8
0
 10
4329.5367615176692198
 20
192.5482752575273935
 30
0.0
 40
0.6500000000000004
 50
25.5163873662308305
 51
154.4836126337692122
  0
ARC
  5
DF71
  8
0
 10
4329.5367615176692198
 20
192.5482752575273935
 30
0.0
 40
0.8609999999999997
 50
198.9778894027458875
 51
341.0221105972540272
  0
ARC
  5
DF72
  8
0
 10
4329.5367615176692198
 20
192.5482752575273935
 30
0.0
 40
0.8609999999999997
 50
18.9778894027459799
 51
161.0221105972539988
  0
ARC
  5
DF73
  8
0
 10
4329.5367615176692198
 20
192.5482752575273935
 30
0.0
 40
1.0259999999999989
 50
15.8371739011802095
 51
344.1628260988197781
  0
ARC
  5
DF74
  8
0
 10
4329.5367615176692198
 20
192.5482752575273935
 30
0.0
 40
0.7387365101999999
 50
202.2733350268989909
 51
337.7266649731009807
  0
ARC
  5
DF75
  8
0
 10
4329.5367615176692198
 20
192.5482752575273935
 30
0.0
 40
0.7387365101999999
 50
22.2733350268990193
 51
157.7266649731010091
  0
CIRCLE
  5
DF76
  8
0
 10
4329.5367615176692198
 20
192.5482752575273935
 30
0.0
 40
0.3885000000000005
  0
ARC
  5
DF77
  8
0
 10
4329.5367615176692198
 20
192.5482752575273935
 30
0.0
 40
0.4620000000000001
 50
218.4805304899664975
 51
225.5194695052693135
  0
ARC
  5
DF78
  8
0
 10
4329.5367615176692198
 20
192.5482752575273935
 30
0.0
 40
0.4620000000000001
 50
230.4805304899713008
 51
237.519469505293813
  0
ARC
  5
DF79
  8
0
 10
4329.5367615176692198
 20
192.5482752575273935
 30
0.0
 40
0.4620000000000001
 50
242.4805304899952887
 51
249.5194695052844907
  0
ARC
  5
DF7A
  8
0
 10
4329.5367615176692198
 20
192.5482752575273935
 30
0.0
 40
0.4620000000000001
 50
254.480530489967208
 51
261.519469505293273
  0
ARC
  5
DF7B
  8
0
 10
4329.5367615176692198
 20
192.5482752575273935
 30
0.0
 40
0.4620000000000001
 50
266.4805304900033889
 51
273.5194695052975931
  0
ARC
  5
DF7C
  8
0
 10
4329.5367615176692198
 20
192.5482752575273935
 30
0.0
 40
0.4620000000000001
 50
278.4805304899649059
 51
285.5194695052749125
  0
ARC
  5
DF7D
  8
0
 10
4329.5367615176692198
 20
192.5482752575273935
 30
0.0
 40
0.4620000000000001
 50
290.4805304899855969
 51
297.5194695052948077
  0
ARC
  5
DF7E
  8
0
 10
4329.5367615176692198
 20
192.5482752575273935
 30
0.0
 40
0.4620000000000001
 50
302.4805304899975908
 51
309.519469505294694
  0
ARC
  5
DF7F
  8
0
 10
4329.5367615176692198
 20
192.5482752575273935
 30
0.0
 40
0.4620000000000001
 50
314.4805304899850853
 51
321.5194695052774136
  0
ARC
  5
DF80
  8
0
 10
4329.5367615176692198
 20
192.5482752575273935
 30
0.0
 40
0.4620000000000001
 50
38.4805304899665188
 51
45.5194695052693703
  0
ARC
  5
DF81
  8
0
 10
4329.5367615176692198
 20
192.5482752575273935
 30
0.0
 40
0.4620000000000001
 50
50.480530489971251
 51
57.5194695052938414
  0
ARC
  5
DF82
  8
0
 10
4329.5367615176692198
 20
192.5482752575273935
 30
0.0
 40
0.4620000000000001
 50
62.4805304899952887
 51
69.5194695052844622
  0
ARC
  5
DF83
  8
0
 10
4329.5367615176692198
 20
192.5482752575273935
 30
0.0
 40
0.4620000000000001
 50
74.4805304899672223
 51
81.5194695052932445
  0
ARC
  5
DF84
  8
0
 10
4329.5367615176692198
 20
192.5482752575273935
 30
0.0
 40
0.4620000000000001
 50
86.4805304900034031
 51
93.5194695052976357
  0
ARC
  5
DF85
  8
0
 10
4329.5367615176692198
 20
192.5482752575273935
 30
0.0
 40
0.4620000000000001
 50
98.4805304899648632
 51
105.5194695052747988
  0
ARC
  5
DF86
  8
0
 10
4329.5367615176692198
 20
192.5482752575273935
 30
0.0
 40
0.4620000000000001
 50
110.4805304899854974
 51
117.5194695052947935
  0
ARC
  5
DF87
  8
0
 10
4329.5367615176692198
 20
192.5482752575273935
 30
0.0
 40
0.4620000000000001
 50
122.4805304899976051
 51
129.519469505294694
  0
ARC
  5
DF88
  8
0
 10
4329.5367615176692198
 20
192.5482752575273935
 30
0.0
 40
0.4620000000000001
 50
134.4805304899851137
 51
141.5194695052786926
  0
ARC
  5
DF89
  8
0
 10
4329.2276231775686028
 20
192.2049423482274051
 30
0.0
 40
0.0200000000000002
 50
319.2402650211878949
 51
136.7597349740399011
  0
ARC
  5
DF8A
  8
0
 10
4329.3057615176912805
 20
192.1481715210557866
 30
0.0
 40
0.0200000000000002
 50
331.2402650212058006
 51
148.7597349740584889
  0
ARC
  5
DF8B
  8
0
 10
4329.3939956662752593
 20
192.1088871470788035
 30
0.0
 40
0.0200000000000002
 50
343.2402650211989226
 51
160.7597349740520087
  0
ARC
  5
DF8C
  8
0
 10
4329.4884693676276584
 20
192.0888061419464918
 30
0.0
 40
0.0200000000000002
 50
355.2402650212035269
 51
172.7597349740501045
  0
ARC
  5
DF8D
  8
0
 10
4329.5850536676707634
 20
192.0888061419425128
 30
0.0
 40
0.0200000000000002
 50
7.2402650212023616
 51
184.7597349740507866
  0
ARC
  5
DF8E
  8
0
 10
4329.6795273690277099
 20
192.1088871470670085
 30
0.0
 40
0.0200000000000002
 50
19.2402650212047597
 51
196.7597349740464949
  0
ARC
  5
DF8F
  8
0
 10
4329.7677615176125983
 20
192.1481715210366872
 30
0.0
 40
0.0200000000000002
 50
31.2402650212044009
 51
208.7597349740464097
  0
ARC
  5
DF90
  8
0
 10
4329.8458998577398233
 20
192.2049423482017971
 30
0.0
 40
0.0200000000000002
 50
43.2402650211937214
 51
220.7597349740497066
  0
ARC
  5
DF91
  8
0
 10
4329.9105273689965543
 20
192.2767184709983894
 30
0.0
 40
0.0200000000000002
 50
204.9710751824808028
 51
232.7597349740645996
  0
ARC
  5
DF92
  8
0
 10
4329.9105273690192917
 20
192.8198320440253042
 30
0.0
 40
0.0200000000000003
 50
127.2402650212111013
 51
155.028924719724813
  0
ARC
  5
DF93
  8
0
 10
4329.8458998577689272
 20
192.8916081668272966
 30
0.0
 40
0.0200000000000003
 50
139.2402650211878949
 51
316.7597349740398727
  0
ARC
  5
DF94
  8
0
 10
4329.7677615176471591
 20
192.9483789939988867
 30
0.0
 40
0.0200000000000003
 50
151.240265021204408
 51
328.7597349740585173
  0
ARC
  5
DF95
  8
0
 10
4329.6795273690649992
 20
192.9876633679758982
 30
0.0
 40
0.0200000000000003
 50
163.2402650211988941
 51
340.7597349740519803
  0
ARC
  5
DF96
  8
0
 10
4329.5850536677098717
 20
193.0077443731082099
 30
0.0
 40
0.0200000000000003
 50
175.2402650212034985
 51
352.7597349740501045
  0
ARC
  5
DF97
  8
0
 10
4329.4884693676658571
 20
193.0077443731121889
 30
0.0
 40
0.0200000000000003
 50
187.2402650212023048
 51
4.7597349740508283
  0
ARC
  5
DF98
  8
0
 10
4329.3939956663098201
 20
192.9876633679876932
 30
0.0
 40
0.0200000000000003
 50
199.2402650212046922
 51
16.7597349740466086
  0
ARC
  5
DF99
  8
0
 10
4329.3057615177249318
 20
192.9483789940179861
 30
0.0
 40
0.0200000000000003
 50
211.2402650212029869
 51
28.759734974046399
  0
ARC
  5
DF9A
  8
0
 10
4329.2276231775967972
 20
192.8916081668529898
 30
0.0
 40
0.0200000000000003
 50
223.240265021193693
 51
40.7597349740497066
  0
ARC
  5
DF9B
  8
0
 10
4329.1629956663418852
 20
192.8198320440563123
 30
0.0
 40
0.0200000000000003
 50
24.9710751824852117
 51
52.7597349740645782
  0
ARC
  5
DF9C
  8
0
 10
4329.1629956663200574
 20
192.2767184710293975
 30
0.0
 40
0.0200000000000004
 50
307.2402650212112007
 51
335.0289247197247846
  0
LINE
  5
DF9D
  8
0
 10
4328.6617615176692198
 20
192.8282752575273946
 30
0.0
 11
4329.2674433972242696
 21
192.8282752575273946
 31
0.0
  0
LINE
  5
DF9E
  8
0
 10
4329.8060796381141699
 20
192.8282752575273946
 30
0.0
 11
4332.0783425176696255
 21
192.8282752575273946
 31
0.0
  0
LINE
  5
DF9F
  8
0
 10
4328.6617615176692198
 20
192.2682752575273923
 30
0.0
 11
4329.2674433972242696
 21
192.2682752575273923
 31
0.0
  0
LINE
  5
DFA0
  8
0
 10
4329.8060796381141699
 20
192.2682752575273923
 30
0.0
 11
4332.0783425176696255
 21
192.2682752575273923
 31
0.0
  0
LINE
  5
DFA1
  8
0
 10
4328.6417615176687832
 20
192.2882752575274026
 30
0.0
 11
4328.6417615176687832
 21
192.8082752575274128
 31
0.0
  0
ARC
  5
DFA2
  8
0
 10
4328.6617615176692198
 20
192.2882752575274026
 30
0.0
 40
0.0200000000000014
 50
179.9999988540899949
 51
270.0
  0
ARC
  5
DFA3
  8
0
 10
4328.6617615176692198
 20
192.8082752575274128
 30
0.0
 40
0.0200000000000014
 50
90.0
 51
180.0000011459131883
  0
LINE
  5
DFA4
  8
0
 10
4328.6417615176687832
 20
192.8082752571274057
 30
0.0
 11
4328.6417615280697646
 21
192.2882548610733124
 31
0.0
  0
LINE
  5
DFA5
  8
0
 10
4332.0983425176691526
 20
192.8082752575274128
 30
0.0
 11
4332.0983425176691526
 21
192.2882752575274026
 31
0.0
  0
LINE
  5
DFA6
  8
0
 10
4330.2817302163493878
 20
192.8267887422096862
 30
0.0
 11
4332.0783425277923016
 21
192.8267887422096862
 31
0.0
  0
LINE
  5
DFA7
  8
0
 10
4330.295747642599963
 20
192.8198472463186874
 30
0.0
 11
4332.0788534520452231
 21
192.8198472463186874
 31
0.0
  0
LINE
  5
DFA8
  8
0
 10
4330.2787759630500659
 20
192.7945615765711125
 30
0.0
 11
4332.0783425176696255
 21
192.7945615765711125
 31
0.0
  0
LINE
  5
DFA9
  8
0
 10
4330.2805211900540598
 20
192.7730833032337046
 30
0.0
 11
4332.0783425176696255
 21
192.7730833032337046
 31
0.0
  0
LINE
  5
DFAA
  8
0
 10
4330.2844604584961417
 20
192.7248395514490937
 30
0.0
 11
4332.078818775844411
 21
192.7248395514490937
 31
0.0
  0
LINE
  5
DFAB
  8
0
 10
4330.2844604534802784
 20
192.6920943730798967
 30
0.0
 11
4332.0783425176696255
 21
192.6920943730798967
 31
0.0
  0
LINE
  5
DFAC
  8
0
 10
4330.2881703397470119
 20
192.6282372131367993
 30
0.0
 11
4332.0783425176696255
 21
192.6282372131367993
 31
0.0
  0
LINE
  5
DFAD
  8
0
 10
4330.2881703397470119
 20
192.5892102863068089
 30
0.0
 11
4332.0783425183817599
 21
192.5892102863068089
 31
0.0
  0
ARC
  5
DFAE
  8
0
 10
4330.2900363698381625
 20
190.163245608085191
 30
0.0
 40
2.663556085298008
 50
90.1786740338713031
 51
92.6173223393174965
  0
ARC
  5
DFAF
  8
0
 10
4330.297045073542904
 20
194.8031565626957047
 30
0.0
 40
1.983309740750212
 50
266.2811116863824168
 51
269.9625185511961263
  0
ARC
  5
DFB0
  8
0
 10
4330.2885267739284245
 20
192.0865174366319934
 30
0.0
 40
0.7081112782711866
 50
90.7889974142584322
 51
99.7667008135974243
  0
ARC
  5
DFB1
  8
0
 10
4330.2894005624557394
 20
193.4240183452361066
 30
0.0
 40
0.6509956007231722
 50
259.2885931264182773
 51
269.2184796044221002
  0
ARC
  5
DFB2
  8
0
 10
4330.2914014873485939
 20
192.2561292000071091
 30
0.0
 40
0.46876174271208
 50
90.8484186237303675
 51
105.2116741746867064
  0
ARC
  5
DFB3
  8
0
 10
4330.2914014873485939
 20
193.1608047244477007
 30
0.0
 40
0.46876174271208
 50
254.7883258253133079
 51
269.1515807630216273
  0
ARC
  5
DFB4
  8
0
 10
4330.2932564283291867
 20
192.2197302776226877
 30
0.0
 40
0.4085385962919077
 50
90.7133204566007976
 51
107.7945551252400946
  0
ARC
  5
DFB5
  8
0
 10
4330.2932564284456021
 20
192.9977172223210005
 30
0.0
 40
0.4085385967934255
 50
252.2054448800132889
 51
269.2866795277648748
  0
ARC
  5
DFB6
  8
0
 10
4332.0783425176696255
 20
192.8082752575274128
 30
0.0
 40
0.0200000000000005
 50
0.0000000000048853
 51
90.0
  0
ARC
  5
DFB7
  8
0
 10
4332.0783075890485634
 20
192.8067460747230086
 30
0.0
 40
0.0200426979396476
 50
1.595383408305449
 51
89.9001210592628865
  0
ARC
  5
DFB8
  8
0
 10
4332.0785979845113616
 20
192.7993792263825981
 30
0.0
 40
0.0204696141577849
 50
15.2955975483765396
 51
89.2849112181288405
  0
ARC
  5
DFB9
  8
0
 10
4332.0768087861570166
 20
192.7728923441943891
 30
0.0
 40
0.0217234427323317
 50
7.5776820424473899
 51
85.9514007767039345
  0
ARC
  5
DFBA
  8
0
 10
4332.0779533252516558
 20
192.7462917554630053
 30
0.0
 40
0.0267943744597213
 50
40.4519370749536407
 51
89.1677407096549643
  0
ARC
  5
DFBB
  8
0
 10
4332.078580647695162
 20
192.7042766882217109
 30
0.0
 40
0.0205642420021944
 50
16.058000999597791
 51
89.3365161289854086
  0
ARC
  5
DFBC
  8
0
 10
4332.0767364612811434
 20
192.6400436504679874
 30
0.0
 40
0.0520754946356884
 50
71.6089660905158496
 51
88.2326649537819065
  0
ARC
  5
DFBD
  8
0
 10
4332.0944107890582018
 20
192.6932024126159035
 30
0.0
 40
0.0039444648030117
 50
251.608965890570488
 51
355.3944626008564001
  0
ARC
  5
DFBE
  8
0
 10
4332.0782728055701227
 20
192.607891309159811
 30
0.0
 40
0.0203460234055779
 50
9.4534409455401391
 51
89.8036856255399272
  0
LINE
  5
DFBF
  8
0
 10
4332.0783425183817599
 20
192.5892102863068089
 30
0.0
 11
4332.089844203269422
 21
192.5888783007274014
 31
0.0
  0
ARC
  5
DFC0
  8
0
 10
4332.0907194043757045
 20
192.5985435795120111
 30
0.0
 40
0.0097048230773271
 50
264.825918040538113
 51
321.7667050922106
  0
LINE
  5
DFC1
  8
0
 10
4330.2817302163493878
 20
192.269761772844987
 30
0.0
 11
4332.0783425277923016
 21
192.269761772844987
 31
0.0
  0
LINE
  5
DFC2
  8
0
 10
4330.295747642599963
 20
192.2767032687359858
 30
0.0
 11
4332.0788534520452231
 21
192.2767032687359858
 31
0.0
  0
LINE
  5
DFC3
  8
0
 10
4330.2787759630500659
 20
192.3019889384835892
 30
0.0
 11
4332.0783425176696255
 21
192.3019889384835892
 31
0.0
  0
LINE
  5
DFC4
  8
0
 10
4330.2805211900540598
 20
192.3234672118209971
 30
0.0
 11
4332.0783425176696255
 21
192.3234672118209971
 31
0.0
  0
LINE
  5
DFC5
  8
0
 10
4330.2844604584961417
 20
192.371710963605608
 30
0.0
 11
4332.078818775844411
 21
192.371710963605608
 31
0.0
  0
LINE
  5
DFC6
  8
0
 10
4330.2844604534802784
 20
192.404456141974805
 30
0.0
 11
4332.0783425176696255
 21
192.404456141974805
 31
0.0
  0
LINE
  5
DFC7
  8
0
 10
4330.2881703397470119
 20
192.4683133019179024
 30
0.0
 11
4332.0783425176696255
 21
192.4683133019179024
 31
0.0
  0
LINE
  5
DFC8
  8
0
 10
4330.2881703397470119
 20
192.5073402287480064
 30
0.0
 11
4332.0783425183817599
 21
192.5073402287480064
 31
0.0
  0
ARC
  5
DFC9
  8
0
 10
4330.2900363698381625
 20
194.933304906969596
 30
0.0
 40
2.663556085298008
 50
267.3826776606824751
 51
269.8213259661287111
  0
ARC
  5
DFCA
  8
0
 10
4330.297045073542904
 20
190.293393952358997
 30
0.0
 40
1.983309740750212
 50
90.0374814488038737
 51
93.7188883136175832
  0
ARC
  5
DFCB
  8
0
 10
4330.2885267739284245
 20
193.0100330784227083
 30
0.0
 40
0.7081112782711866
 50
260.2332991864025757
 51
269.2110025857415962
  0
ARC
  5
DFCC
  8
0
 10
4330.2894005624557394
 20
191.6725321698185951
 30
0.0
 40
0.6509956007231722
 50
90.781520395577914
 51
100.7114068735815948
  0
ARC
  5
DFCD
  8
0
 10
4330.2914014873485939
 20
192.8404213150477062
 30
0.0
 40
0.46876174271208
 50
254.7883258253133079
 51
269.1515813762695757
  0
ARC
  5
DFCE
  8
0
 10
4330.2914014873485939
 20
191.935745790607001
 30
0.0
 40
0.46876174271208
 50
90.8484192369784154
 51
105.2116741746867064
  0
ARC
  5
DFCF
  8
0
 10
4330.2932564283291867
 20
192.876820237432014
 30
0.0
 40
0.4085385962919077
 50
252.2054448747597917
 51
269.2866795433992024
  0
ARC
  5
DFD0
  8
0
 10
4330.2932564284456021
 20
192.0988332927337865
 30
0.0
 40
0.4085385967934255
 50
90.7133204722350825
 51
107.7945551199866969
  0
ARC
  5
DFD1
  8
0
 10
4332.0783425176696255
 20
192.2882752575274026
 30
0.0
 40
0.0200000000000005
 50
270.0
 51
359.9999999999951115
  0
ARC
  5
DFD2
  8
0
 10
4332.0783075890485634
 20
192.2898044403318067
 30
0.0
 40
0.0200426979396476
 50
270.099878940737085
 51
358.4046165916944915
  0
ARC
  5
DFD3
  8
0
 10
4332.0785979845113616
 20
192.2971712886721889
 30
0.0
 40
0.0204696141577849
 50
270.7150887818710885
 51
344.7044024516234799
  0
ARC
  5
DFD4
  8
0
 10
4332.0768087861570166
 20
192.3236581708603126
 30
0.0
 40
0.0217234427323317
 50
274.0485992232960939
 51
352.4223179575525933
  0
ARC
  5
DFD5
  8
0
 10
4332.0779533252516558
 20
192.3502587595916964
 30
0.0
 40
0.0267943744597213
 50
270.8322592903451209
 51
319.5480629250463949
  0
ARC
  5
DFD6
  8
0
 10
4332.078580647695162
 20
192.3922738268331045
 30
0.0
 40
0.0205642420021944
 50
270.6634838710145914
 51
343.941999000402177
  0
ARC
  5
DFD7
  8
0
 10
4332.0767364612811434
 20
192.4565068645866859
 30
0.0
 40
0.0520754946356884
 50
271.7673350462180792
 51
288.3910339094841788
  0
ARC
  5
DFD8
  8
0
 10
4332.0944107890582018
 20
192.4033481024389118
 30
0.0
 40
0.0039444648030117
 50
4.6055373991435511
 51
108.3910341094294978
  0
ARC
  5
DFD9
  8
0
 10
4332.0782728055701227
 20
192.4886592058950043
 30
0.0
 40
0.0203460234055779
 50
270.1963143744599734
 51
350.5465590544598058
  0
LINE
  5
DFDA
  8
0
 10
4332.0783425183817599
 20
192.5073402287480064
 30
0.0
 11
4332.089844203269422
 21
192.5076722143274139
 31
0.0
  0
ARC
  5
DFDB
  8
0
 10
4332.0907194043757045
 20
192.4980069355426906
 30
0.0
 40
0.0097048230773271
 50
38.2332949077893787
 51
95.1740819594619154
  0
LINE
  5
DFDC
  8
0
 10
4326.0092015176696805
 20
187.237798617127396
 30
0.0
 11
4326.0092015176696805
 21
192.5482752575273935
 31
0.0
  0
LINE
  5
DFDD
  8
0
 10
4324.9808172301682134
 20
187.2139238244739943
 30
0.0
 11
4324.9808172301682134
 21
187.2251237185274135
 31
0.0
  0
ARC
  5
DFDE
  8
0
 10
4325.535251150368822
 20
187.2329841053274038
 30
0.0
 40
0.5544896369999842
 50
180.8122461534005083
 51
187.9497151571997904
  0
ARC
  5
DFDF
  8
0
 10
4325.535251150368822
 20
187.2217842107274066
 30
0.0
 40
0.5544896370000079
 50
180.8122461534005083
 51
187.9497151571997904
  0
LINE
  5
DFE0
  8
0
 10
4324.9860902526688733
 20
187.1562959968767927
 30
0.0
 11
4324.9860902526688733
 21
187.1450961022767956
 31
0.0
  0
ARC
  5
DFE1
  8
0
 10
4325.5398064238634106
 20
187.2353989190131074
 30
0.0
 40
0.511544906193897
 50
158.3581970380242012
 51
201.6418029619757988
  0
ARC
  5
DFE2
  8
0
 10
4325.5355279303576026
 20
187.2378027526748099
 30
0.0
 40
0.4712064127077292
 50
180.0005028569354977
 51
201.4186516408994976
  0
ARC
  5
DFE3
  8
0
 10
4325.536762663807167
 20
187.2386622451817004
 30
0.0
 40
0.4726698701088334
 50
201.4609848073270939
 51
338.5390151926728777
  0
LINE
  5
DFE4
  8
0
 10
4324.9930350562690364
 20
187.116964035727392
 30
0.0
 11
4324.9930350562690364
 21
187.1057641411273949
 31
0.0
  0
LINE
  5
DFE5
  8
0
 10
4325.0116528087692132
 20
187.05048612532741
 30
0.0
 11
4325.0116528087692132
 21
187.0392774285554935
 31
0.0
  0
LINE
  5
DFE6
  8
0
 10
4325.0261479852688353
 20
187.0132629239338087
 30
0.0
 11
4325.0261479852688353
 21
187.0020523534562926
 31
0.0
  0
LINE
  5
DFE7
  8
0
 10
4325.0573949980689576
 20
186.951689533630514
 30
0.0
 11
4325.0573949980689576
 21
186.9404758838460907
 31
0.0
  0
LINE
  5
DFE8
  8
0
 10
4325.07888350606936
 20
186.9180055586274136
 30
0.0
 11
4325.07888350606936
 21
186.906805664027388
 31
0.0
  0
LINE
  5
DFE9
  8
0
 10
4325.1215589739686038
 20
186.8637029191887962
 30
0.0
 11
4325.1215589739686038
 21
186.8524848905676095
 31
0.0
  0
LINE
  5
DFEA
  8
0
 10
4325.1492150219683026
 20
186.8348526271273897
 30
0.0
 11
4325.1492150219683026
 21
186.823652732427405
 31
0.0
  0
LINE
  5
DFEB
  8
0
 10
4325.2016789506687928
 20
186.7899075584273874
 30
0.0
 11
4325.2016789506687928
 21
186.7786858702197037
 31
0.0
  0
LINE
  5
DFEC
  8
0
 10
4325.2344397324695819
 20
186.7669996497274099
 30
0.0
 11
4325.2344397324695819
 21
186.7557997551274127
 31
0.0
  0
LINE
  5
DFED
  8
0
 10
4325.2946759625692721
 20
186.7331393657667888
 30
0.0
 11
4325.2946759625692721
 21
186.7219394711273992
 31
0.0
  0
LINE
  5
DFEE
  8
0
 10
4325.3312824995691699
 20
186.7170541785067996
 30
0.0
 11
4325.3312824995691699
 21
186.7058542838273922
 31
0.0
  0
LINE
  5
DFEF
  8
0
 10
4325.3969761865691908
 20
186.695579910827405
 30
0.0
 11
4325.3969761865691908
 21
186.6843800162274079
 31
0.0
  0
LINE
  5
DFF0
  8
0
 10
4325.4360217100702357
 20
186.6869355894652927
 30
0.0
 11
4325.4360217100702357
 21
186.6757356950199949
 31
0.0
  0
LINE
  5
DFF1
  8
0
 10
4324.9816896843703944
 20
187.253853039627387
 30
0.0
 11
4324.9816896843703944
 21
187.2650529343274002
 31
0.0
  0
ARC
  5
DFF2
  8
0
 10
4324.9826872349058249
 20
187.2469438737209941
 30
0.0
 40
0.018136515186674
 50
4.4578348553166238
 51
93.152992326392166
  0
ARC
  5
DFF3
  8
0
 10
4324.9791266579550211
 20
187.2467586783230047
 30
0.0
 40
0.0217009105746656
 50
274.4680565984987197
 51
4.2146350932592647
  0
ARC
  5
DFF4
  8
0
 10
4324.9768844103482479
 20
187.2280233851996059
 30
0.0
 40
0.0262728320947302
 50
46.2491615773733429
 51
79.4613374401127999
  0
ARC
  5
DFF5
  8
0
 10
4324.9806114403172614
 20
187.2327262960600081
 30
0.0
 40
0.0203060587167503
 50
20.2340226447281104
 51
44.6690302155714605
  0
ARC
  5
DFF6
  8
0
 10
4325.5352705070708907
 20
187.2329815321213005
 30
0.0
 40
0.55450906403986
 50
169.5470044984816127
 51
176.684306633639892
  0
ARC
  5
DFF7
  8
0
 10
4324.9908069647262892
 20
187.1392692256983992
 30
0.0
 40
0.0176680024164077
 50
48.2144100418514014
 51
105.4836579833344956
  0
ARC
  5
DFF8
  8
0
 10
4324.98919849257436
 20
187.1375686809338958
 30
0.0
 40
0.0200079095763136
 50
319.9644045430320034
 51
48.0248426545465676
  0
ARC
  5
DFF9
  8
0
 10
4324.9851205017139364
 20
187.1411046228020041
 30
0.0
 40
0.0254048837455613
 50
288.1518657518872146
 51
319.7748371557166251
  0
ARC
  5
DFFA
  8
0
 10
4324.9867306084352094
 20
187.1210438474751072
 30
0.0
 40
0.0240607775905375
 50
45.0334656296297311
 51
91.5250552741848651
  0
ARC
  5
DFFB
  8
0
 10
4324.9890731000223241
 20
187.1242492823855059
 30
0.0
 40
0.0201466188706813
 50
19.3956282489432787
 51
43.3043673234000295
  0
ARC
  5
DFFC
  8
0
 10
4325.535126074976688
 20
187.2217115882517078
 30
0.0
 40
0.554352309510175
 50
192.0730374356548111
 51
199.2138096182870015
  0
ARC
  5
DFFD
  8
0
 10
4325.016896485270081
 20
187.0143778915440009
 30
0.0
 40
0.025445688959729
 50
75.0432758139175746
 51
101.8923348568481941
  0
ARC
  5
DFFE
  8
0
 10
4325.0182709500249985
 20
187.0192838631928964
 30
0.0
 40
0.0203512853403853
 50
19.7546648958594417
 51
75.2170389108319739
  0
ARC
  5
DFFF
  8
0
 10
4325.01967756783597
 20
187.0355992883428939
 30
0.0
 40
0.0169119683503442
 50
65.6250303799124453
 51
118.3269158594063981
  0
ARC
  5
E000
  8
0
 10
4325.018338518643759
 20
187.032643939628997
 30
0.0
 40
0.0201565235988954
 50
325.963118657027394
 51
65.6250303799124453
  0
ARC
  5
E001
  8
0
 10
4325.0139093345951551
 20
187.0356356119916086
 30
0.0
 40
0.0255014066522724
 50
298.6802171750118191
 51
325.963118657027394
  0
ARC
  5
E002
  8
0
 10
4325.5356764791686146
 20
187.2218964716275025
 30
0.0
 40
0.5549330792001486
 50
203.3385456740419954
 51
210.4725344411027947
  0
ARC
  5
E003
  8
0
 10
4325.5356800232702881
 20
187.2331229144274118
 30
0.0
 40
0.5549426215000441
 50
203.3399053874078106
 51
210.4734872725927914
  0
ARC
  5
E004
  8
0
 10
4325.0686813969778086
 20
186.9367601718342087
 30
0.0
 40
0.0187154652920056
 50
31.1185526414768603
 51
127.0887955513929057
  0
ARC
  5
E005
  8
0
 10
4325.0666122842621917
 20
186.935327295973309
 30
0.0
 40
0.021227940770143
 50
305.3148648814134845
 51
31.5432433879386984
  0
ARC
  5
E006
  8
0
 10
4325.0668083070968351
 20
186.9210253536926984
 30
0.0
 40
0.0216086443372211
 50
21.7224299954905007
 51
115.8251979278155943
  0
ARC
  5
E007
  8
0
 10
4325.5342814868608912
 20
187.2206515434266123
 30
0.0
 40
0.5530701193563354
 50
214.5733823402688927
 51
221.7343665686418035
  0
ARC
  5
E008
  8
0
 10
4325.5360195529692646
 20
187.2333402967273912
 30
0.0
 40
0.5553461646000161
 50
214.5981064229017932
 51
221.7282299069831879
  0
ARC
  5
E009
  8
0
 10
4325.1356505397361616
 20
186.8510634014128868
 30
0.0
 40
0.0189295968093886
 50
42.645264246732637
 51
138.109284546195596
  0
ARC
  5
E00A
  8
0
 10
4325.1331563435769567
 20
186.849571020644504
 30
0.0
 40
0.0217833023076641
 50
317.4935503217420205
 51
41.0880298676456519
  0
ARC
  5
E00B
  8
0
 10
4325.1344803987203704
 20
186.8354442359965049
 30
0.0
 40
0.0213856757156329
 50
45.1056927062700765
 51
127.1719671529020985
  0
ARC
  5
E00C
  8
0
 10
4325.1350169671568437
 20
186.8366791130266051
 30
0.0
 40
0.0201381638439842
 50
19.2786665729265287
 51
43.7072635736217734
  0
ARC
  5
E00D
  8
0
 10
4325.5340663934903205
 20
187.2195792611144043
 30
0.0
 40
0.5521488877821809
 50
225.8126731156266942
 51
232.9875323258972912
  0
ARC
  5
E00E
  8
0
 10
4325.5363406936694446
 20
187.2336477040711031
 30
0.0
 40
0.555791147000137
 50
225.850669157993309
 51
232.9769838222642875
  0
ARC
  5
E00F
  8
0
 10
4325.2181068398676871
 20
186.7800108242223871
 30
0.0
 40
0.0191786571865979
 50
54.2036638602568033
 51
148.9337720740408031
  0
ARC
  5
E010
  8
0
 10
4325.2166243167503126
 20
186.7785510998909899
 30
0.0
 40
0.0212326408654734
 50
327.040772783922705
 51
53.2627301212357693
  0
ARC
  5
E011
  8
0
 10
4325.217540072837437
 20
186.7647718884427093
 30
0.0
 40
0.0210991489238195
 50
56.0459084875188225
 51
138.7415251603725892
  0
ARC
  5
E012
  8
0
 10
4325.2177906828028426
 20
186.7658152019317015
 30
0.0
 40
0.0200972588454833
 50
18.3471329603842186
 51
54.9771972860573115
  0
ARC
  5
E013
  8
0
 10
4325.5365814130691433
 20
187.2339896697278903
 30
0.0
 40
0.5562097392005596
 50
237.0972073940878886
 51
244.2199440242079902
  0
ARC
  5
E014
  8
0
 10
4325.5313922663090125
 20
187.2135584683319109
 30
0.0
 40
0.5456407672351058
 50
237.0281326492896881
 51
244.2890186834976873
  0
ARC
  5
E015
  8
0
 10
4325.3129089681797268
 20
186.7263528409943945
 30
0.0
 40
0.019455061349621
 50
65.7830606594368135
 51
159.5841812733613949
  0
ARC
  5
E016
  8
0
 10
4325.3128295690303275
 20
186.725787418107501
 30
0.0
 40
0.020003931395722
 50
359.4616665965634184
 51
66.2399679547938263
  0
ARC
  5
E017
  8
0
 10
4325.3061295063680518
 20
186.7260301790456936
 30
0.0
 40
0.0267065844430895
 50
340.360745430594875
 51
359.0759255211116852
  0
ARC
  5
E018
  8
0
 10
4325.3127539546821936
 20
186.7116677728809009
 30
0.0
 40
0.0207923443542031
 50
66.9667037813786976
 51
150.3952813503150878
  0
ARC
  5
E019
  8
0
 10
4325.3132825720367691
 20
186.7129111079360086
 30
0.0
 40
0.0194413009184786
 50
17.486422311662789
 51
66.9667037813786976
  0
ARC
  5
E01A
  8
0
 10
4325.5367154354962622
 20
187.2342892645706058
 30
0.0
 40
0.5565382516063319
 50
248.3382526086923008
 51
255.4581842674271002
  0
ARC
  5
E01B
  8
0
 10
4325.5367396058336453
 20
187.2231633114290901
 30
0.0
 40
0.5566158931913385
 50
248.3387498232831092
 51
255.4576870528341885
  0
ARC
  5
E01C
  8
0
 10
4325.4162680367689973
 20
186.6784940662847134
 30
0.0
 40
0.020169776668748
 50
11.6583521022019294
 51
163.0330347980016938
  0
ARC
  5
E01D
  8
0
 10
4325.4166355409897733
 20
186.6918747253945128
 30
0.0
 40
0.0200054646363043
 50
345.7064853326136245
 51
169.3267016368729969
  0
ARC
  5
E01E
  8
0
 10
4325.5367588174685807
 20
187.2344723923278025
 30
0.0
 40
0.5567266071004326
 50
259.5751696634071095
 51
266.6934942446944774
  0
ARC
  5
E01F
  8
0
 10
4325.5367456638687145
 20
187.2231991453276123
 30
0.0
 40
0.5566520855001944
 50
259.5751350451905068
 51
266.6944072369873879
  0
LINE
  5
E020
  8
0
 10
4325.5046482824691338
 20
186.6786725825081135
 30
0.0
 11
4325.5046482824691338
 21
186.6674732215136032
 31
0.0
  0
ARC
  5
E021
  8
0
 10
4325.5246511960485805
 20
186.6788926107861073
 30
0.0
 40
0.0200041236781343
 50
357.2536625872547802
 51
180.630217354811208
  0
ARC
  5
E022
  8
0
 10
4325.5246569632035971
 20
186.6654970336007011
 30
0.0
 40
0.0201060345029731
 50
6.535378049896134
 51
174.359388421521686
  0
ARC
  5
E023
  8
0
 10
4325.535400561768256
 20
187.2330125104737135
 30
0.0
 40
0.5546418574582099
 50
192.0773122759285911
 51
199.2134745260819955
  0
ARC
  5
E024
  8
0
 10
4324.9922944901145456
 20
187.3553202431224918
 30
0.0
 40
0.0218593685257759
 50
263.8799833659541036
 51
345.5973809871704248
  0
ARC
  5
E025
  8
0
 10
4324.9956683894461094
 20
187.354453808619013
 30
0.0
 40
0.0183759929438708
 50
345.5973809871704248
 51
80.7507708969120443
  0
ARC
  5
E026
  8
0
 10
4325.5354634853656535
 20
187.232952434137502
 30
0.0
 40
0.5547050854856459
 50
158.2836482383893895
 51
165.419820455917403
  0
LINE
  5
E027
  8
0
 10
4324.9986219496704507
 20
187.3725908866273926
 30
0.0
 11
4324.9986202154686907
 21
187.3613775747274133
 31
0.0
  0
ARC
  5
E028
  8
0
 10
4324.9899286483905598
 20
187.3380452365169049
 30
0.0
 40
0.0248986213401304
 50
23.1199149044362215
 51
69.5690530785952745
  0
ARC
  5
E029
  8
0
 10
4325.0265436635891092
 20
187.4589565528004869
 30
0.0
 40
0.0217256798547131
 50
252.8228370489181884
 51
334.5099400564160987
  0
ARC
  5
E02A
  8
0
 10
4325.0294723445413183
 20
187.4575602672717878
 30
0.0
 40
0.0184811790618872
 50
334.5099400564175767
 51
68.5320702695388206
  0
LINE
  5
E02B
  8
0
 10
4325.036236093568732
 20
187.4747592695273966
 30
0.0
 11
4325.0362312149682111
 21
187.4635375998273901
 31
0.0
  0
ARC
  5
E02C
  8
0
 10
4325.0220081308207227
 20
187.4407675225297965
 30
0.0
 40
0.026847207355798
 50
22.6345492528614294
 51
58.0094823713351104
  0
ARC
  5
E02D
  8
0
 10
4325.5357246703615601
 20
187.2328480376309869
 30
0.0
 40
0.5549863804304112
 50
148.1460241461140868
 51
154.1582648617433904
  0
ARC
  5
E02E
  8
0
 10
4325.5367615176692198
 20
187.2381787501194879
 30
0.0
 40
0.5097533300921638
 50
202.0584523332117897
 51
337.941547666788324
  0
LINE
  5
E02F
  8
0
 10
4325.5446323440182823
 20
186.6779341276464095
 30
0.0
 11
4325.5446323440182823
 21
186.6665738167895086
 31
0.0
  0
LINE
  5
E030
  8
0
 10
4325.6135544719691097
 20
186.6830671199273866
 30
0.0
 11
4325.6135544719691097
 21
186.6718401489245878
 31
0.0
  0
LINE
  5
E031
  8
0
 10
4325.6529404102693661
 20
186.6900024057952123
 30
0.0
 11
4325.6529404102693661
 21
186.678802489705987
 31
0.0
  0
LINE
  5
E032
  8
0
 10
4325.7195095513679917
 20
186.7085946434274035
 30
0.0
 11
4325.7195095513679917
 21
186.6973947488519912
 31
0.0
  0
LINE
  5
E033
  8
0
 10
4325.7567838358691006
 20
186.72306995480551
 30
0.0
 11
4325.7567838358691006
 21
186.7118710701400062
 31
0.0
  0
LINE
  5
E034
  8
0
 10
4325.8184417262682473
 20
186.7542741447273045
 30
0.0
 11
4325.8184417262682473
 21
186.7430742499620919
 31
0.0
  0
LINE
  5
E035
  8
0
 10
4325.8521719271693655
 20
186.7757332033559976
 30
0.0
 11
4325.8521719271693655
 21
186.7645108163501959
 31
0.0
  0
LINE
  5
E036
  8
0
 10
4325.9065490886696352
 20
186.8183501860274021
 30
0.0
 11
4325.9065490886696352
 21
186.8071299105124012
 31
0.0
  0
LINE
  5
E037
  8
0
 10
4325.9354389733689459
 20
186.8459683323237073
 30
0.0
 11
4325.9354389733689459
 21
186.8347494223629042
 31
0.0
  0
LINE
  5
E038
  8
0
 10
4325.9804457221680423
 20
186.8983603611575006
 30
0.0
 11
4325.9804457221680423
 21
186.8871668067791916
 31
0.0
  0
LINE
  5
E039
  8
0
 10
4326.0033850684685603
 20
186.9310762452012966
 30
0.0
 11
4326.0033850684685603
 21
186.9198615659886116
 31
0.0
  0
LINE
  5
E03A
  8
0
 10
4326.0372918204693633
 20
186.991229923866598
 30
0.0
 11
4326.0372918204693633
 21
186.9800344877045859
 31
0.0
  0
LINE
  5
E03B
  8
0
 10
4326.0533990822686974
 20
187.0277862929482069
 30
0.0
 11
4326.0533990822686974
 21
187.0165764516723925
 31
0.0
  0
LINE
  5
E03C
  8
0
 10
4326.0749028199688837
 20
187.0933899489180874
 30
0.0
 11
4326.0749028199688837
 21
187.0821834369077976
 31
0.0
  0
LINE
  5
E03D
  8
0
 10
4326.0835590041697287
 20
187.1323819619273934
 30
0.0
 11
4326.0835590041697287
 21
187.1211820673987916
 31
0.0
  0
LINE
  5
E03E
  8
0
 10
4326.0918333509689546
 20
187.2009144840274075
 30
0.0
 11
4326.0918333509689546
 21
187.1897145884487941
 31
0.0
  0
LINE
  5
E03F
  8
0
 10
4326.092705805269361
 20
187.2408436997274066
 30
0.0
 11
4326.092705805269361
 21
187.2296438051274095
 31
0.0
  0
LINE
  5
E040
  8
0
 10
4326.0804879791694475
 20
187.3378034879274026
 30
0.0
 11
4326.0804879791694475
 21
187.3490087789363088
 31
0.0
  0
LINE
  5
E041
  8
0
 10
4326.0473750501687391
 20
187.4527151701983883
 30
0.0
 11
4326.0473750501687391
 21
187.4415045997274092
 31
0.0
  0
ARC
  5
E042
  8
0
 10
4326.002536837298976
 20
187.5513913390130085
 30
0.0
 40
0.039499087849893
 50
279.7139857227355719
 51
290.1168134482146002
  0
ARC
  5
E043
  8
0
 10
4325.5378465562689598
 20
187.2328710520272921
 30
0.0
 40
0.5549330792001154
 50
23.338545674042031
 51
30.4737704709897095
  0
ARC
  5
E044
  8
0
 10
4326.0525842972529063
 20
187.4358653742980891
 30
0.0
 40
0.0176366628666389
 50
107.1794057859093954
 51
181.943758167362688
  0
ARC
  5
E045
  8
0
 10
4326.056112587073585
 20
187.4359952054965959
 30
0.0
 40
0.0211673285972292
 50
181.9710489408898866
 51
243.6119172815442084
  0
ARC
  5
E046
  8
0
 10
4326.0563274467513111
 20
187.4364282636516066
 30
0.0
 40
0.0216507580607982
 50
243.6119172815442084
 51
284.8255542292212112
  0
ARC
  5
E047
  8
0
 10
4325.5381193145685756
 20
187.2329687690273943
 30
0.0
 40
0.5546431756000576
 50
12.0763889145053298
 51
19.2137682724032715
  0
ARC
  5
E048
  8
0
 10
4326.0616308662292795
 20
187.4169687360804062
 30
0.0
 40
0.028376696362164
 50
120.1574245170409938
 51
154.3570208303565039
  0
ARC
  5
E049
  8
0
 10
4326.0823565637983847
 20
187.3310556457641098
 30
0.0
 40
0.0180501135513286
 50
95.942021805363467
 51
181.933628538881095
  0
ARC
  5
E04A
  8
0
 10
4326.0857542723606457
 20
187.3311651948422139
 30
0.0
 40
0.0214495844059622
 50
181.9198504899923137
 51
232.6714158556422944
  0
ARC
  5
E04B
  8
0
 10
4326.0867959811694163
 20
187.3340811773310008
 30
0.0
 40
0.0244180610143235
 50
234.8773238749793961
 51
271.494393080061684
  0
ARC
  5
E04C
  8
0
 10
4325.538271883082416
 20
187.2329833127126903
 30
0.0
 40
0.5544896389982302
 50
0.8122461719080465
 51
7.9497151507681352
  0
ARC
  5
E04D
  8
0
 10
4326.0884282613087635
 20
187.313793203597811
 30
0.0
 40
0.0252891643603282
 50
108.2992251961995009
 51
155.4262722901113989
  0
ARC
  5
E04E
  8
0
 10
4326.0901530881646977
 20
187.2259072280226917
 30
0.0
 40
0.0151530377020045
 50
80.3015682099305224
 51
114.9902338476654933
  0
ARC
  5
E04F
  8
0
 10
4326.0920027790371023
 20
187.222116705148494
 30
0.0
 40
0.0193702643227361
 50
115.212563433115605
 51
179.2990452884662886
  0
ARC
  5
E050
  8
0
 10
4326.0931636263985638
 20
187.2221025026709071
 30
0.0
 40
0.0205311985625194
 50
179.2990452884679087
 51
223.6681162093522914
  0
ARC
  5
E051
  8
0
 10
4326.0952998069924433
 20
187.2241416080914007
 30
0.0
 40
0.0234843694750391
 50
223.6681162093522914
 51
261.5117291396489918
  0
ARC
  5
E052
  8
0
 10
4325.5382525408685979
 20
187.2217859896273922
 30
0.0
 40
0.5545090514000595
 50
349.5470044578033253
 51
356.684306755300895
  0
ARC
  5
E053
  8
0
 10
4325.5382525458371674
 20
187.2329858830647993
 30
0.0
 40
0.5545090463169894
 50
349.5470044903025837
 51
356.6843068554920251
  0
ARC
  5
E054
  8
0
 10
4326.0960971937502109
 20
187.2044995729640959
 30
0.0
 40
0.0253719121649734
 50
97.6815485247809647
 51
135.4020171551113094
  0
ARC
  5
E055
  8
0
 10
4326.0903656456448516
 20
187.2101512491030917
 30
0.0
 40
0.0173225589701588
 50
135.4020171551113094
 51
162.8858136319518053
  0
ARC
  5
E056
  8
0
 10
4326.0779963346203658
 20
187.1162530385281002
 30
0.0
 40
0.0170612268972817
 50
70.9713087346364517
 51
122.8226978964732012
  0
ARC
  5
E057
  8
0
 10
4326.0791825912501736
 20
187.1140339001564996
 30
0.0
 40
0.019570168188984
 50
122.2196040015461023
 51
167.7753675444446912
  0
ARC
  5
E058
  8
0
 10
4326.0797220953963915
 20
187.1138475687135951
 30
0.0
 40
0.0201370081732434
 50
167.5822594787937021
 51
218.6881844989399895
  0
ARC
  5
E059
  8
0
 10
4326.0867635968288596
 20
187.1212962941121987
 30
0.0
 40
0.0303223041640349
 50
221.3584522512242927
 51
246.973499094806499
  0
ARC
  5
E05A
  8
0
 10
4325.5380694790810594
 20
187.2330284798781008
 30
0.0
 40
0.554697174337778
 50
338.2839121270238252
 51
345.4195995288096128
  0
ARC
  5
E05B
  8
0
 10
4325.5380676488694007
 20
187.221812152527292
 30
0.0
 40
0.5546964747996163
 50
338.2846045058616937
 51
345.420628315835188
  0
ARC
  5
E05C
  8
0
 10
4326.044686824904602
 20
187.0128881886660963
 30
0.0
 40
0.0172585322007942
 50
59.6813453624194068
 51
111.343675321736896
  0
ARC
  5
E05D
  8
0
 10
4326.0454214221872462
 20
187.010544353710003
 30
0.0
 40
0.0197097013137173
 50
110.8528220501818993
 51
156.3399209097462119
  0
ARC
  5
E05E
  8
0
 10
4326.0458470175335606
 20
187.0103621073797058
 30
0.0
 40
0.0201726597389143
 50
156.3509081790749065
 51
213.1597195451265918
  0
ARC
  5
E05F
  8
0
 10
4326.0543705956297345
 20
187.0171380693452932
 30
0.0
 40
0.0310308969114236
 50
215.0254919759395875
 51
236.6069353910305892
  0
ARC
  5
E060
  8
0
 10
4326.0817908627795987
 20
187.0976883247919886
 30
0.0
 40
0.0235601837631622
 50
85.6960277935823882
 51
137.0122878560779895
  0
ARC
  5
E061
  8
0
 10
4326.0796517437584043
 20
187.1005216941638025
 30
0.0
 40
0.0200729044898302
 50
138.7653514063501063
 51
160.6032479956062105
  0
ARC
  5
E062
  8
0
 10
4325.5377699600303458
 20
187.2331618842852947
 30
0.0
 40
0.5550253710844643
 50
327.0249642287238885
 51
334.1578366769854824
  0
ARC
  5
E063
  8
0
 10
4325.9919550341473951
 20
186.9184423569163869
 30
0.0
 40
0.0170370426466576
 50
47.8639676750161271
 51
100.7064045528972969
  0
ARC
  5
E064
  8
0
 10
4325.9920886506633906
 20
186.9155781406348922
 30
0.0
 40
0.0198802624431344
 50
99.5511646261124952
 51
180.1084403833536953
  0
ARC
  5
E065
  8
0
 10
4325.9957262693142184
 20
186.9162516916952086
 30
0.0
 40
0.0235285959945158
 50
181.732090694380787
 51
229.5001716606086006
  0
ARC
  5
E066
  8
0
 10
4325.5393319463546504
 20
187.2209896777559095
 30
0.0
 40
0.5531938537622866
 50
327.0201096860477037
 51
334.178368094304119
  0
ARC
  5
E067
  8
0
 10
4325.9927862864833514
 20
186.8982255686574945
 30
0.0
 40
0.0240925415864026
 50
63.9012466575960474
 51
100.4676970667902935
  0
ARC
  5
E068
  8
0
 10
4325.9919939667479412
 20
186.9026026335450013
 30
0.0
 40
0.019644379064356
 50
100.5146452500814007
 51
161.35161242782209
  0
ARC
  5
E069
  8
0
 10
4325.5374279418056176
 20
187.233402242223292
 30
0.0
 40
0.5554438007449405
 50
315.7715216873398845
 51
322.9008091340427882
  0
ARC
  5
E06A
  8
0
 10
4325.5400376464476722
 20
187.2197805190872089
 30
0.0
 40
0.5518977756572579
 50
315.7612900726621774
 51
322.9384448782629988
  0
ARC
  5
E06B
  8
0
 10
4325.9209197913633034
 20
186.8157902752182054
 30
0.0
 40
0.0238800315448666
 50
52.5545987970381319
 51
89.1929415066672249
  0
ARC
  5
E06C
  8
0
 10
4325.9213126476643083
 20
186.8349428072976082
 30
0.0
 40
0.0179196897304057
 50
37.9718560298942833
 51
88.4422456711145344
  0
ARC
  5
E06D
  8
0
 10
4325.9212544067540875
 20
186.832801175588088
 30
0.0
 40
0.020062113213889
 50
88.4422456711145344
 51
156.6055378270453105
  0
ARC
  5
E06E
  8
0
 10
4325.9230038124424027
 20
186.8325866699003939
 30
0.0
 40
0.0217585708980266
 50
157.9163417534047937
 51
220.8660744854900031
  0
ARC
  5
E06F
  8
0
 10
4325.9213714484858428
 20
186.8194709853223969
 30
0.0
 40
0.0201972815531742
 50
90.3270805435119541
 51
161.1052700563845121
  0
ARC
  5
E070
  8
0
 10
4325.5371203404693006
 20
187.2337232167272134
 30
0.0
 40
0.555888796999721
 50
304.5241044373764225
 51
311.6495841114934251
  0
ARC
  5
E071
  8
0
 10
4325.5371368489686574
 20
187.222459187827809
 30
0.0
 40
0.5558451326005083
 50
304.5251351671251996
 51
311.6513098253277008
  0
ARC
  5
E072
  8
0
 10
4325.8352941271650707
 20
186.7664953994334951
 30
0.0
 40
0.0192405082253408
 50
28.6934133378355511
 51
123.2164598736909937
  0
ARC
  5
E073
  8
0
 10
4325.8363871357751123
 20
186.7651364703845047
 30
0.0
 40
0.0209768405873637
 50
123.6807793151793931
 51
211.1864477825072015
  0
ARC
  5
E074
  8
0
 10
4325.8358334211334295
 20
186.7515272563479982
 30
0.0
 40
0.0208691065887911
 50
38.4727670429626727
 51
159.1038608022257961
  0
ARC
  5
E075
  8
0
 10
4325.5369025265690652
 20
187.2340627470277923
 30
0.0
 40
0.5562925704004781
 50
293.282314806723889
 51
300.404343919204905
  0
ARC
  5
E076
  8
0
 10
4325.7382257020217367
 20
186.7170122882089061
 30
0.0
 40
0.0195217738993978
 50
18.0774965213480883
 51
111.6345739570671043
  0
ARC
  5
E077
  8
0
 10
4325.7385868074898099
 20
186.7161018454071097
 30
0.0
 40
0.0205012141750485
 50
111.6345739570671043
 51
201.480422318405914
  0
ARC
  5
E078
  8
0
 10
4325.5369778741687696
 20
187.2227305058272009
 30
0.0
 40
0.5561402914997803
 50
293.2806147927844904
 51
300.4045494534054797
  0
ARC
  5
E079
  8
0
 10
4325.7383249831509602
 20
186.7024858899087008
 30
0.0
 40
0.020707748589346
 50
26.9505090060854116
 51
110.6320110223206967
  0
ARC
  5
E07A
  8
0
 10
4325.7382116581184164
 20
186.7032541819702942
 30
0.0
 40
0.0199494804599351
 50
111.1049334729543006
 51
162.1494331358670138
  0
ARC
  5
E07B
  8
0
 10
4325.5367914721700799
 20
187.2343422644271982
 30
0.0
 40
0.5565936195997793
 50
282.0449008883122133
 51
289.1643600144778929
  0
ARC
  5
E07C
  8
0
 10
4325.5367697413830683
 20
187.2232195448231948
 30
0.0
 40
0.5566736514440889
 50
282.0454302471744086
 51
289.1638650998290245
  0
ARC
  5
E07D
  8
0
 10
4325.6332937915512957
 20
186.6873797593480901
 30
0.0
 40
0.0198208955759287
 50
7.6035184347746849
 51
100.0439973388515966
  0
ARC
  5
E07E
  8
0
 10
4325.6333587834160426
 20
186.6870128200824013
 30
0.0
 40
0.0201935460384287
 50
100.0439973388515966
 51
191.2677478916355085
  0
ARC
  5
E07F
  8
0
 10
4325.6332920011045644
 20
186.6735646493021932
 30
0.0
 40
0.0203345753524311
 50
14.9266925986317194
 51
99.7826218728634871
  0
ARC
  5
E080
  8
0
 10
4325.6333551994903246
 20
186.6737537613491043
 30
0.0
 40
0.0201591722499784
 50
100.0509565751047063
 51
169.1792342504325006
  0
ARC
  5
E081
  8
0
 10
4325.5367581810260162
 20
187.2232612762601036
 30
0.0
 40
0.5567431454222388
 50
270.8103761182154017
 51
277.9285712033804998
  0
ARC
  5
E082
  8
0
 10
4325.536762232673027
 20
187.2344919047739893
 30
0.0
 40
0.556746209197617
 50
270.8099546541085942
 51
277.9281063131367091
  0
ARC
  5
E083
  8
0
 10
4325.5337166114750289
 20
187.2353989190131074
 30
0.0
 40
0.511544906193897
 50
338.3581970380226949
 51
21.6418029619758201
  0
ARC
  5
E084
  8
0
 10
4325.53788873580379
 20
187.2378170245818012
 30
0.0
 40
0.4713127822236448
 50
338.584557069972675
 51
359.997762272759303
  0
ARC
  5
E085
  8
0
 10
4326.0471116030266785
 20
186.9950969732880139
 30
0.0
 40
0.0223808039823143
 50
73.6841755068000595
 51
139.6642421238709062
  0
ARC
  5
E086
  8
0
 10
4326.0425625797097382
 20
186.9989680850605964
 30
0.0
 40
0.0164076085324333
 50
139.6865377793513971
 51
163.4951013034452103
  0
ARC
  5
E087
  8
0
 10
4321.5367615176692198
 20
192.5482752575273935
 30
0.0
 40
0.6500000000000004
 50
205.5163873662307878
 51
334.4836126337692122
  0
ARC
  5
E088
  8
0
 10
4321.5367615176692198
 20
192.5482752575273935
 30
0.0
 40
0.6500000000000004
 50
25.5163873662308305
 51
154.4836126337692122
  0
ARC
  5
E089
  8
0
 10
4321.5367615176692198
 20
192.5482752575273935
 30
0.0
 40
0.8609999999999997
 50
198.9778894027458875
 51
341.0221105972540272
  0
ARC
  5
E08A
  8
0
 10
4321.5367615176692198
 20
192.5482752575273935
 30
0.0
 40
0.8609999999999997
 50
18.9778894027459799
 51
161.0221105972524072
  0
ARC
  5
E08B
  8
0
 10
4321.5367615176692198
 20
192.5482752575273935
 30
0.0
 40
1.0259999999999989
 50
195.8371739011801935
 51
164.1628260988198065
  0
ARC
  5
E08C
  8
0
 10
4321.5367615176692198
 20
192.5482752575273935
 30
0.0
 40
0.7387365101999999
 50
202.2733350268989909
 51
337.7266649731009807
  0
ARC
  5
E08D
  8
0
 10
4321.5367615176692198
 20
192.5482752575273935
 30
0.0
 40
0.7387365101999999
 50
22.2733350268990193
 51
157.7266649731010091
  0
CIRCLE
  5
E08E
  8
0
 10
4321.5367615176692198
 20
192.5482752575273935
 30
0.0
 40
0.3885000000000005
  0
ARC
  5
E08F
  8
0
 10
4321.5367615176692198
 20
192.5482752575273935
 30
0.0
 40
0.4620000000000001
 50
314.480530494730715
 51
321.5194695100335025
  0
ARC
  5
E090
  8
0
 10
4321.5367615176692198
 20
192.5482752575273935
 30
0.0
 40
0.4620000000000001
 50
302.4805304947062154
 51
309.5194695100287845
  0
ARC
  5
E091
  8
0
 10
4321.5367615176692198
 20
192.5482752575273935
 30
0.0
 40
0.4620000000000001
 50
290.4805304947155946
 51
297.5194695100046829
  0
ARC
  5
E092
  8
0
 10
4321.5367615176692198
 20
192.5482752575273935
 30
0.0
 40
0.4620000000000001
 50
278.480530494706727
 51
285.5194695100328204
  0
ARC
  5
E093
  8
0
 10
4321.5367615176692198
 20
192.5482752575273935
 30
0.0
 40
0.4620000000000001
 50
266.4805304947024069
 51
273.5194695099966111
  0
ARC
  5
E094
  8
0
 10
4321.5367615176692198
 20
192.5482752575273935
 30
0.0
 40
0.4620000000000001
 50
254.4805304947250875
 51
261.5194695100352078
  0
ARC
  5
E095
  8
0
 10
4321.5367615176692198
 20
192.5482752575273935
 30
0.0
 40
0.4620000000000001
 50
242.4805304947051923
 51
249.5194695100144884
  0
ARC
  5
E096
  8
0
 10
4321.5367615176692198
 20
192.5482752575273935
 30
0.0
 40
0.4620000000000001
 50
230.480530494705306
 51
237.5194695100024092
  0
ARC
  5
E097
  8
0
 10
4321.5367615176692198
 20
192.5482752575273935
 30
0.0
 40
0.4620000000000001
 50
218.4805304947225011
 51
225.519469510014801
  0
ARC
  5
E098
  8
0
 10
4321.5367615176692198
 20
192.5482752575273935
 30
0.0
 40
0.4620000000000001
 50
134.4805304947306013
 51
141.5194695100333888
  0
ARC
  5
E099
  8
0
 10
4321.5367615176692198
 20
192.5482752575273935
 30
0.0
 40
0.4620000000000001
 50
122.4805304947061018
 51
129.5194695100286992
  0
ARC
  5
E09A
  8
0
 10
4321.5367615176692198
 20
192.5482752575273935
 30
0.0
 40
0.4620000000000001
 50
110.4805304947154951
 51
117.5194695100046971
  0
ARC
  5
E09B
  8
0
 10
4321.5367615176692198
 20
192.5482752575273935
 30
0.0
 40
0.4620000000000001
 50
98.4805304947067413
 51
105.5194695100328062
  0
ARC
  5
E09C
  8
0
 10
4321.5367615176692198
 20
192.5482752575273935
 30
0.0
 40
0.4620000000000001
 50
86.4805304947023785
 51
93.5194695099965969
  0
ARC
  5
E09D
  8
0
 10
4321.5367615176692198
 20
192.5482752575273935
 30
0.0
 40
0.4620000000000001
 50
74.4805304947251301
 51
81.5194695100351368
  0
ARC
  5
E09E
  8
0
 10
4321.5367615176692198
 20
192.5482752575273935
 30
0.0
 40
0.4620000000000001
 50
62.4805304947051781
 51
69.5194695100144315
  0
ARC
  5
E09F
  8
0
 10
4321.5367615176692198
 20
192.5482752575273935
 30
0.0
 40
0.4620000000000001
 50
50.4805304947053131
 51
57.5194695100024234
  0
ARC
  5
E0A0
  8
0
 10
4321.5367615176692198
 20
192.5482752575273935
 30
0.0
 40
0.4620000000000001
 50
38.4805304947212719
 51
45.5194695100148579
  0
ARC
  5
E0A1
  8
0
 10
4321.8458998577689272
 20
192.2049423482274051
 30
0.0
 40
0.0200000000000002
 50
43.2402650259600634
 51
220.7597349788121051
  0
ARC
  5
E0A2
  8
0
 10
4321.7677615176471591
 20
192.1481715210557866
 30
0.0
 40
0.0200000000000002
 50
31.2402650259414898
 51
208.7597349787941141
  0
ARC
  5
E0A3
  8
0
 10
4321.6795273690649992
 20
192.1088871470788035
 30
0.0
 40
0.0200000000000002
 50
19.2402650259479984
 51
196.7597349788011059
  0
ARC
  5
E0A4
  8
0
 10
4321.5850536677098717
 20
192.0888061419464918
 30
0.0
 40
0.0200000000000002
 50
7.2402650259498493
 51
184.7597349787965015
  0
ARC
  5
E0A5
  8
0
 10
4321.4884693676658571
 20
192.0888061419425128
 30
0.0
 40
0.0200000000000002
 50
355.2402650259490997
 51
172.75973497879761
  0
ARC
  5
E0A6
  8
0
 10
4321.3939956663107296
 20
192.1088871470670085
 30
0.0
 40
0.0200000000000002
 50
343.2402650259534198
 51
160.7597349787951941
  0
ARC
  5
E0A7
  8
0
 10
4321.3057615177249318
 20
192.1481715210366872
 30
0.0
 40
0.0200000000000002
 50
331.2402650259535903
 51
148.759734978795592
  0
ARC
  5
E0A8
  8
0
 10
4321.2276231775967972
 20
192.2049423482017971
 30
0.0
 40
0.0200000000000002
 50
319.2402650259502934
 51
136.759734978806307
  0
ARC
  5
E0A9
  8
0
 10
4321.1629956663418852
 20
192.2767184709983894
 30
0.0
 40
0.0200000000000002
 50
307.2402650259355141
 51
335.0289248175192256
  0
ARC
  5
E0AA
  8
0
 10
4321.1629956663200574
 20
192.8198320440253042
 30
0.0
 40
0.0200000000000003
 50
24.9710752802751408
 51
52.7597349787888916
  0
ARC
  5
E0AB
  8
0
 10
4321.2276231775686028
 20
192.8916081668272966
 30
0.0
 40
0.0200000000000003
 50
223.2402650259600136
 51
40.7597349788120766
  0
ARC
  5
E0AC
  8
0
 10
4321.3057615176912805
 20
192.9483789939988867
 30
0.0
 40
0.0200000000000003
 50
211.2402650259415111
 51
28.7597349787955814
  0
ARC
  5
E0AD
  8
0
 10
4321.3939956662743498
 20
192.9876633679758982
 30
0.0
 40
0.0200000000000003
 50
199.2402650259479913
 51
16.7597349788011307
  0
ARC
  5
E0AE
  8
0
 10
4321.4884693676276584
 20
193.0077443731082099
 30
0.0
 40
0.0200000000000003
 50
187.2402650259481902
 51
4.75973497879649
  0
ARC
  5
E0AF
  8
0
 10
4321.5850536676707634
 20
193.0077443731121889
 30
0.0
 40
0.0200000000000003
 50
175.2402650259492134
 51
352.7597349787977237
  0
ARC
  5
E0B0
  8
0
 10
4321.6795273690277099
 20
192.9876633679876932
 30
0.0
 40
0.0200000000000003
 50
163.2402650259533914
 51
340.7597349787952226
  0
ARC
  5
E0B1
  8
0
 10
4321.7677615176125983
 20
192.9483789940179861
 30
0.0
 40
0.0200000000000003
 50
151.2402650259535903
 51
328.7597349787956205
  0
ARC
  5
E0B2
  8
0
 10
4321.8458998577398233
 20
192.8916081668529898
 30
0.0
 40
0.0200000000000003
 50
139.2402650259502934
 51
316.759734978806307
  0
ARC
  5
E0B3
  8
0
 10
4321.9105273689965543
 20
192.8198320440563123
 30
0.0
 40
0.0200000000000003
 50
127.2402650259354004
 51
155.0289248175147918
  0
ARC
  5
E0B4
  8
0
 10
4321.9105273690192917
 20
192.2767184710293975
 30
0.0
 40
0.0200000000000004
 50
204.9710752802751017
 51
232.7597349787889129
  0
LINE
  5
E0B5
  8
0
 10
4322.4117615176701293
 20
192.8282752575273946
 30
0.0
 11
4321.8060796381141699
 21
192.8282752575273946
 31
0.0
  0
LINE
  5
E0B6
  8
0
 10
4321.2674433972242696
 20
192.8282752575273946
 30
0.0
 11
4318.9951805176697235
 21
192.8282752575273946
 31
0.0
  0
LINE
  5
E0B7
  8
0
 10
4322.4117615176701293
 20
192.2682752575273923
 30
0.0
 11
4321.8060796381141699
 21
192.2682752575273923
 31
0.0
  0
LINE
  5
E0B8
  8
0
 10
4321.2674433972242696
 20
192.2682752575273923
 30
0.0
 11
4318.9951805176697235
 21
192.2682752575273923
 31
0.0
  0
LINE
  5
E0B9
  8
0
 10
4322.4317615176687468
 20
192.2882752575274026
 30
0.0
 11
4322.4317615176687468
 21
192.8082752575274128
 31
0.0
  0
ARC
  5
E0BA
  8
0
 10
4322.4117615176701293
 20
192.2882752575274026
 30
0.0
 40
0.0200000000000014
 50
270.0
 51
0.0000011459099855
  0
ARC
  5
E0BB
  8
0
 10
4322.4117615176701293
 20
192.8082752575274128
 30
0.0
 40
0.0200000000000014
 50
359.9999988540868117
 51
90.0
  0
LINE
  5
E0BC
  8
0
 10
4322.4317615176687468
 20
192.8082752571274057
 30
0.0
 11
4322.4317615072677654
 21
192.2882548610733124
 31
0.0
  0
LINE
  5
E0BD
  8
0
 10
4318.9751805176692869
 20
192.8082752575274128
 30
0.0
 11
4318.9751805176692869
 21
192.2882752575274026
 31
0.0
  0
LINE
  5
E0BE
  8
0
 10
4320.7917928189890517
 20
192.8267887422096862
 30
0.0
 11
4318.9951805075479569
 21
192.8267887422096862
 31
0.0
  0
LINE
  5
E0BF
  8
0
 10
4320.7777753927366575
 20
192.8198472463186874
 30
0.0
 11
4318.9946695832941259
 21
192.8198472463186874
 31
0.0
  0
LINE
  5
E0C0
  8
0
 10
4320.7947470722865546
 20
192.7945615765711125
 30
0.0
 11
4318.9951805176697235
 21
192.7945615765711125
 31
0.0
  0
LINE
  5
E0C1
  8
0
 10
4320.7930018452843797
 20
192.7730833032337046
 30
0.0
 11
4318.995180517668814
 21
192.7730833032337046
 31
0.0
  0
LINE
  5
E0C2
  8
0
 10
4320.7890625768413884
 20
192.7248395514490937
 30
0.0
 11
4318.9947042594940285
 21
192.7248395514490937
 31
0.0
  0
LINE
  5
E0C3
  8
0
 10
4320.7890625818581611
 20
192.6920943730798967
 30
0.0
 11
4318.995180517668814
 21
192.6920943730798967
 31
0.0
  0
LINE
  5
E0C4
  8
0
 10
4320.7853526955896086
 20
192.6282372131367993
 30
0.0
 11
4318.9951805176697235
 21
192.6282372131367993
 31
0.0
  0
LINE
  5
E0C5
  8
0
 10
4320.7853526955896086
 20
192.5892102863068089
 30
0.0
 11
4318.9951805169566796
 21
192.5892102863068089
 31
0.0
  0
ARC
  5
E0C6
  8
0
 10
4320.7834866655011865
 20
190.163245608085191
 30
0.0
 40
2.663556085298008
 50
87.3826776606825035
 51
89.8213259661287111
  0
ARC
  5
E0C7
  8
0
 10
4320.7764779617937165
 20
194.8031565626957047
 30
0.0
 40
1.983309740750212
 50
270.0374814488038169
 51
273.7188883136175832
  0
ARC
  5
E0C8
  8
0
 10
4320.7849962614091055
 20
192.0865174366319934
 30
0.0
 40
0.7081112782711866
 50
80.2332991864025757
 51
89.2110025857415536
  0
ARC
  5
E0C9
  8
0
 10
4320.7841224728817906
 20
193.4240183452361066
 30
0.0
 40
0.6509956007231722
 50
270.7815203955778998
 51
280.7114068735817227
  0
ARC
  5
E0CA
  8
0
 10
4320.7821215479880266
 20
192.2561292000071091
 30
0.0
 40
0.46876174271208
 50
74.7883258253132652
 51
89.1515813762696183
  0
ARC
  5
E0CB
  8
0
 10
4320.7821215479880266
 20
193.1608047244477007
 30
0.0
 40
0.46876174271208
 50
270.8484192369783727
 51
285.2116741746867206
  0
ARC
  5
E0CC
  8
0
 10
4320.7802666070092528
 20
192.2197302776226877
 30
0.0
 40
0.4085385962919077
 50
72.2054448747598343
 51
89.2866795433991882
  0
ARC
  5
E0CD
  8
0
 10
4320.7802666068919279
 20
192.9977172223210005
 30
0.0
 40
0.4085385967934255
 50
270.7133204722351252
 51
287.7945551199866827
  0
ARC
  5
E0CE
  8
0
 10
4318.9951805176697235
 20
192.8082752575274128
 30
0.0
 40
0.0200000000000005
 50
90.0
 51
179.9999999999951115
  0
ARC
  5
E0CF
  8
0
 10
4318.9952154462889666
 20
192.8067460747230086
 30
0.0
 40
0.0200426979396476
 50
90.0998789407371561
 51
178.4046165916944915
  0
ARC
  5
E0D0
  8
0
 10
4318.9949250508270779
 20
192.7993792263825981
 30
0.0
 40
0.0204696141577849
 50
90.7150887818711453
 51
164.7044024516233947
  0
ARC
  5
E0D1
  8
0
 10
4318.9967142491814229
 20
192.7728923441943891
 30
0.0
 40
0.0217234427323317
 50
94.0485992232960655
 51
172.4223179575525933
  0
ARC
  5
E0D2
  8
0
 10
4318.9955697100849648
 20
192.7462917554630053
 30
0.0
 40
0.0267943744597213
 50
90.8322592903450357
 51
139.5480629250463949
  0
ARC
  5
E0D3
  8
0
 10
4318.9949423876432775
 20
192.7042766882217109
 30
0.0
 40
0.0205642420021944
 50
90.6634838710145914
 51
163.9419990004022054
  0
ARC
  5
E0D4
  8
0
 10
4318.9967865740582056
 20
192.6400436504679874
 30
0.0
 40
0.0520754946356884
 50
91.7673350462180935
 51
108.3910339094840936
  0
ARC
  5
E0D5
  8
0
 10
4318.9791122462802377
 20
192.6932024126159035
 30
0.0
 40
0.0039444648030117
 50
184.6055373991434863
 51
288.3910341094294836
  0
ARC
  5
E0D6
  8
0
 10
4318.9952502297683168
 20
192.607891309159811
 30
0.0
 40
0.0203460234055779
 50
90.1963143744600586
 51
170.5465590544598058
  0
LINE
  5
E0D7
  8
0
 10
4318.9951805169566796
 20
192.5892102863068089
 30
0.0
 11
4318.9836788320690175
 21
192.5888783007274014
 31
0.0
  0
ARC
  5
E0D8
  8
0
 10
4318.9828036309618255
 20
192.5985435795120111
 30
0.0
 40
0.0097048230773271
 50
218.2332949077894
 51
275.174081959461887
  0
LINE
  5
E0D9
  8
0
 10
4320.7917928189890517
 20
192.269761772844987
 30
0.0
 11
4318.9951805075479569
 21
192.269761772844987
 31
0.0
  0
LINE
  5
E0DA
  8
0
 10
4320.7777753927366575
 20
192.2767032687359858
 30
0.0
 11
4318.9946695832941259
 21
192.2767032687359858
 31
0.0
  0
LINE
  5
E0DB
  8
0
 10
4320.7947470722865546
 20
192.3019889384835892
 30
0.0
 11
4318.9951805176697235
 21
192.3019889384835892
 31
0.0
  0
LINE
  5
E0DC
  8
0
 10
4320.7930018452843797
 20
192.3234672118209971
 30
0.0
 11
4318.995180517668814
 21
192.3234672118209971
 31
0.0
  0
LINE
  5
E0DD
  8
0
 10
4320.7890625768413884
 20
192.371710963605608
 30
0.0
 11
4318.9947042594940285
 21
192.371710963605608
 31
0.0
  0
LINE
  5
E0DE
  8
0
 10
4320.7890625818581611
 20
192.404456141974805
 30
0.0
 11
4318.995180517668814
 21
192.404456141974805
 31
0.0
  0
LINE
  5
E0DF
  8
0
 10
4320.7853526955896086
 20
192.4683133019179024
 30
0.0
 11
4318.9951805176697235
 21
192.4683133019179024
 31
0.0
  0
LINE
  5
E0E0
  8
0
 10
4320.7853526955896086
 20
192.5073402287480064
 30
0.0
 11
4318.9951805169566796
 21
192.5073402287480064
 31
0.0
  0
ARC
  5
E0E1
  8
0
 10
4320.7834866655011865
 20
194.933304906969596
 30
0.0
 40
2.663556085298008
 50
270.1786740338712889
 51
272.6173223393175249
  0
ARC
  5
E0E2
  8
0
 10
4320.7764779617937165
 20
190.293393952358997
 30
0.0
 40
1.983309740750212
 50
86.2811116863824168
 51
89.9625185511961547
  0
ARC
  5
E0E3
  8
0
 10
4320.7849962614091055
 20
193.0100330784227083
 30
0.0
 40
0.7081112782711866
 50
270.7889974142584038
 51
279.7667008135974243
  0
ARC
  5
E0E4
  8
0
 10
4320.7841224728817906
 20
191.6725321698185951
 30
0.0
 40
0.6509956007231722
 50
79.2885931264183768
 51
89.2184796044220718
  0
ARC
  5
E0E5
  8
0
 10
4320.7821215479880266
 20
192.8404213150477062
 30
0.0
 40
0.46876174271208
 50
270.8484186237304243
 51
285.2116741746867206
  0
ARC
  5
E0E6
  8
0
 10
4320.7821215479880266
 20
191.935745790607001
 30
0.0
 40
0.46876174271208
 50
74.7883258253132652
 51
89.1515807630215704
  0
ARC
  5
E0E7
  8
0
 10
4320.7802666070092528
 20
192.876820237432014
 30
0.0
 40
0.4085385962919077
 50
270.7133204566007976
 51
287.7945551252402083
  0
ARC
  5
E0E8
  8
0
 10
4320.7802666068919279
 20
192.0988332927337865
 30
0.0
 40
0.4085385967934255
 50
72.2054448800132889
 51
89.2866795277649032
  0
ARC
  5
E0E9
  8
0
 10
4318.9951805176697235
 20
192.2882752575274026
 30
0.0
 40
0.0200000000000005
 50
180.0000000000048885
 51
270.0
  0
ARC
  5
E0EA
  8
0
 10
4318.9952154462889666
 20
192.2898044403318067
 30
0.0
 40
0.0200426979396476
 50
181.5953834083053948
 51
269.900121059262915
  0
ARC
  5
E0EB
  8
0
 10
4318.9949250508270779
 20
192.2971712886721889
 30
0.0
 40
0.0204696141577849
 50
195.2955975483764917
 51
269.2849112181287978
  0
ARC
  5
E0EC
  8
0
 10
4318.9967142491814229
 20
192.3236581708603126
 30
0.0
 40
0.0217234427323317
 50
187.5776820424474067
 51
265.9514007767039061
  0
ARC
  5
E0ED
  8
0
 10
4318.9955697100849648
 20
192.3502587595916964
 30
0.0
 40
0.0267943744597213
 50
220.4519370749536051
 51
269.1677407096548791
  0
ARC
  5
E0EE
  8
0
 10
4318.9949423876432775
 20
192.3922738268331045
 30
0.0
 40
0.0205642420021944
 50
196.0580009995977093
 51
269.3365161289854086
  0
ARC
  5
E0EF
  8
0
 10
4318.9967865740582056
 20
192.4565068645866859
 30
0.0
 40
0.0520754946356884
 50
251.6089660905159064
 51
268.2326649537819208
  0
ARC
  5
E0F0
  8
0
 10
4318.9791122462802377
 20
192.4033481024389118
 30
0.0
 40
0.0039444648030117
 50
71.6089658905705164
 51
175.3944626008564001
  0
ARC
  5
E0F1
  8
0
 10
4318.9952502297683168
 20
192.4886592058950043
 30
0.0
 40
0.0203460234055779
 50
189.4534409455401089
 51
269.8036856255400266
  0
LINE
  5
E0F2
  8
0
 10
4318.9951805169566796
 20
192.5073402287480064
 30
0.0
 11
4318.9836788320690175
 21
192.5076722143274139
 31
0.0
  0
ARC
  5
E0F3
  8
0
 10
4318.9828036309618255
 20
192.4980069355426906
 30
0.0
 40
0.0097048230773271
 50
84.8259180405380846
 51
141.7667050922106
  0
ENDSEC
  0
EOF
