  0
SECTION
  2
HEADER
  9
$ACADVER
  1
AC1009
  9
$INSBASE
 10
4323.2967562071944485
 20
193.3488484255009894
 30
0.0
  9
$EXTMIN
 10
4317.5726839935186945
 20
193.3375000063801963
 30
-0.0000000349181948
  9
$EXTMAX
 10
4324.4883827618341456
 20
201.3679422214295016
 30
0.0000000814935746
  9
$LIMMIN
 10
0.0
 20
0.0
  9
$LIMMAX
 10
11.6929133858000007
 20
8.2677165353999982
  9
$ORTHOMODE
 70
     0
  9
$REGENMODE
 70
     1
  9
$FILLMODE
 70
     1
  9
$QTEXTMODE
 70
     0
  9
$MIRRTEXT
 70
     0
  9
$DRAGMODE
 70
     2
  9
$LTSCALE
 40
0.6431102362
  9
$OSMODE
 70
     7
  9
$ATTMODE
 70
     1
  9
$TEXTSIZE
 40
0.2
  9
$TRACEWID
 40
0.05
  9
$TEXTSTYLE
  7
STANDARD
  9
$CLAYER
  8
0
  9
$CELTYPE
  6
BYLAYER
  9
$CECOLOR
 62
   256
  9
$DIMSCALE
 40
1.0
  9
$DIMASZ
 40
0.1875
  9
$DIMEXO
 40
0.0625
  9
$DIMDLI
 40
0.4443307087
  9
$DIMRND
 40
0.0
  9
$DIMDLE
 40
0.0
  9
$DIMEXE
 40
0.125
  9
$DIMTP
 40
0.01
  9
$DIMTM
 40
0.01
  9
$DIMTXT
 40
2.0
  9
$DIMCEN
 40
0.1052362205
  9
$DIMTSZ
 40
0.0
  9
$DIMTOL
 70
     1
  9
$DIMLIM
 70
     0
  9
$DIMTIH
 70
     1
  9
$DIMTOH
 70
     1
  9
$DIMSE1
 70
     0
  9
$DIMSE2
 70
     0
  9
$DIMTAD
 70
     0
  9
$DIMZIN
 70
     0
  9
$DIMBLK
  1

  9
$DIMASO
 70
     1
  9
$DIMSHO
 70
     1
  9
$DIMPOST
  1
\X
  9
$DIMAPOST
  1

  9
$DIMALT
 70
     1
  9
$DIMALTD
 70
     2
  9
$DIMALTF
 40
25.3999999999999986
  9
$DIMLFAC
 40
1.0
  9
$DIMTOFL
 70
     0
  9
$DIMTVP
 40
0.0
  9
$DIMTIX
 70
     0
  9
$DIMSOXD
 70
     0
  9
$DIMSAH
 70
     0
  9
$DIMBLK1
  1

  9
$DIMBLK2
  1

  9
$DIMSTYLE
  2
STANDARD
  9
$DIMCLRD
 70
     0
  9
$DIMCLRE
 70
     0
  9
$DIMCLRT
 70
     0
  9
$DIMTFAC
 40
1.0
  9
$DIMGAP
 40
0.09
  9
$LUNITS
 70
     2
  9
$LUPREC
 70
     4
  9
$SKETCHINC
 40
0.1
  9
$FILLETRAD
 40
0.0
  9
$AUNITS
 70
     0
  9
$AUPREC
 70
     0
  9
$MENU
  1
.
  9
$ELEVATION
 40
0.0
  9
$PELEVATION
 40
0.0
  9
$THICKNESS
 40
0.0
  9
$LIMCHECK
 70
     0
  9
$BLIPMODE
 70
     0
  9
$CHAMFERA
 40
0.0
  9
$CHAMFERB
 40
0.0
  9
$SKPOLY
 70
     0
  9
$TDCREATE
 40
2458060.468368056230247
  9
$TDUPDATE
 40
2459580.6451388890855014
  9
$TDINDWG
 40
0.4399607639
  9
$TDUSRTIMER
 40
0.4399607639
  9
$USRTIMER
 70
     1
  9
$ANGBASE
 50
0.0
  9
$ANGDIR
 70
     0
  9
$PDMODE
 70
     0
  9
$PDSIZE
 40
0.3125
  9
$PLINEWID
 40
0.0
  9
$COORDS
 70
     1
  9
$SPLFRAME
 70
     0
  9
$SPLINETYPE
 70
     6
  9
$SPLINESEGS
 70
     8
  9
$ATTDIA
 70
     1
  9
$ATTREQ
 70
     1
  9
$HANDLING
 70
     1
  9
$HANDSEED
  5
D956
  9
$SURFTAB1
 70
     6
  9
$SURFTAB2
 70
     6
  9
$SURFTYPE
 70
     6
  9
$SURFU
 70
     6
  9
$SURFV
 70
     6
  9
$UCSNAME
  2

  9
$UCSORG
 10
0.0
 20
0.0
 30
0.0
  9
$UCSXDIR
 10
1.0
 20
0.0
 30
0.0
  9
$UCSYDIR
 10
0.0
 20
1.0
 30
0.0
  9
$PUCSNAME
  2

  9
$PUCSORG
 10
0.0
 20
0.0
 30
0.0
  9
$PUCSXDIR
 10
1.0
 20
0.0
 30
0.0
  9
$PUCSYDIR
 10
0.0
 20
1.0
 30
0.0
  9
$USERI1
 70
     0
  9
$USERI2
 70
     0
  9
$USERI3
 70
     0
  9
$USERI4
 70
     0
  9
$USERI5
 70
     0
  9
$USERR1
 40
0.0
  9
$USERR2
 40
0.0
  9
$USERR3
 40
0.0
  9
$USERR4
 40
0.0
  9
$USERR5
 40
0.0
  9
$WORLDVIEW
 70
     1
  9
$SHADEDGE
 70
     3
  9
$SHADEDIF
 70
    70
  9
$TILEMODE
 70
     1
  9
$MAXACTVP
 70
    64
  9
$PLIMCHECK
 70
     0
  9
$PEXTMIN
 10
1.0000000000000000E+20
 20
1.0000000000000000E+20
 30
1.0000000000000000E+20
  9
$PEXTMAX
 10
-1.0000000000000000E+20
 20
-1.0000000000000000E+20
 30
-1.0000000000000000E+20
  9
$PLIMMIN
 10
0.0
 20
0.0
  9
$PLIMMAX
 10
12.0
 20
9.0
  9
$UNITMODE
 70
     0
  9
$VISRETAIN
 70
     1
  9
$PLINEGEN
 70
     0
  9
$PSLTSCALE
 70
     1
  0
ENDSEC
  0
SECTION
  2
TABLES
  0
TABLE
  2
VPORT
 70
     1
  0
VPORT
  2
*ACTIVE
 70
     0
 10
0.0
 20
0.0
 11
1.0
 21
1.0
 12
517.4864659948642611
 22
71.3574589171549434
 13
0.0
 23
0.0
 14
1.0
 24
1.0
 15
0.0
 25
0.0
 16
0.0
 26
0.0
 36
17.1152628219792007
 17
3803.5440673828129547
 27
125.9952621967499056
 37
0.0
 40
8.0879394146797665
 41
2.2831541218637992
 42
50.0
 43
0.0
 44
0.0
 50
0.0
 51
0.0
 71
     0
 72
   100
 73
     1
 74
     1
 75
     0
 76
     0
 77
     0
 78
     0
  0
ENDTAB
  0
TABLE
  2
LTYPE
 70
     2
  0
LTYPE
  2
CONTINUOUS
 70
     0
  3
Solid line
 72
    65
 73
     0
 40
0.0
  0
LTYPE
  2
PHANTOM2
 70
     0
  3
___ _ _ ___ _ _ ___ _ _ ___ _ _
 72
    65
 73
     6
 40
1.25
 49
0.625
 49
-0.125
 49
0.125
 49
-0.125
 49
0.125
 49
-0.125
  0
ENDTAB
  0
TABLE
  2
LAYER
 70
     2
  0
LAYER
  2
0
 70
     0
 62
   255
  6
CONTINUOUS
  0
LAYER
  2
DEFPOINTS
 70
     0
 62
     7
  6
CONTINUOUS
  0
ENDTAB
  0
TABLE
  2
STYLE
 70
     1
  0
STYLE
  2
STANDARD
 70
     0
 40
0.0
 41
0.8
 50
0.0
 71
     0
 42
0.2
  3
txt
  4

  0
ENDTAB
  0
TABLE
  2
VIEW
 70
     0
  0
ENDTAB
  0
TABLE
  2
UCS
 70
     0
  0
ENDTAB
  0
TABLE
  2
APPID
 70
     9
  0
APPID
  2
ACAD
 70
     0
  0
APPID
  2
ACAD_MLEADERVER
 70
     0
  0
APPID
  2
ACAD_EXEMPT_FROM_CAD_STANDARDS
 70
     0
  0
APPID
  2
ACAD_NAV_VCDISPLAY
 70
     0
  0
APPID
  2
ACAECLAYERSTANDARD
 70
     0
  0
APPID
  2
ACCMTRANSPARENCY
 70
     0
  0
APPID
  2
ACAD_DSTYLE_DIMJAG
 70
     0
  0
APPID
  2
ACAD_DSTYLE_DIMTALN
 70
     0
  0
APPID
  2
ACDBATTR
 70
     0
  0
ENDTAB
  0
TABLE
  2
DIMSTYLE
 70
     1
  0
DIMSTYLE
  2
STANDARD
 70
     0
  3

  4

  5

  6

  7

 40
1.0
 41
0.1875
 42
0.0625
 43
0.38
 44
0.125
 45
0.0
 46
0.0
 47
0.01
 48
0.01
140
0.15625
141
0.09
142
0.0
143
25.3999999999999986
144
1.0
145
0.0
146
1.0
147
0.09
 71
     1
 72
     0
 73
     1
 74
     1
 75
     0
 76
     0
 77
     0
 78
     4
170
     0
171
     2
172
     0
173
     0
174
     0
175
     0
176
     0
177
     0
178
     0
  0
ENDTAB
  0
ENDSEC
  0
SECTION
  2
BLOCKS
  0
BLOCK
  8
0
  2
$MODEL_SPACE
 70
     0
 10
0.0
 20
0.0
 30
0.0
  3
$MODEL_SPACE
  1

  0
ENDBLK
  5
21
  8
0
  0
BLOCK
 67
     1
  8
0
  2
$PAPER_SPACE
 70
     0
 10
0.0
 20
0.0
 30
0.0
  3
$PAPER_SPACE
  1

  0
ENDBLK
  5
1D
 67
     1
  8
0
  0
ENDSEC
  0
SECTION
  2
ENTITIES
  0
ATTDEF
  5
3930
  8
DEFPOINTS
 10
4323.2967788125151856
 20
193.352197439392711
 30
0.0
 40
0.001
  1
P21211-LV
  3

  2
MODELNUMBER
 70
     0
1001
ACDBATTR
1070
     0
1070
     1
  0
ATTDEF
  5
3931
  8
DEFPOINTS
 10
4323.2967788125151856
 20
193.350530772725989
 30
0.0
 40
0.001
  1
CENTRAL PARK WEST
  3

  2
TRADENAME
 70
     0
1001
ACDBATTR
1070
     0
1070
     1
  0
ATTDEF
  5
3932
  8
DEFPOINTS
 10
4323.2967788125151856
 20
193.3488641060594091
 30
0.0
 40
0.001
  1
BATHROOM SINK FAUCET
  3

  2
PRODUCT
 70
     0
1001
ACDBATTR
1070
     0
1070
     1
  0
LINE
  5
D780
  8
0
 10
4322.2807562071939174
 20
193.3488484255009894
 30
0.0
 11
4324.3127562071940702
 21
193.3488484255009894
 31
0.0
  0
ARC
  5
D782
  8
0
 10
4323.146312316894182
 20
196.3460137303009105
 30
0.0
 40
0.0199999999999996
 50
214.5467129707228082
 51
30.4532870225628614
  0
ARC
  5
D783
  8
0
 10
4323.0673936348393909
 20
196.2704655276679091
 30
0.0
 40
0.0199999999999996
 50
237.0467129707132869
 51
52.9532870225602181
  0
ARC
  5
D784
  8
0
 10
4323.0233933252457064
 20
196.1704672174103052
 30
0.0
 40
0.0199999999999996
 50
259.5467129707071194
 51
75.4532870225617955
  0
ARC
  5
D785
  8
0
 10
4323.0210100363910897
 20
196.0612426357778872
 30
0.0
 40
0.0199999999999996
 50
282.0467129707275831
 51
97.9532870225515353
  0
ARC
  5
D786
  8
0
 10
4323.0606066023938183
 20
195.9594202352010086
 30
0.0
 40
0.0199999999999996
 50
304.5467129707100185
 51
120.4532870225547043
  0
ARC
  5
D787
  8
0
 10
4323.1361548050272177
 20
195.8805015531449101
 30
0.0
 40
0.0199999999999996
 50
327.0467129707053004
 51
142.9532870225438899
  0
ARC
  5
D788
  8
0
 10
4323.2361531152837415
 20
195.8365012435531014
 30
0.0
 40
0.0199999999999996
 50
349.5467129707171239
 51
165.4532870225548038
  0
ARC
  5
D789
  8
0
 10
4323.3453776969172395
 20
195.8341179546972057
 30
0.0
 40
0.0199999999999995
 50
12.0467129707132994
 51
187.9532870225513932
  0
ARC
  5
D78A
  8
0
 10
4323.4472000974938055
 20
195.873714520700986
 30
0.0
 40
0.0199999999999995
 50
34.5467129707227869
 51
210.453287022562904
  0
ARC
  5
D78B
  8
0
 10
4323.5261187795504156
 20
195.9492627233339874
 30
0.0
 40
0.0199999999999995
 50
57.046712970714168
 51
232.9532870225602039
  0
ARC
  5
D78C
  8
0
 10
4323.5701190891431906
 20
196.0492610335915913
 30
0.0
 40
0.0199999999999995
 50
79.546712970707091
 51
255.4532870225617955
  0
ARC
  5
D78D
  8
0
 10
4323.5725023779978073
 20
196.1584856152238956
 30
0.0
 40
0.0199999999999995
 50
102.0467129707275973
 51
277.9532870225514785
  0
ARC
  5
D78E
  8
0
 10
4323.5329058119941692
 20
196.2603080158010016
 30
0.0
 40
0.0199999999999995
 50
124.5467129707099048
 51
300.4532870225547185
  0
ARC
  5
D78F
  8
0
 10
4323.4573576093616794
 20
196.3392266978569864
 30
0.0
 40
0.0199999999999995
 50
147.0467129707053004
 51
322.9532870225439183
  0
ARC
  5
D790
  8
0
 10
4323.357359299104246
 20
196.3832270074487951
 30
0.0
 40
0.0199999999999995
 50
169.5467129707170102
 51
345.4532870225547754
  0
ARC
  5
D791
  8
0
 10
4323.2481347174716575
 20
196.3856102963046908
 30
0.0
 40
0.0199999999999995
 50
192.0467129707132869
 51
7.9532870225514873
  0
LINE
  5
D792
  8
0
 10
4322.2907562071941356
 20
193.4968484255010139
 30
0.0
 11
4324.3027562071938519
 21
193.4968484255010139
 31
0.0
  0
LINE
  5
D793
  8
0
 10
4322.5779539331870183
 20
193.7488484255009098
 30
0.0
 11
4324.0155584812018787
 21
193.7488484255009098
 31
0.0
  0
LINE
  5
D794
  8
0
 10
4322.2707562071946086
 20
193.47684842550089
 30
0.0
 11
4322.2707562071946086
 21
193.3588484255010087
 31
0.0
  0
ARC
  5
D795
  8
0
 10
4322.2907562071941356
 20
193.47684842550089
 30
0.0
 40
0.0199999999999996
 50
90.0
 51
180.0000000000015916
  0
ARC
  5
D796
  8
0
 10
4322.2807562071939174
 20
193.3588484255010087
 30
0.0
 40
0.0100000000000007
 50
180.0000000000048885
 51
270.0
  0
LINE
  5
D797
  8
0
 10
4322.6467562071939028
 20
193.7808484255010057
 30
0.0
 11
4322.6467562071939028
 21
195.1138484255010042
 31
0.0
  0
LINE
  5
D798
  8
0
 10
4322.6467562071939028
 20
195.1518484255009867
 30
0.0
 11
4322.6467562071939028
 21
195.2418484255009048
 31
0.0
  0
ARC
  5
D799
  8
0
 10
4322.6147562071946595
 20
193.7808484255010057
 30
0.0
 40
0.0320000000000009
 50
270.0
 51
359.9999999999984084
  0
ARC
  5
D79A
  8
0
 10
4322.5779539331870183
 20
193.7288484255205958
 30
0.0
 40
0.0199999999803207
 50
89.9999999779573869
 51
175.3523317743251937
  0
ARC
  5
D79B
  8
0
 10
4322.3595790749686785
 20
193.7466013186090947
 30
0.0
 40
0.1990952850310634
 50
327.8684877385124992
 51
355.3523317743237158
  0
ARC
  5
D79C
  8
0
 10
4322.4256715127257849
 20
193.7050909387110096
 30
0.0
 40
0.1210483634535129
 50
282.9158324180810951
 51
327.8684877385124992
  0
ARC
  5
D79D
  8
0
 10
4322.4557562072595829
 20
193.5673357162762045
 30
0.0
 40
0.0200000000669718
 50
98.7081529834180316
 51
179.999999928942799
  0
LINE
  5
D79E
  8
0
 10
4322.4527281776936434
 20
193.5871051634009063
 30
0.0
 11
4324.1407842366952536
 21
193.5871051634009063
 31
0.0
  0
LINE
  5
D79F
  8
0
 10
4322.4357562071936627
 20
193.5288484255009962
 30
0.0
 11
4322.4357562071936627
 21
193.5673357162762045
 31
0.0
  0
ARC
  5
D7A0
  8
0
 10
4322.4037562071944194
 20
193.5288484255009962
 30
0.0
 40
0.0319999999999992
 50
270.0
 51
359.9999999999984084
  0
LINE
  5
D7A1
  8
0
 10
4322.9232562071947541
 20
196.4833908255008907
 30
0.0
 11
4323.6702562071941429
 21
196.4833908255008907
 31
0.0
  0
LINE
  5
D7A2
  8
0
 10
4322.9082562071944267
 20
195.7538484255009053
 30
0.0
 11
4322.9082562071944267
 21
196.4683908255009896
 31
0.0
  0
ARC
  5
D7A3
  8
0
 10
4322.9232562071947541
 20
196.4683908255009896
 30
0.0
 40
0.0149999999999988
 50
90.0
 51
180.0000000000032117
  0
LINE
  5
D7A4
  8
0
 10
4322.9232562071947541
 20
195.7388484255010042
 30
0.0
 11
4323.6702562071941429
 21
195.7388484255010042
 31
0.0
  0
LINE
  5
D7A5
  8
0
 10
4322.969756207194223
 20
195.6798484255010067
 30
0.0
 11
4323.6237562071946741
 21
195.6798484255010067
 31
0.0
  0
LINE
  5
D7A6
  8
0
 10
4322.9292562071941575
 20
195.5518484255009071
 30
0.0
 11
4323.6642562071938301
 21
195.5518484255009071
 31
0.0
  0
LINE
  5
D7A7
  8
0
 10
4322.8533091682020313
 20
195.4918484255009048
 30
0.0
 11
4323.7397703456863383
 21
195.4918484255009048
 31
0.0
  0
LINE
  5
D7A8
  8
0
 10
4322.8533091682020313
 20
195.3118484255010117
 30
0.0
 11
4323.7397703456863383
 21
195.3118484255010117
 31
0.0
  0
LINE
  5
D7A9
  8
0
 10
4322.6567562071941211
 20
195.2518484255010094
 30
0.0
 11
4323.9367562071947759
 21
195.2518484255010094
 31
0.0
  0
LINE
  5
D7AA
  8
0
 10
4322.9192562071948487
 20
195.3018484255009071
 30
0.0
 11
4322.9192562071948487
 21
195.2618484255010003
 31
0.0
  0
LINE
  5
D7AB
  8
0
 10
4322.9192562071948487
 20
195.5018484255010094
 30
0.0
 11
4322.9192562071948487
 21
195.5418484255010014
 31
0.0
  0
LINE
  5
D7AC
  8
0
 10
4322.6567562071941211
 20
195.1418484255009105
 30
0.0
 11
4323.9367562071947759
 21
195.1418484255009105
 31
0.0
  0
LINE
  5
D7AD
  8
0
 10
4322.6567562071941211
 20
195.1238484255009098
 30
0.0
 11
4323.9367562071947759
 21
195.1238484255009098
 31
0.0
  0
LINE
  5
D7AE
  8
0
 10
4322.6917562071939756
 20
195.1418484255009105
 30
0.0
 11
4322.6917562071939756
 21
195.1238484255009098
 31
0.0
  0
ARC
  5
D7AF
  8
0
 10
4322.6567562071941211
 20
195.1518484255009867
 30
0.0
 40
0.0099999999999998
 50
180.0
 51
270.0
  0
ARC
  5
D7B0
  8
0
 10
4322.6567562071941211
 20
195.1138484255010042
 30
0.0
 40
0.0099999999999998
 50
90.0
 51
179.9999999999951115
  0
ARC
  5
D7B1
  8
0
 10
4322.6567562071941211
 20
195.2418484255009048
 30
0.0
 40
0.0100000000000007
 50
90.0
 51
179.9999999999951115
  0
ARC
  5
D7B2
  8
0
 10
4322.9292562071941575
 20
195.5418484255010014
 30
0.0
 40
0.009999999999998
 50
90.0
 51
180.0000000000098055
  0
ARC
  5
D7B3
  8
0
 10
4322.9092562071946304
 20
195.5018484255010094
 30
0.0
 40
0.0099999999999989
 50
270.0
 51
0.0
  0
ARC
  5
D7B4
  8
0
 10
4322.9092562071946304
 20
195.3018484255009071
 30
0.0
 40
0.0100000000000016
 50
0.0
 51
90.0
  0
ARC
  5
D7B5
  8
0
 10
4322.9292562071941575
 20
195.2618484255010003
 30
0.0
 40
0.0100000000000007
 50
180.0000000000048885
 51
270.0
  0
ARC
  5
D7B6
  8
0
 10
4322.9232562071947541
 20
195.7538484255009053
 30
0.0
 40
0.0149999999999997
 50
180.0000000000032117
 51
270.0
  0
LINE
  5
D7B7
  8
0
 10
4323.0182562071940993
 20
195.6698484255009873
 30
0.0
 11
4323.0182562071940993
 21
195.5618484255010117
 31
0.0
  0
LINE
  5
D7B8
  8
0
 10
4322.9597562071930952
 20
195.7288484255008996
 30
0.0
 11
4322.9597562071930952
 21
195.6898484255009123
 31
0.0
  0
ARC
  5
D7B9
  8
0
 10
4322.9497562071946959
 20
195.7288484255008996
 30
0.0
 40
0.0100000000000041
 50
0.000000000014656
 51
90.0
  0
ARC
  5
D7BA
  8
0
 10
4322.969756207194223
 20
195.6898484255009123
 30
0.0
 40
0.009999999999998
 50
179.9999999999901945
 51
270.0
  0
ARC
  5
D7BB
  8
0
 10
4323.008256207193881
 20
195.6698484255009873
 30
0.0
 40
0.0099999999999985
 50
0.0
 51
90.0
  0
ARC
  5
D7BC
  8
0
 10
4323.008256207193881
 20
195.5618484255010117
 30
0.0
 40
0.0100000000000007
 50
270.0
 51
0.0
  0
LINE
  5
D7BD
  8
0
 10
4322.9671244823948655
 20
195.4718484255010083
 30
0.0
 11
4322.9671244823948655
 21
195.3318484255009082
 31
0.0
  0
LINE
  5
D7BE
  8
0
 10
4323.0092773239948656
 20
195.4718484255010083
 30
0.0
 11
4323.0092773239948656
 21
195.3318484255009082
 31
0.0
  0
LINE
  5
D7BF
  8
0
 10
4323.0416304222935651
 20
195.4718484255010083
 30
0.0
 11
4323.0416304222935651
 21
195.3318484255009082
 31
0.0
  0
LINE
  5
D7C0
  8
0
 10
4323.0907533258941839
 20
195.4718484255010083
 30
0.0
 11
4323.0907533258941839
 21
195.3318484255009935
 31
0.0
  0
LINE
  5
D7C1
  8
0
 10
4323.1272865831942909
 20
195.4718484255010083
 30
0.0
 11
4323.1272865831942909
 21
195.3318484255009082
 31
0.0
  0
LINE
  5
D7C2
  8
0
 10
4323.1812326422932529
 20
195.4718484255010083
 30
0.0
 11
4323.1812326422932529
 21
195.3318484255011072
 31
0.0
  0
LINE
  5
D7C3
  8
0
 10
4323.2203493798933778
 20
195.476877829272297
 30
0.0
 11
4323.2203493798933778
 21
195.326819021729591
 31
0.0
  0
LINE
  5
D7C4
  8
0
 10
4323.2767608927943002
 20
195.4718484227942952
 30
0.0
 11
4323.2767608927943002
 21
195.3318484282075929
 31
0.0
  0
ARC
  5
D7C5
  8
0
 10
4323.2974769966276654
 20
195.471156406847598
 30
0.0
 40
0.0207276589146577
 50
93.3604326196973062
 51
178.0867611363964045
  0
ARC
  5
D7C6
  8
0
 10
4323.2023219417787914
 20
195.4743631270658
 30
0.0
 40
0.0182019848419872
 50
7.9411203038568399
 51
73.8683706519956189
  0
ARC
  5
D7C7
  8
0
 10
4323.2019294770816487
 20
195.4716160887253125
 30
0.0
 40
0.0206981388197154
 50
102.1784081575354008
 51
179.3568409046580996
  0
ARC
  5
D7C8
  8
0
 10
4323.1750060933936766
 20
195.4714656867552094
 30
0.0
 40
0.0477210450707086
 50
169.1313994213510057
 51
179.5404637541751924
  0
ARC
  5
D7C9
  8
0
 10
4323.1139734324169694
 20
195.4831840409121924
 30
0.0
 40
0.0144264048376814
 50
349.1313988391253247
 51
36.9123145300655509
  0
ARC
  5
D7CA
  8
0
 10
4323.1130710178831578
 20
195.4699682029323071
 30
0.0
 40
0.0223967545106538
 50
102.3291148834188959
 51
175.1843129313803047
  0
ARC
  5
D7CB
  8
0
 10
4323.0788455163583421
 20
195.4710353796606057
 30
0.0
 40
0.0372239743946374
 50
154.7332954760099142
 51
178.7484463774869141
  0
ARC
  5
D7CC
  8
0
 10
4323.0421396820993323
 20
195.4886148054065984
 30
0.0
 40
0.0034813394778096
 50
330.9390139919262879
 51
68.2552739172277541
  0
ARC
  5
D7CD
  8
0
 10
4323.0314142648885536
 20
195.4704427991106002
 30
0.0
 40
0.0221815224399663
 50
105.1990998794180001
 51
176.3667751487083137
  0
ARC
  5
D7CE
  8
0
 10
4322.9973480782582556
 20
195.4709151750327862
 30
0.0
 40
0.0302380009814091
 50
136.1889084568302053
 51
178.2313709892694078
  0
LINE
  5
D7CF
  8
0
 10
4322.9403655286942012
 20
195.4735271745772138
 30
0.0
 11
4322.9403655286942012
 21
195.3301696764247026
 31
0.0
  0
LINE
  5
D7D0
  8
0
 10
4322.9070250305940135
 20
195.4718484255008093
 30
0.0
 11
4322.9070250305940135
 21
195.3318484255011924
 31
0.0
  0
LINE
  5
D7D1
  8
0
 10
4322.8870297161938652
 20
195.47269370865871
 30
0.0
 11
4322.8870297161938652
 21
195.3310031423430928
 31
0.0
  0
LINE
  5
D7D2
  8
0
 10
4322.86395870139404
 20
195.4718484255008946
 30
0.0
 11
4322.86395870139404
 21
195.3318484255009935
 31
0.0
  0
LINE
  5
D7D3
  8
0
 10
4322.8516009174936698
 20
195.4718484255010935
 30
0.0
 11
4322.8516009174936698
 21
195.3318484255007945
 31
0.0
  0
LINE
  5
D7D4
  8
0
 10
4322.8347562071940047
 20
195.4718484255029978
 30
0.0
 11
4322.8347562071940047
 21
195.3318484255005103
 31
0.0
  0
ARC
  5
D7D5
  8
0
 10
4322.854803856329454
 20
195.471856571920199
 30
0.0
 40
0.0200476507898201
 50
94.2757559027929375
 51
180.0232823016951897
  0
ARC
  5
D7D6
  8
0
 10
4322.871724479781733
 20
195.4717626872966036
 30
0.0
 40
0.0201237449340625
 50
93.5219392087113164
 51
179.7558877767403942
  0
ARC
  5
D7D7
  8
0
 10
4322.8852729669633845
 20
195.4717141527264062
 30
0.0
 40
0.0213146885018345
 50
124.6248336404276955
 51
179.6390604456128131
  0
ARC
  5
D7D8
  8
0
 10
4322.8823553569745854
 20
195.4759395498188042
 30
0.0
 40
0.016179863419184
 50
100.5010575939084987
 51
124.6248336404268002
  0
ARC
  5
D7D9
  8
0
 10
4322.9062356940776226
 20
195.4722710670799017
 30
0.0
 40
0.019210627588701
 50
129.5371955811791054
 51
178.7393679622408058
  0
ARC
  5
D7DA
  8
0
 10
4322.908243839370698
 20
195.4685975583383879
 30
0.0
 40
0.0233353914486624
 50
94.8781148119031315
 51
127.5976801598890944
  0
ARC
  5
D7DB
  8
0
 10
4322.9303186462811937
 20
195.4716633833290018
 30
0.0
 40
0.0232943506536603
 50
119.9431691344594952
 51
179.5448575858208073
  0
ARC
  5
D7DC
  8
0
 10
4322.9592941181008428
 20
195.4726878000390968
 30
0.0
 40
0.0189471909930842
 50
123.302806230671905
 51
177.4609237258646885
  0
ARC
  5
D7DD
  8
0
 10
4322.9633410124379225
 20
195.4619784965144049
 30
0.0
 40
0.0302232109665149
 50
98.769039447290055
 51
118.5622315972245957
  0
ARC
  5
D7DE
  8
0
 10
4323.2974769966276654
 20
195.3325404441542901
 30
0.0
 40
0.0207276589146577
 50
181.9132388636035103
 51
266.639567380302708
  0
ARC
  5
D7DF
  8
0
 10
4323.2023219417787914
 20
195.3293337239360881
 30
0.0
 40
0.0182019848419872
 50
286.1316293480044237
 51
352.0588796961432081
  0
ARC
  5
D7E0
  8
0
 10
4323.2019294770816487
 20
195.332080762276604
 30
0.0
 40
0.0206981388197154
 50
180.6431590953419004
 51
257.8215918424646134
  0
ARC
  5
D7E1
  8
0
 10
4323.1750060933936766
 20
195.3322311642467071
 30
0.0
 40
0.0477210450707086
 50
180.4595362458248076
 51
190.8686005786489943
  0
ARC
  5
D7E2
  8
0
 10
4323.1139734324169694
 20
195.3205128100896957
 30
0.0
 40
0.0144264048376814
 50
323.0876854699343994
 51
10.86860116087467
  0
ARC
  5
D7E3
  8
0
 10
4323.1130710178831578
 20
195.3337286480696093
 30
0.0
 40
0.0223967545106538
 50
184.8156870686181037
 51
257.6708851165810756
  0
ARC
  5
D7E4
  8
0
 10
4323.0788455163583421
 20
195.3326614713413107
 30
0.0
 40
0.0372239743946374
 50
181.251553622511409
 51
205.2667045239886079
  0
ARC
  5
D7E5
  8
0
 10
4323.0421396820993323
 20
195.3150820455952896
 30
0.0
 40
0.0034813394778096
 50
291.7447260827722744
 51
29.0609860080736908
  0
ARC
  5
D7E6
  8
0
 10
4323.0314142648885536
 20
195.3332540518912879
 30
0.0
 40
0.0221815224399663
 50
183.633224851291601
 51
254.8009001205820141
  0
ARC
  5
D7E7
  8
0
 10
4322.9973480782582556
 20
195.3327816759691018
 30
0.0
 40
0.0302380009814091
 50
181.7686290107305069
 51
223.8110915431697947
  0
ARC
  5
D7E8
  8
0
 10
4322.854803856329454
 20
195.331840279081689
 30
0.0
 40
0.0200476507898201
 50
179.9767176983046966
 51
265.7242440972070767
  0
ARC
  5
D7E9
  8
0
 10
4322.871724479781733
 20
195.3319341637053981
 30
0.0
 40
0.0201237449340625
 50
180.2441122232579005
 51
266.4780607912887263
  0
ARC
  5
D7EA
  8
0
 10
4322.8852729669633845
 20
195.3319826982755103
 30
0.0
 40
0.0213146885018345
 50
180.3609395543871869
 51
235.375166359572205
  0
ARC
  5
D7EB
  8
0
 10
4322.8823553569745854
 20
195.3277573011831123
 30
0.0
 40
0.016179863419184
 50
235.3751663595731998
 51
259.4989424060913734
  0
ARC
  5
D7EC
  8
0
 10
4322.9062356940776226
 20
195.3314257839219863
 30
0.0
 40
0.019210627588701
 50
181.2606320377591089
 51
230.4628044188208094
  0
ARC
  5
D7ED
  8
0
 10
4322.908243839370698
 20
195.3350992926635001
 30
0.0
 40
0.0233353914486624
 50
232.4023198401108061
 51
265.1218851880968828
  0
ARC
  5
D7EE
  8
0
 10
4322.9303186462811937
 20
195.3320334676729999
 30
0.0
 40
0.0232943506536603
 50
180.4551424141791074
 51
240.0568308655404905
  0
ARC
  5
D7EF
  8
0
 10
4322.9592941181008428
 20
195.3310090509629049
 30
0.0
 40
0.0189471909930842
 50
182.5390762741336061
 51
236.6971937693280097
  0
ARC
  5
D7F0
  8
0
 10
4322.9633410124379225
 20
195.3417183544875115
 30
0.0
 40
0.0302232109665149
 50
241.4377684027753048
 51
261.2309605527099166
  0
LINE
  5
D7F1
  8
0
 10
4324.3227562071942884
 20
193.47684842550089
 30
0.0
 11
4324.3227562071942884
 21
193.3588484255010087
 31
0.0
  0
ARC
  5
D7F2
  8
0
 10
4324.3027562071938519
 20
193.47684842550089
 30
0.0
 40
0.0199999999999996
 50
359.9999999999984084
 51
90.0
  0
ARC
  5
D7F3
  8
0
 10
4324.3127562071940702
 20
193.3588484255010087
 30
0.0
 40
0.0100000000000007
 50
270.0
 51
359.9999999999951115
  0
LINE
  5
D7F4
  8
0
 10
4323.9467562071940847
 20
193.7808484255010057
 30
0.0
 11
4323.9467562071940847
 21
195.1138484255010042
 31
0.0
  0
LINE
  5
D7F5
  8
0
 10
4323.9467562071940847
 20
195.1518484255009867
 30
0.0
 11
4323.9467562071940847
 21
195.2418484255009048
 31
0.0
  0
ARC
  5
D7F6
  8
0
 10
4323.9787562071942375
 20
193.7808484255010057
 30
0.0
 40
0.0320000000000009
 50
180.0000000000015916
 51
270.0
  0
ARC
  5
D7F7
  8
0
 10
4324.0155584812018787
 20
193.7288484255205958
 30
0.0
 40
0.0199999999803207
 50
4.6476682256747317
 51
90.0000000220426273
  0
ARC
  5
D7F8
  8
0
 10
4324.233933339419309
 20
193.7466013186090947
 30
0.0
 40
0.1990952850310634
 50
184.6476682256763127
 51
212.1315122614875008
  0
ARC
  5
D7F9
  8
0
 10
4324.1678409016631122
 20
193.7050909387110096
 30
0.0
 40
0.1210483634535129
 50
212.1315122614875008
 51
257.0841675819190186
  0
ARC
  5
D7FA
  8
0
 10
4324.1377562071284046
 20
193.5673357162762045
 30
0.0
 40
0.0200000000669718
 50
0.0000000710571538
 51
81.2918470165819969
  0
LINE
  5
D7FB
  8
0
 10
4324.1577562071952343
 20
193.5288484255009962
 30
0.0
 11
4324.1577562071952343
 21
193.5673357162762045
 31
0.0
  0
ARC
  5
D7FC
  8
0
 10
4324.1897562071953871
 20
193.5288484255009962
 30
0.0
 40
0.0319999999999992
 50
180.0
 51
270.0
  0
LINE
  5
D7FD
  8
0
 10
4323.6852562071935608
 20
195.7538484255009053
 30
0.0
 11
4323.6852562071935608
 21
196.4683908255009896
 31
0.0
  0
ARC
  5
D7FE
  8
0
 10
4323.6702562071941429
 20
196.4683908255009896
 30
0.0
 40
0.0149999999999988
 50
359.9999999999968168
 51
90.0
  0
LINE
  5
D7FF
  8
0
 10
4323.6742562071931388
 20
195.3018484255009071
 30
0.0
 11
4323.6742562071931388
 21
195.2618484255010003
 31
0.0
  0
LINE
  5
D800
  8
0
 10
4323.6742562071931388
 20
195.5018484255010094
 30
0.0
 11
4323.6742562071931388
 21
195.5418484255010014
 31
0.0
  0
LINE
  5
D801
  8
0
 10
4323.9017562071940119
 20
195.1418484255009105
 30
0.0
 11
4323.9017562071940119
 21
195.1238484255009098
 31
0.0
  0
ARC
  5
D802
  8
0
 10
4323.9367562071947759
 20
195.1518484255009867
 30
0.0
 40
0.0099999999999998
 50
270.0
 51
0.0
  0
ARC
  5
D803
  8
0
 10
4323.9367562071947759
 20
195.1138484255010042
 30
0.0
 40
0.0099999999999998
 50
0.0000000000048853
 51
90.0
  0
ARC
  5
D804
  8
0
 10
4323.9367562071947759
 20
195.2418484255009048
 30
0.0
 40
0.0100000000000007
 50
0.0000000000048853
 51
90.0
  0
ARC
  5
D805
  8
0
 10
4323.6642562071938301
 20
195.5418484255010014
 30
0.0
 40
0.009999999999998
 50
359.9999999999902229
 51
90.0
  0
ARC
  5
D806
  8
0
 10
4323.6842562071942666
 20
195.5018484255010094
 30
0.0
 40
0.0099999999999989
 50
180.0
 51
270.0
  0
ARC
  5
D807
  8
0
 10
4323.6842562071942666
 20
195.3018484255009071
 30
0.0
 40
0.0100000000000016
 50
90.0
 51
180.0
  0
ARC
  5
D808
  8
0
 10
4323.6642562071938301
 20
195.2618484255010003
 30
0.0
 40
0.0100000000000007
 50
270.0
 51
359.9999999999951115
  0
ARC
  5
D809
  8
0
 10
4323.6702562071941429
 20
195.7538484255009053
 30
0.0
 40
0.0149999999999997
 50
270.0
 51
359.9999999999968168
  0
LINE
  5
D80A
  8
0
 10
4323.5752562071938883
 20
195.6698484255009873
 30
0.0
 11
4323.5752562071938883
 21
195.5618484255010117
 31
0.0
  0
LINE
  5
D80B
  8
0
 10
4323.6337562071948923
 20
195.7288484255008996
 30
0.0
 11
4323.6337562071948923
 21
195.6898484255009123
 31
0.0
  0
ARC
  5
D80C
  8
0
 10
4323.6437562071942011
 20
195.7288484255008996
 30
0.0
 40
0.0100000000000041
 50
90.0
 51
179.999999999985306
  0
ARC
  5
D80D
  8
0
 10
4323.6237562071946741
 20
195.6898484255009123
 30
0.0
 40
0.009999999999998
 50
270.0
 51
0.0000000000097707
  0
ARC
  5
D80E
  8
0
 10
4323.5852562071941065
 20
195.6698484255009873
 30
0.0
 40
0.0099999999999985
 50
90.0
 51
180.0
  0
ARC
  5
D80F
  8
0
 10
4323.5852562071941065
 20
195.5618484255010117
 30
0.0
 40
0.0100000000000007
 50
180.0
 51
270.0
  0
LINE
  5
D810
  8
0
 10
4322.83562754099421
 20
195.4718484255029978
 30
0.0
 11
4322.83562754099421
 21
195.3318484255005103
 31
0.0
  0
ARC
  5
D811
  8
0
 10
4322.8556751901287498
 20
195.471856571920199
 30
0.0
 40
0.0200476507898201
 50
94.2757559027929375
 51
180.0232823016951897
  0
ARC
  5
D812
  8
0
 10
4322.8556751901287498
 20
195.331840279081689
 30
0.0
 40
0.0200476507898201
 50
179.9767176983046966
 51
265.7242440972070767
  0
LINE
  5
D813
  8
0
 10
4322.8398076999937985
 20
195.4718484255029978
 30
0.0
 11
4322.8398076999937985
 21
195.3318484255005103
 31
0.0
  0
ARC
  5
D814
  8
0
 10
4322.8598553491292478
 20
195.471856571920199
 30
0.0
 40
0.0200476507898201
 50
94.2757559027929375
 51
180.0232823016951897
  0
ARC
  5
D815
  8
0
 10
4322.8598553491292478
 20
195.331840279081689
 30
0.0
 40
0.0200476507898201
 50
179.9767176983046966
 51
265.7242440972070767
  0
LINE
  5
D816
  8
0
 10
4323.6263879319940315
 20
195.4718484255010083
 30
0.0
 11
4323.6263879319940315
 21
195.3318484255009082
 31
0.0
  0
LINE
  5
D817
  8
0
 10
4323.5842350903940314
 20
195.4718484255010083
 30
0.0
 11
4323.5842350903940314
 21
195.3318484255009082
 31
0.0
  0
LINE
  5
D818
  8
0
 10
4323.5518819920944225
 20
195.4718484255010083
 30
0.0
 11
4323.5518819920944225
 21
195.3318484255009082
 31
0.0
  0
LINE
  5
D819
  8
0
 10
4323.5027590884938036
 20
195.4718484255010083
 30
0.0
 11
4323.5027590884938036
 21
195.3318484255009935
 31
0.0
  0
LINE
  5
D81A
  8
0
 10
4323.4662258311946061
 20
195.4718484255010083
 30
0.0
 11
4323.4662258311946061
 21
195.3318484255009082
 31
0.0
  0
LINE
  5
D81B
  8
0
 10
4323.4122797720947347
 20
195.4718484255010083
 30
0.0
 11
4323.4122797720947347
 21
195.3318484255011072
 31
0.0
  0
LINE
  5
D81C
  8
0
 10
4323.3731630344946097
 20
195.476877829272297
 30
0.0
 11
4323.3731630344946097
 21
195.326819021729591
 31
0.0
  0
LINE
  5
D81D
  8
0
 10
4323.3167515215936874
 20
195.4718484227942952
 30
0.0
 11
4323.3167515215936874
 21
195.3318484282075929
 31
0.0
  0
ARC
  5
D81E
  8
0
 10
4323.2960354177612317
 20
195.471156406847598
 30
0.0
 40
0.0207276589146577
 50
1.913238863603544
 51
86.6395673803026938
  0
ARC
  5
D81F
  8
0
 10
4323.3911904726101056
 20
195.4743631270658
 30
0.0
 40
0.0182019848419872
 50
106.1316293480042958
 51
172.0588796961432081
  0
ARC
  5
D820
  8
0
 10
4323.3915829373072484
 20
195.4716160887253125
 30
0.0
 40
0.0206981388197154
 50
0.643159095341897
 51
77.8215918424645565
  0
ARC
  5
D821
  8
0
 10
4323.4185063209961299
 20
195.4714656867552094
 30
0.0
 40
0.0477210450707086
 50
0.459536245824816
 51
10.8686005786490103
  0
ARC
  5
D822
  8
0
 10
4323.4795389819719276
 20
195.4831840409121924
 30
0.0
 40
0.0144264048376814
 50
143.0876854699345131
 51
190.8686011608747037
  0
ARC
  5
D823
  8
0
 10
4323.4804413965057392
 20
195.4699682029323071
 30
0.0
 40
0.0223967545106538
 50
4.8156870686181081
 51
77.6708851165811041
  0
ARC
  5
D824
  8
0
 10
4323.5146668980296454
 20
195.4710353796606057
 30
0.0
 40
0.0372239743946374
 50
1.2515536225130901
 51
25.2667045239900609
  0
ARC
  5
D825
  8
0
 10
4323.5513727322886552
 20
195.4886148054065984
 30
0.0
 40
0.0034813394778096
 50
111.7447260827722033
 51
209.0609860080737121
  0
ARC
  5
D826
  8
0
 10
4323.5620981494994339
 20
195.4704427991106002
 30
0.0
 40
0.0221815224399663
 50
3.6332248512916521
 51
74.8009001205820567
  0
ARC
  5
D827
  8
0
 10
4323.596164336129732
 20
195.4709151750327862
 30
0.0
 40
0.0302380009814091
 50
1.768629010730542
 51
43.8110915431697876
  0
LINE
  5
D828
  8
0
 10
4323.6531468856937863
 20
195.4735271745772138
 30
0.0
 11
4323.6531468856937863
 21
195.3301696764247026
 31
0.0
  0
LINE
  5
D829
  8
0
 10
4323.6864873837948835
 20
195.4718484255008093
 30
0.0
 11
4323.6864873837948835
 21
195.3318484255011924
 31
0.0
  0
LINE
  5
D82A
  8
0
 10
4323.7064826981941223
 20
195.47269370865871
 30
0.0
 11
4323.7064826981941223
 21
195.3310031423430928
 31
0.0
  0
LINE
  5
D82B
  8
0
 10
4323.7295537129948571
 20
195.4718484255008946
 30
0.0
 11
4323.7295537129948571
 21
195.3318484255009935
 31
0.0
  0
LINE
  5
D82C
  8
0
 10
4323.7419114968943177
 20
195.4718484255010935
 30
0.0
 11
4323.7419114968943177
 21
195.3318484255007945
 31
0.0
  0
LINE
  5
D82D
  8
0
 10
4323.7587562071948923
 20
195.4718484255029978
 30
0.0
 11
4323.7587562071948923
 21
195.3318484255005103
 31
0.0
  0
ARC
  5
D82E
  8
0
 10
4323.738708558059443
 20
195.471856571920199
 30
0.0
 40
0.0200476507898201
 50
359.9767176983048103
 51
85.7242440972070625
  0
ARC
  5
D82F
  8
0
 10
4323.7217879346071641
 20
195.4717626872966036
 30
0.0
 40
0.0201237449340625
 50
0.244112223257956
 51
86.4780607912886836
  0
ARC
  5
D830
  8
0
 10
4323.708239447426422
 20
195.4717141527264062
 30
0.0
 40
0.0213146885018345
 50
0.3609395543872172
 51
55.3751663595722476
  0
ARC
  5
D831
  8
0
 10
4323.7111570574134021
 20
195.4759395498188042
 30
0.0
 40
0.016179863419184
 50
55.3751663595731927
 51
79.4989424061426604
  0
ARC
  5
D832
  8
0
 10
4323.6872767203121839
 20
195.4722710670799017
 30
0.0
 40
0.019210627588701
 50
1.2606320377591369
 51
50.4628044188208804
  0
ARC
  5
D833
  8
0
 10
4323.6852685750172895
 20
195.4685975583383879
 30
0.0
 40
0.0233353914486624
 50
52.4023198401108488
 51
85.1218851880968828
  0
ARC
  5
D834
  8
0
 10
4323.6631937681077034
 20
195.4716633833290018
 30
0.0
 40
0.0232943506536603
 50
0.45514241417914
 51
60.0568308655405403
  0
ARC
  5
D835
  8
0
 10
4323.6342182962871448
 20
195.4726878000390968
 30
0.0
 40
0.0189471909930842
 50
2.5390762741352382
 51
56.697193769328031
  0
ARC
  5
D836
  8
0
 10
4323.630171401950065
 20
195.4619784965144049
 30
0.0
 40
0.0302232109665149
 50
61.437768402775319
 51
81.230960552709945
  0
ARC
  5
D837
  8
0
 10
4323.2960354177612317
 20
195.3325404441542901
 30
0.0
 40
0.0207276589146577
 50
273.360432619697292
 51
358.0867611363963761
  0
ARC
  5
D838
  8
0
 10
4323.3911904726101056
 20
195.3293337239360881
 30
0.0
 40
0.0182019848419872
 50
187.9411203038567919
 51
253.86837065199569
  0
ARC
  5
D839
  8
0
 10
4323.3915829373072484
 20
195.332080762276604
 30
0.0
 40
0.0206981388197154
 50
282.1784081575355003
 51
359.3568409046580996
  0
ARC
  5
D83A
  8
0
 10
4323.4185063209961299
 20
195.3322311642467071
 30
0.0
 40
0.0477210450707086
 50
349.1313994213509773
 51
359.5404637541752209
  0
ARC
  5
D83B
  8
0
 10
4323.4795389819719276
 20
195.3205128100896957
 30
0.0
 40
0.0144264048376814
 50
169.1313988391252963
 51
216.9123145300654869
  0
ARC
  5
D83C
  8
0
 10
4323.4804413965057392
 20
195.3337286480696093
 30
0.0
 40
0.0223967545106538
 50
282.3291148834189244
 51
355.1843129313803047
  0
ARC
  5
D83D
  8
0
 10
4323.5146668980296454
 20
195.3326614713413107
 30
0.0
 40
0.0372239743946374
 50
334.7332954760099142
 51
358.7484463774869141
  0
ARC
  5
D83E
  8
0
 10
4323.5513727322886552
 20
195.3150820455952896
 30
0.0
 40
0.0034813394778096
 50
150.9390139919262879
 51
248.2552739172276972
  0
ARC
  5
D83F
  8
0
 10
4323.5620981494994339
 20
195.3332540518912879
 30
0.0
 40
0.0221815224399663
 50
285.1990998794179859
 51
356.3667751487084274
  0
ARC
  5
D840
  8
0
 10
4323.596164336129732
 20
195.3327816759691018
 30
0.0
 40
0.0302380009814091
 50
316.1889084568301769
 51
358.2313709892695215
  0
ARC
  5
D841
  8
0
 10
4323.738708558059443
 20
195.331840279081689
 30
0.0
 40
0.0200476507898201
 50
274.2757559027929233
 51
0.0232823016952486
  0
ARC
  5
D842
  8
0
 10
4323.7217879346071641
 20
195.3319341637053981
 30
0.0
 40
0.0201237449340625
 50
273.5219392087112737
 51
359.7558877767403942
  0
ARC
  5
D843
  8
0
 10
4323.708239447426422
 20
195.3319826982755103
 30
0.0
 40
0.0213146885018345
 50
304.6248336404277097
 51
359.6390604456128131
  0
ARC
  5
D844
  8
0
 10
4323.7111570574134021
 20
195.3277573011831123
 30
0.0
 40
0.016179863419184
 50
280.5010575938574107
 51
304.6248336404268002
  0
ARC
  5
D845
  8
0
 10
4323.6872767203121839
 20
195.3314257839219863
 30
0.0
 40
0.019210627588701
 50
309.5371955811791054
 51
358.7393679622409195
  0
ARC
  5
D846
  8
0
 10
4323.6852685750172895
 20
195.3350992926635001
 30
0.0
 40
0.0233353914486624
 50
274.8781148119031172
 51
307.5976801598891939
  0
ARC
  5
D847
  8
0
 10
4323.6631937681077034
 20
195.3320334676729999
 30
0.0
 40
0.0232943506536603
 50
299.943169134459481
 51
359.544857585820921
  0
ARC
  5
D848
  8
0
 10
4323.6342182962871448
 20
195.3310090509629049
 30
0.0
 40
0.0189471909930842
 50
303.3028062306719903
 51
357.4609237258648022
  0
ARC
  5
D849
  8
0
 10
4323.630171401950065
 20
195.3417183544875115
 30
0.0
 40
0.0302232109665149
 50
278.7690394472900834
 51
298.5622315972245815
  0
LINE
  5
D84A
  8
0
 10
4323.7578848733937775
 20
195.4718484255029978
 30
0.0
 11
4323.7578848733937775
 21
195.3318484255005103
 31
0.0
  0
ARC
  5
D84B
  8
0
 10
4323.7378372242601472
 20
195.471856571920199
 30
0.0
 40
0.0200476507898201
 50
359.9767176983048103
 51
85.7242440972070625
  0
ARC
  5
D84C
  8
0
 10
4323.7378372242601472
 20
195.331840279081689
 30
0.0
 40
0.0200476507898201
 50
274.2757559027929233
 51
0.0232823016952486
  0
LINE
  5
D84D
  8
0
 10
4323.7537047143941891
 20
195.4718484255029978
 30
0.0
 11
4323.7537047143941891
 21
195.3318484255005103
 31
0.0
  0
ARC
  5
D84E
  8
0
 10
4323.7336570652587397
 20
195.471856571920199
 30
0.0
 40
0.0200476507898201
 50
359.9767176983048103
 51
85.7242440972070625
  0
ARC
  5
D84F
  8
0
 10
4323.7336570652587397
 20
195.331840279081689
 30
0.0
 40
0.0200476507898201
 50
274.2757559027929233
 51
0.0232823016952486
  0
LINE
  5
D850
  8
0
 10
4317.9248711466561872
 20
198.9185172999902136
 30
0.0
 11
4317.8671789041927696
 21
198.5902571381637927
 31
0.0
  0
LINE
  5
D851
  8
0
 10
4318.8554877232836589
 20
198.7549599653850976
 30
0.0
 11
4318.7977954807947754
 21
198.4266998034009077
 31
0.0
  0
LINE
  5
D852
  8
0
 10
4317.8496303550109587
 20
198.5831880549276036
 30
0.0
 11
4318.8118820593817873
 21
198.4140707963312877
 31
0.0
  0
ARC
  5
D853
  8
0
 10
4317.8770279491964175
 20
198.5885261528879084
 30
0.0
 40
0.0099999998759247
 50
170.0319767577099128
 51
260.0319769984888012
  0
ARC
  5
D854
  8
0
 10
4318.7879464353736694
 20
198.4284307887751879
 30
0.0
 40
0.0100000003036426
 50
260.0422135529599927
 51
350.0319766162434121
  0
ARC
  5
D855
  8
0
 10
4317.8461683818895835
 20
198.5634899651986984
 30
0.0
 40
0.0199999999215022
 50
80.0319693684443934
 51
170.0319771247013136
  0
LINE
  5
D856
  8
0
 10
4317.8264702916912938
 20
198.566951935653691
 30
0.0
 11
4317.8209311388627611
 21
198.5354349911387999
 31
0.0
  0
ARC
  5
D857
  8
0
 10
4317.8110820939427867
 20
198.5371659763553112
 30
0.0
 40
0.0099999997815398
 50
305.0319760411367156
 51
350.0319770078298802
  0
LINE
  5
D858
  8
0
 10
4317.7914348103968223
 20
198.530465749022909
 30
0.0
 11
4318.8487140424149402
 21
198.3446472521810904
 31
0.0
  0
LINE
  5
D859
  8
0
 10
4317.7689775045037095
 20
198.5141258936197914
 30
0.0
 11
4317.7319282000826206
 21
198.3033376459790134
 31
0.0
  0
LINE
  5
D85A
  8
0
 10
4318.8641689924461389
 20
198.3216242183382008
 30
0.0
 11
4318.8271259531693431
 21
198.1108549094327884
 31
0.0
  0
ARC
  5
D85B
  8
0
 10
4317.8110820936808523
 20
198.5371659764381889
 30
0.0
 40
0.0100000000000026
 50
260.0319770000243125
 51
305.0319770000461972
  0
ARC
  5
D85C
  8
0
 10
4317.7887348760714303
 20
198.5105740503367997
 30
0.0
 40
0.0200740957948585
 50
82.2703825949978125
 51
169.8086210247676888
  0
LINE
  5
D85D
  8
0
 10
4318.7464508161838239
 20
198.0417768903820104
 30
0.0
 11
4317.7841991127943402
 21
198.2108941487576885
 31
0.0
  0
LINE
  5
D85E
  8
0
 10
4317.7679629899539577
 20
198.2340542100947971
 30
0.0
 11
4317.7735021427697575
 21
198.2655711545104111
 31
0.0
  0
LINE
  5
D85F
  8
0
 10
4317.7474677848940701
 20
198.2803000026391942
 30
0.0
 11
4318.8042542653183773
 21
198.0945681076694029
 31
0.0
  0
ARC
  5
D860
  8
0
 10
4317.751717736646242
 20
198.2999265040315038
 30
0.0
 40
0.0200813756200285
 50
170.2199747977726929
 51
257.7817282911573216
  0
ARC
  5
D861
  8
0
 10
4317.7636530977770235
 20
198.2673021398784101
 30
0.0
 40
0.009999999880655
 50
350.0319762267558872
 51
80.0319769984891138
  0
ARC
  5
D862
  8
0
 10
4317.7876610803059521
 20
198.2305922396296012
 30
0.0
 40
0.0200000000762841
 50
170.0319771726923932
 51
260.0319857623176745
  0
LINE
  5
D863
  8
0
 10
4323.7691962071939997
 20
198.4088484255009917
 30
0.0
 11
4323.7691962071939997
 21
195.2518484255010094
 31
0.0
  0
LINE
  5
D864
  8
0
 10
4322.8243162071948973
 20
198.4088484255009064
 30
0.0
 11
4322.8243162071948973
 21
195.2518484255010094
 31
0.0
  0
ARC
  5
D865
  8
0
 10
4318.7499127898681763
 20
198.0614749800421066
 30
0.0
 40
0.0199999999510897
 50
260.0319677469987028
 51
350.0319770580391037
  0
LINE
  5
D866
  8
0
 10
4318.7696108800992079
 20
198.0580130095831919
 30
0.0
 11
4318.7751500329168266
 21
198.0895299539986922
 31
0.0
  0
LINE
  5
D867
  8
0
 10
4318.8225790289197903
 20
198.3593937906103122
 30
0.0
 11
4318.8281181817583274
 21
198.3909107351418015
 31
0.0
  0
ARC
  5
D868
  8
0
 10
4318.7849990783133762
 20
198.0877989686964895
 30
0.0
 40
0.0100000002676687
 50
80.0450647602280156
 51
170.0319769984579921
  0
ARC
  5
D869
  8
0
 10
4318.8074303308421804
 20
198.1143107823718026
 30
0.0
 40
0.019996514611768
 50
260.8609527786207991
 51
350.0479605231993219
  0
ARC
  5
D86A
  8
0
 10
4318.8444494764780757
 20
198.3250856930741008
 30
0.0
 40
0.0200210168901867
 50
350.0439862260882933
 51
77.7015202418661346
  0
ARC
  5
D86B
  8
0
 10
4318.8084200915182009
 20
198.394372705648891
 30
0.0
 40
0.019999999950476
 50
350.0319770234024759
 51
80.031984677263253
  0
ARC
  5
D86C
  8
0
 10
4318.8324280739516325
 20
198.3576628053723141
 30
0.0
 40
0.0099999999133631
 50
170.0319768465730021
 51
260.0319772056275838
  0
CIRCLE
  5
D86D
  8
0
 10
4323.2967562071944485
 20
196.1098641255009056
 30
0.0
 40
0.2839999999999989
  0
CIRCLE
  5
D86E
  8
0
 10
4323.2967562071944485
 20
196.1098641255009056
 30
0.0
 40
0.2800000000000008
  0
LINE
  5
D86F
  8
0
 10
4317.78031142771124
 20
198.5121141640684073
 30
0.0
 11
4317.7432683432662088
 21
198.3013445981420091
 31
0.0
  0
LINE
  5
D870
  8
0
 10
4317.7896738293693488
 20
198.5104687072152956
 30
0.0
 11
4317.7526307449261367
 21
198.2996991412888974
 31
0.0
  0
LINE
  5
D871
  8
0
 10
4317.8122593846082964
 20
198.5064992601552092
 30
0.0
 11
4317.7752163000650398
 21
198.2957296942408902
 31
0.0
  0
LINE
  5
D872
  8
0
 10
4317.8289062367502993
 20
198.5035735494886922
 30
0.0
 11
4317.7918631523180011
 21
198.2928039836615142
 31
0.0
  0
LINE
  5
D873
  8
0
 10
4317.8635874130541197
 20
198.4974782779131885
 30
0.0
 11
4317.826544328622731
 21
198.2867087120860106
 31
0.0
  0
LINE
  5
D874
  8
0
 10
4317.8868789865509825
 20
198.4933847470531134
 30
0.0
 11
4317.8498359021195938
 21
198.282615181225907
 31
0.0
  0
LINE
  5
D875
  8
0
 10
4317.9323230057989349
 20
198.4853978888378947
 30
0.0
 11
4317.8952799212693208
 21
198.2746283230227959
 31
0.0
  0
LINE
  5
D876
  8
0
 10
4317.9613642185995559
 20
198.4802938497915079
 30
0.0
 11
4317.9243211340699418
 21
198.2695242839764944
 31
0.0
  0
LINE
  5
D877
  8
0
 10
4318.0158246924465857
 20
198.4707223353763084
 30
0.0
 11
4317.9787816080161065
 21
198.259952769549102
 31
0.0
  0
LINE
  5
D878
  8
0
 10
4318.0494995069520883
 20
198.4648039335191925
 30
0.0
 11
4318.0124564225088761
 21
198.254034367592709
 31
0.0
  0
LINE
  5
D879
  8
0
 10
4318.1108835502491274
 20
198.4540155908524071
 30
0.0
 11
4318.0738404658059153
 21
198.2432460249260089
 31
0.0
  0
LINE
  5
D87A
  8
0
 10
4318.1478978622026261
 20
198.447510267020192
 30
0.0
 11
4318.1108547776602791
 21
198.2367407011059015
 31
0.0
  0
LINE
  5
D87B
  8
0
 10
4318.2138465203343003
 20
198.4359196860031034
 30
0.0
 11
4318.1768034359020021
 21
198.2251501201760107
 31
0.0
  0
LINE
  5
D87C
  8
0
 10
4318.2527778905905507
 20
198.4290774361332126
 30
0.0
 11
4318.2157348060591175
 21
198.2183078703181991
 31
0.0
  0
LINE
  5
D87D
  8
0
 10
4318.3207285690659774
 20
198.4171349969331004
 30
0.0
 11
4318.2836854846345886
 21
198.2063654311060077
 31
0.0
  0
LINE
  5
D87E
  8
0
 10
4318.3604110148571635
 20
198.4119316555081127
 30
0.0
 11
4318.3227638866101188
 21
198.1977250402835011
 31
0.0
  0
ARC
  5
D87F
  8
0
 10
4317.8000565351703699
 20
198.5085930648428132
 30
0.0
 40
0.0200566051046697
 50
81.4915658045637343
 51
169.8888630453270139
  0
ARC
  5
D880
  8
0
 10
4317.8096831344801103
 20
198.5070949036658874
 30
0.0
 40
0.0202917431831324
 50
91.882029582349503
 51
170.4292801933862052
  0
ARC
  5
D881
  8
0
 10
4317.8318093725119979
 20
198.5032610970237101
 30
0.0
 40
0.0198163500045232
 50
81.953475726194128
 51
170.5951974458091058
  0
ARC
  5
D882
  8
0
 10
4317.8508478141447995
 20
198.4996559347538039
 30
0.0
 40
0.0222885738392284
 50
105.8697498060560065
 51
169.876654597737712
  0
ARC
  5
D883
  8
0
 10
4317.884527454801173
 20
198.4932818790709916
 30
0.0
 40
0.021356383392477
 50
96.2323449443185979
 51
168.6679943037835869
  0
ARC
  5
D884
  8
0
 10
4317.912218763321107
 20
198.48868871915559
 30
0.0
 40
0.0257712429803919
 50
118.2810157564104969
 51
169.5009227782003052
  0
ARC
  5
D885
  8
0
 10
4317.9531247013719621
 20
198.4817912495502128
 30
0.0
 40
0.0211120436161539
 50
99.1182887478312011
 51
170.1637297822379082
  0
ARC
  5
D886
  8
0
 10
4317.9941045904697603
 20
198.4738983928727123
 30
0.0
 40
0.033359163948276
 50
131.8275680735808066
 51
168.9471050143176001
  0
ARC
  5
D887
  8
0
 10
4318.0352885120692008
 20
198.4688230060232002
 30
0.0
 40
0.0195562707657877
 50
98.9356114076466042
 51
174.4265771439179957
  0
ARC
  5
D888
  8
0
 10
4318.1184303808859113
 20
198.4485185838379095
 30
0.0
 40
0.0708285111763665
 50
150.132747009899191
 51
166.7072571220629129
  0
ARC
  5
D889
  8
0
 10
4318.131616290214879
 20
198.4523585111712976
 30
0.0
 40
0.0207988562079294
 50
109.8611780493109933
 51
175.4303062256228998
  0
ARC
  5
D88A
  8
0
 10
4318.2970952793948527
 20
198.4141783245200088
 30
0.0
 40
0.1528753992223539
 50
159.8582411444801039
 51
167.4064488926246952
  0
ARC
  5
D88B
  8
0
 10
4318.2330848771598539
 20
198.433707583107207
 30
0.0
 40
0.0193651174171388
 50
93.2951980626068007
 51
173.4407093241796076
  0
LINE
  5
D88C
  8
0
 10
4318.2527778905905507
 20
198.4290774361332126
 30
0.0
 11
4318.2568996907566543
 21
198.4486595603011949
 31
0.0
  0
ARC
  5
D88D
  8
0
 10
4318.3390463155601537
 20
198.4156917214405098
 30
0.0
 40
0.0183745171573658
 50
86.6868577942201171
 51
175.494909411995792
  0
ARC
  5
D88E
  8
0
 10
4318.3278951132497241
 20
198.4191877186098907
 30
0.0
 40
0.0333156766262003
 50
347.420311628393506
 51
20.1907896999940917
  0
ARC
  5
D88F
  8
0
 10
4317.7626803183047741
 20
198.2978531617717977
 30
0.0
 40
0.0197234607208943
 50
169.8038003142883952
 51
252.9658619177965022
  0
ARC
  5
D890
  8
0
 10
4317.7715001763381224
 20
198.3266402608240071
 30
0.0
 40
0.0498313827274436
 50
252.9658619177965022
 51
258.0212707914161001
  0
ARC
  5
D891
  8
0
 10
4317.7731068094890361
 20
198.2961420729010911
 30
0.0
 40
0.020782732147629
 50
170.1450203929900908
 51
244.6784230341673094
  0
ARC
  5
D892
  8
0
 10
4317.7949220489581421
 20
198.2922387215712092
 30
0.0
 40
0.0200125817817612
 50
169.9539930221573911
 51
256.4169513931540791
  0
ARC
  5
D893
  8
0
 10
4317.8142962995825656
 20
198.2890512963292053
 30
0.0
 40
0.0227448622419874
 50
170.5033144971814068
 51
232.5984268814904112
  0
ARC
  5
D894
  8
0
 10
4317.8476654519517979
 20
198.2835185708163976
 30
0.0
 40
0.0213606847279467
 50
171.4109488680309994
 51
243.8465979693986014
  0
ARC
  5
D895
  8
0
 10
4317.8761692925872921
 20
198.2784239970723092
 30
0.0
 40
0.0266648359847727
 50
170.9567375562716904
 51
220.0450340328029881
  0
ARC
  5
D896
  8
0
 10
4317.9153433818519261
 20
198.2708153797636044
 30
0.0
 40
0.0204225607314734
 50
169.2395916063983066
 51
244.9335600859172928
  0
ARC
  5
D897
  8
0
 10
4317.9579126324269964
 20
198.2644305321528861
 30
0.0
 40
0.0339755069062585
 50
171.377464205868506
 51
207.7764048007043982
  0
ARC
  5
D898
  8
0
 10
4317.9977864310221776
 20
198.2559453345745055
 30
0.0
 40
0.0194227400893243
 50
168.0928107680398966
 51
254.830747819869913
  0
ARC
  5
D899
  8
0
 10
4318.0829123943722152
 20
198.2458351287575056
 30
0.0
 40
0.0709314562700072
 50
173.3621224595177921
 51
189.9119968025943876
  0
ARC
  5
D89A
  8
0
 10
4318.094626820708072
 20
198.2395933638788108
 30
0.0
 40
0.0211048450096735
 50
170.0335109652392873
 51
241.4154683821919036
  0
ARC
  5
D89B
  8
0
 10
4318.2618807524468139
 20
198.2172647709546993
 30
0.0
 40
0.1522765803249093
 50
172.6518345986170004
 51
180.2299062006142947
  0
ARC
  5
D89C
  8
0
 10
4318.1974542269099402
 20
198.2202375987988034
 30
0.0
 40
0.0212270590405122
 50
166.6188814120440895
 51
231.9967897984668923
  0
LINE
  5
D89D
  8
0
 10
4318.2157348060591175
 20
198.2183078703181991
 30
0.0
 11
4318.2129311519793191
 21
198.198494079878003
 31
0.0
  0
ARC
  5
D89E
  8
0
 10
4318.3015683899602664
 20
198.2015987713768936
 30
0.0
 40
0.0185072782401086
 50
165.0749095360642116
 51
253.8829630890622866
  0
ARC
  5
D89F
  8
0
 10
4318.2861798286630801
 20
198.2030424763136125
 30
0.0
 40
0.0369684787591515
 50
322.3766559195917125
 51
351.7300602731489789
  0
LINE
  5
D8A0
  8
0
 10
4318.8544495034529973
 20
198.3233328131362896
 30
0.0
 11
4318.8174064630011344
 21
198.1125632394783054
 31
0.0
  0
LINE
  5
D8A1
  8
0
 10
4318.8465799227769821
 20
198.3247159029475881
 30
0.0
 11
4318.8095368823242097
 21
198.1139463292896039
 31
0.0
  0
LINE
  5
D8A2
  8
0
 10
4318.8375474341328299
 20
198.3263033731539906
 30
0.0
 11
4318.800504393778283
 21
198.1155337994736101
 31
0.0
  0
LINE
  5
D8A3
  8
0
 10
4318.824075325839658
 20
198.3286711143246919
 30
0.0
 11
4318.787032285409623
 21
198.1179015407641941
 31
0.0
  0
LINE
  5
D8A4
  8
0
 10
4318.7946320799146633
 20
198.3338458047234099
 30
0.0
 11
4318.7575890394846283
 21
198.1230762311629121
 31
0.0
  0
LINE
  5
D8A5
  8
0
 10
4318.7741977000368934
 20
198.3374371747426892
 30
0.0
 11
4318.7371546596068583
 21
198.1266676011821914
 31
0.0
  0
LINE
  5
D8A6
  8
0
 10
4318.7333447645532942
 20
198.3446171337207034
 30
0.0
 11
4318.6963017242196656
 21
198.1338475601376956
 31
0.0
  0
LINE
  5
D8A7
  8
0
 10
4318.7067333950026295
 20
198.349294118132093
 30
0.0
 11
4318.6696903546708199
 21
198.1385245445491137
 31
0.0
  0
LINE
  5
D8A8
  8
0
 10
4318.6560407255010432
 20
198.3582034238052927
 30
0.0
 11
4318.6189976850710082
 21
198.1474338502447949
 31
0.0
  0
LINE
  5
D8A9
  8
0
 10
4318.6242750262281334
 20
198.3637862887680967
 30
0.0
 11
4318.5872319857762704
 21
198.1530167151101125
 31
0.0
  0
LINE
  5
D8AA
  8
0
 10
4318.5656907134525682
 20
198.3740825615932977
 30
0.0
 11
4318.5286476730016147
 21
198.1633129879353135
 31
0.0
  0
LINE
  5
D8AB
  8
0
 10
4318.5299914222878215
 20
198.3803567607112939
 30
0.0
 11
4318.492948381932365
 21
198.1695871870309134
 31
0.0
  0
LINE
  5
D8AC
  8
0
 10
4318.4657668286399712
 20
198.3916443205800135
 30
0.0
 11
4318.4287237882108457
 21
198.1808747470194874
 31
0.0
  0
LINE
  5
D8AD
  8
0
 10
4318.4275058495823032
 20
198.3983687398709037
 30
0.0
 11
4318.3904628092495841
 21
198.187599166287896
 31
0.0
  0
ARC
  5
D8AE
  8
0
 10
4318.8346870516606941
 20
198.3267552256612021
 30
0.0
 40
0.0200566051046697
 50
350.1751029343377013
 51
78.572400175099304
  0
ARC
  5
D8AF
  8
0
 10
4318.8266193292056414
 20
198.328366867984812
 30
0.0
 40
0.0202917431831324
 50
349.6346857862803859
 51
68.1819363972927164
  0
ARC
  5
D8B0
  8
0
 10
4318.8180648820953138
 20
198.3299252364296024
 30
0.0
 40
0.0198163500045232
 50
349.4687685338583947
 51
78.110490253489985
  0
ARC
  5
D8B1
  8
0
 10
4318.8021128298232725
 20
198.3324697051822056
 30
0.0
 40
0.0222885738392284
 50
350.1873113819277137
 51
54.1942161736144286
  0
ARC
  5
D8B2
  8
0
 10
4318.7735160441407061
 20
198.3370408234727051
 30
0.0
 40
0.021356383392477
 50
351.3959716758806167
 51
63.8316210353466289
  0
ARC
  5
D8B3
  8
0
 10
4318.748775229383682
 20
198.3416626866249999
 30
0.0
 40
0.0257712429803919
 50
350.5630432014658027
 51
41.7829502232373571
  0
ARC
  5
D8B4
  8
0
 10
4318.7125598752154474
 20
198.3483193980067085
 30
0.0
 40
0.0211120436161539
 50
349.9002361974248174
 51
60.9456772318080198
  0
ARC
  5
D8B5
  8
0
 10
4318.6737743625144503
 20
198.3544454283332925
 30
0.0
 40
0.033359163948276
 50
351.116860965349872
 51
28.2363979060764798
  0
ARC
  5
D8B6
  8
0
 10
4318.637095681293431
 20
198.3630545088635984
 30
0.0
 40
0.0195562707657877
 50
345.637388835753427
 51
61.1283545720595782
  0
ARC
  5
D8B7
  8
0
 10
4318.5539220832697538
 20
198.3719802751323869
 30
0.0
 40
0.0708285111763665
 50
353.3567088575982211
 51
9.9312189697740152
  0
ARC
  5
D8B8
  8
0
 10
4318.5456353904592106
 20
198.3795940440764127
 30
0.0
 40
0.0207988562079294
 50
344.6336597540445155
 51
50.2027879303823781
  0
ARC
  5
D8B9
  8
0
 10
4318.3783696081018206
 20
198.3998942413658142
 30
0.0
 40
0.1528753992223539
 50
352.6575170870381726
 51
0.2057248351898677
  0
ARC
  5
D8BA
  8
0
 10
4318.446927089458768
 20
198.3961244991633919
 30
0.0
 40
0.0193651174171388
 50
346.6232566554865002
 51
66.7687679170525428
  0
LINE
  5
D8BB
  8
0
 10
4318.4275058495823032
 20
198.3983687398709037
 30
0.0
 11
4318.4303079862984305
 21
198.4181827968344862
 31
0.0
  0
ARC
  5
D8BC
  8
0
 10
4318.7972398295833045
 20
198.1163289776035867
 30
0.0
 40
0.0205152111135818
 50
269.7935157799644799
 51
349.4229078420221981
  0
ARC
  5
D8BD
  8
0
 10
4318.7890750124206534
 20
198.1175841632039862
 30
0.0
 40
0.020782732147629
 50
275.385542945509826
 51
349.918945586675477
  0
ARC
  5
D8BE
  8
0
 10
4318.7807892142236597
 20
198.1189711130629121
 30
0.0
 40
0.0200125817817612
 50
263.6470145865075096
 51
350.1099729575014976
  0
ARC
  5
D8BF
  8
0
 10
4318.764663912837932
 20
198.1220227865557035
 30
0.0
 40
0.0227448622419874
 50
287.4655390981616847
 51
349.5606514824812052
  0
ARC
  5
D8C0
  8
0
 10
4318.7366458781380061
 20
198.1272789499047065
 30
0.0
 40
0.0213606847279467
 50
276.2173680102624758
 51
348.653017111638178
  0
ARC
  5
D8C1
  8
0
 10
4318.71097025567542
 20
198.1317064967763031
 30
0.0
 40
0.0266648359847727
 50
300.0189319468453277
 51
349.1072284233979985
  0
ARC
  5
D8C2
  8
0
 10
4318.6761404866692828
 20
198.1371041668442103
 30
0.0
 40
0.0204225607314734
 50
275.1304058937888044
 51
350.8243743732633106
  0
ARC
  5
D8C3
  8
0
 10
4318.6363750438913485
 20
198.145189763014713
 30
0.0
 40
0.0339755069062585
 50
312.2875611789850723
 51
348.6865017737994776
  0
ARC
  5
D8C4
  8
0
 10
4318.5997653290405651
 20
198.1501466558260915
 30
0.0
 40
0.0194227400893243
 50
265.2332181597884073
 51
351.9711552116290818
  0
ARC
  5
D8C5
  8
0
 10
4318.5182024661216929
 20
198.1693322569327904
 30
0.0
 40
0.0709314562700072
 50
330.1519691770549798
 51
346.7018435201551938
  0
ARC
  5
D8C6
  8
0
 10
4318.5078615129468744
 20
198.1669667576466907
 30
0.0
 40
0.0211048450096735
 50
278.6484975974977942
 51
350.0304550144313112
  0
ARC
  5
D8C7
  8
0
 10
4318.3443320847200084
 20
198.2027738276894127
 30
0.0
 40
0.1522765803249092
 50
339.8340597790506763
 51
347.4121313810475158
  0
ARC
  5
D8C8
  8
0
 10
4318.4076354925955457
 20
198.1832979316162948
 30
0.0
 40
0.0212270590405122
 50
288.0671761811980787
 51
353.4450845676183235
  0
LINE
  5
D8C9
  8
0
 10
4318.3904628092495841
 20
198.187599166287896
 30
0.0
 11
4318.3863425263953104
 21
198.1680167752946033
 31
0.0
  0
LINE
  5
D8CA
  8
0
 10
4318.8604415717418306
 20
198.322279318419703
 30
0.0
 11
4318.8233985324650348
 21
198.1115100095142054
 31
0.0
  0
ARC
  5
D8CB
  8
0
 10
4318.8037029101378721
 20
198.1149658824531912
 30
0.0
 40
0.019996514611768
 50
260.8609527786207991
 51
350.0479605231993219
  0
ARC
  5
D8CC
  8
0
 10
4318.8407220557755863
 20
198.3257407931554894
 30
0.0
 40
0.0200210168901867
 50
350.0439862260882933
 51
77.7015202418661346
  0
ARC
  5
D8CD
  8
0
 10
4320.8248102071602261
 20
198.4088484251174975
 30
0.0
 40
1.999506000033926
 50
0.0000000109887401
 51
170.0319770055197068
  0
ARC
  5
D8CE
  8
0
 10
4320.8248102072102483
 20
198.4088484255152878
 30
0.0
 40
2.944385999984342
 50
359.9999999997215241
 51
170.0319770161788142
  0
LINE
  5
D8CF
  8
0
 10
4317.7706942394670477
 20
198.5138241747359871
 30
0.0
 11
4317.7336449350459588
 21
198.303035927095209
 31
0.0
  0
ARC
  5
D8D0
  8
0
 10
4317.7904516110356781
 20
198.5102723314529953
 30
0.0
 40
0.0200740957948585
 50
82.2703825949978125
 51
169.8086210247676888
  0
ARC
  5
D8D1
  8
0
 10
4317.7534344716086707
 20
198.2996247851476994
 30
0.0
 40
0.0200813756200285
 50
170.2199747977726929
 51
257.7817282911573216
  0
ENDSEC
  0
EOF
