  0
SECTION
  2
HEADER
  9
$ACADVER
  1
AC1009
  9
$INSBASE
 10
4341.4005959508913293
 20
192.1151837326551117
 30
0.0
  9
$EXTMIN
 10
4334.5675395101970935
 20
186.5462816387179998
 30
-0.0000000000112498
  9
$EXTMAX
 10
4348.1176022268200541
 20
193.155814767245289
 30
0.0000000000002956
  9
$LIMMIN
 10
0.0
 20
0.0
  9
$LIMMAX
 10
11.6929133858000007
 20
8.2677165353999982
  9
$ORTHOMODE
 70
     0
  9
$REGENMODE
 70
     1
  9
$FILLMODE
 70
     1
  9
$QTEXTMODE
 70
     0
  9
$MIRRTEXT
 70
     0
  9
$DRAGMODE
 70
     2
  9
$LTSCALE
 40
0.6431102362
  9
$OSMODE
 70
     7
  9
$ATTMODE
 70
     1
  9
$TEXTSIZE
 40
0.2
  9
$TRACEWID
 40
0.05
  9
$TEXTSTYLE
  7
STANDARD
  9
$CLAYER
  8
0
  9
$CELTYPE
  6
BYLAYER
  9
$CECOLOR
 62
   256
  9
$DIMSCALE
 40
1.0
  9
$DIMASZ
 40
0.1875
  9
$DIMEXO
 40
0.0625
  9
$DIMDLI
 40
0.4443307087
  9
$DIMRND
 40
0.0
  9
$DIMDLE
 40
0.0
  9
$DIMEXE
 40
0.125
  9
$DIMTP
 40
0.01
  9
$DIMTM
 40
0.01
  9
$DIMTXT
 40
2.0
  9
$DIMCEN
 40
0.1052362205
  9
$DIMTSZ
 40
0.0
  9
$DIMTOL
 70
     1
  9
$DIMLIM
 70
     0
  9
$DIMTIH
 70
     1
  9
$DIMTOH
 70
     1
  9
$DIMSE1
 70
     0
  9
$DIMSE2
 70
     0
  9
$DIMTAD
 70
     0
  9
$DIMZIN
 70
     0
  9
$DIMBLK
  1

  9
$DIMASO
 70
     1
  9
$DIMSHO
 70
     1
  9
$DIMPOST
  1
\X
  9
$DIMAPOST
  1

  9
$DIMALT
 70
     1
  9
$DIMALTD
 70
     2
  9
$DIMALTF
 40
25.3999999999999986
  9
$DIMLFAC
 40
1.0
  9
$DIMTOFL
 70
     0
  9
$DIMTVP
 40
0.0
  9
$DIMTIX
 70
     0
  9
$DIMSOXD
 70
     0
  9
$DIMSAH
 70
     0
  9
$DIMBLK1
  1

  9
$DIMBLK2
  1

  9
$DIMSTYLE
  2
STANDARD
  9
$DIMCLRD
 70
     0
  9
$DIMCLRE
 70
     0
  9
$DIMCLRT
 70
     0
  9
$DIMTFAC
 40
1.0
  9
$DIMGAP
 40
0.09
  9
$LUNITS
 70
     2
  9
$LUPREC
 70
     4
  9
$SKETCHINC
 40
0.1
  9
$FILLETRAD
 40
0.0
  9
$AUNITS
 70
     0
  9
$AUPREC
 70
     0
  9
$MENU
  1
.
  9
$ELEVATION
 40
0.0
  9
$PELEVATION
 40
0.0
  9
$THICKNESS
 40
0.0
  9
$LIMCHECK
 70
     0
  9
$BLIPMODE
 70
     0
  9
$CHAMFERA
 40
0.0
  9
$CHAMFERB
 40
0.0
  9
$SKPOLY
 70
     0
  9
$TDCREATE
 40
2458060.468368056230247
  9
$TDUPDATE
 40
2459580.6453703697770834
  9
$TDINDWG
 40
0.4393126157
  9
$TDUSRTIMER
 40
0.4393126157
  9
$USRTIMER
 70
     1
  9
$ANGBASE
 50
0.0
  9
$ANGDIR
 70
     0
  9
$PDMODE
 70
     0
  9
$PDSIZE
 40
0.3125
  9
$PLINEWID
 40
0.0
  9
$COORDS
 70
     1
  9
$SPLFRAME
 70
     0
  9
$SPLINETYPE
 70
     6
  9
$SPLINESEGS
 70
     8
  9
$ATTDIA
 70
     1
  9
$ATTREQ
 70
     1
  9
$HANDLING
 70
     1
  9
$HANDSEED
  5
D6D0
  9
$SURFTAB1
 70
     6
  9
$SURFTAB2
 70
     6
  9
$SURFTYPE
 70
     6
  9
$SURFU
 70
     6
  9
$SURFV
 70
     6
  9
$UCSNAME
  2

  9
$UCSORG
 10
0.0
 20
0.0
 30
0.0
  9
$UCSXDIR
 10
1.0
 20
0.0
 30
0.0
  9
$UCSYDIR
 10
0.0
 20
1.0
 30
0.0
  9
$PUCSNAME
  2

  9
$PUCSORG
 10
0.0
 20
0.0
 30
0.0
  9
$PUCSXDIR
 10
1.0
 20
0.0
 30
0.0
  9
$PUCSYDIR
 10
0.0
 20
1.0
 30
0.0
  9
$USERI1
 70
     0
  9
$USERI2
 70
     0
  9
$USERI3
 70
     0
  9
$USERI4
 70
     0
  9
$USERI5
 70
     0
  9
$USERR1
 40
0.0
  9
$USERR2
 40
0.0
  9
$USERR3
 40
0.0
  9
$USERR4
 40
0.0
  9
$USERR5
 40
0.0
  9
$WORLDVIEW
 70
     1
  9
$SHADEDGE
 70
     3
  9
$SHADEDIF
 70
    70
  9
$TILEMODE
 70
     1
  9
$MAXACTVP
 70
    64
  9
$PLIMCHECK
 70
     0
  9
$PEXTMIN
 10
1.0000000000000000E+20
 20
1.0000000000000000E+20
 30
1.0000000000000000E+20
  9
$PEXTMAX
 10
-1.0000000000000000E+20
 20
-1.0000000000000000E+20
 30
-1.0000000000000000E+20
  9
$PLIMMIN
 10
0.0
 20
0.0
  9
$PLIMMAX
 10
12.0
 20
9.0
  9
$UNITMODE
 70
     0
  9
$VISRETAIN
 70
     1
  9
$PLINEGEN
 70
     0
  9
$PSLTSCALE
 70
     1
  0
ENDSEC
  0
SECTION
  2
TABLES
  0
TABLE
  2
VPORT
 70
     1
  0
VPORT
  2
*ACTIVE
 70
     0
 10
0.0
 20
0.0
 11
1.0
 21
1.0
 12
537.7985034856965285
 22
63.8557860062317815
 13
0.0
 23
0.0
 14
1.0
 24
1.0
 15
0.0
 25
0.0
 16
0.0
 26
0.0
 36
17.1152628219792007
 17
3803.5440673828129547
 27
125.9952621967499056
 37
0.0
 40
6.6568567547459159
 41
2.2831541218637992
 42
50.0
 43
0.0
 44
0.0
 50
0.0
 51
0.0
 71
     0
 72
   100
 73
     1
 74
     1
 75
     0
 76
     0
 77
     0
 78
     0
  0
ENDTAB
  0
TABLE
  2
LTYPE
 70
     2
  0
LTYPE
  2
CONTINUOUS
 70
     0
  3
Solid line
 72
    65
 73
     0
 40
0.0
  0
LTYPE
  2
PHANTOM2
 70
     0
  3
___ _ _ ___ _ _ ___ _ _ ___ _ _
 72
    65
 73
     6
 40
1.25
 49
0.625
 49
-0.125
 49
0.125
 49
-0.125
 49
0.125
 49
-0.125
  0
ENDTAB
  0
TABLE
  2
LAYER
 70
     2
  0
LAYER
  2
0
 70
     0
 62
   255
  6
CONTINUOUS
  0
LAYER
  2
DEFPOINTS
 70
     0
 62
     7
  6
CONTINUOUS
  0
ENDTAB
  0
TABLE
  2
STYLE
 70
     1
  0
STYLE
  2
STANDARD
 70
     0
 40
0.0
 41
0.8
 50
0.0
 71
     0
 42
0.2
  3
txt
  4

  0
ENDTAB
  0
TABLE
  2
VIEW
 70
     0
  0
ENDTAB
  0
TABLE
  2
UCS
 70
     0
  0
ENDTAB
  0
TABLE
  2
APPID
 70
     9
  0
APPID
  2
ACAD
 70
     0
  0
APPID
  2
ACAD_MLEADERVER
 70
     0
  0
APPID
  2
ACAD_EXEMPT_FROM_CAD_STANDARDS
 70
     0
  0
APPID
  2
ACAD_NAV_VCDISPLAY
 70
     0
  0
APPID
  2
ACAECLAYERSTANDARD
 70
     0
  0
APPID
  2
ACCMTRANSPARENCY
 70
     0
  0
APPID
  2
ACAD_DSTYLE_DIMJAG
 70
     0
  0
APPID
  2
ACAD_DSTYLE_DIMTALN
 70
     0
  0
APPID
  2
ACDBATTR
 70
     0
  0
ENDTAB
  0
TABLE
  2
DIMSTYLE
 70
     1
  0
DIMSTYLE
  2
STANDARD
 70
     0
  3

  4

  5

  6

  7

 40
1.0
 41
0.1875
 42
0.0625
 43
0.38
 44
0.125
 45
0.0
 46
0.0
 47
0.01
 48
0.01
140
0.15625
141
0.09
142
0.0
143
25.3999999999999986
144
1.0
145
0.0
146
1.0
147
0.09
 71
     1
 72
     0
 73
     1
 74
     1
 75
     0
 76
     0
 77
     0
 78
     4
170
     0
171
     2
172
     0
173
     0
174
     0
175
     0
176
     0
177
     0
178
     0
  0
ENDTAB
  0
ENDSEC
  0
SECTION
  2
BLOCKS
  0
BLOCK
  8
0
  2
$MODEL_SPACE
 70
     0
 10
0.0
 20
0.0
 30
0.0
  3
$MODEL_SPACE
  1

  0
ENDBLK
  5
21
  8
0
  0
BLOCK
 67
     1
  8
0
  2
$PAPER_SPACE
 70
     0
 10
0.0
 20
0.0
 30
0.0
  3
$PAPER_SPACE
  1

  0
ENDBLK
  5
1D
 67
     1
  8
0
  0
ENDSEC
  0
SECTION
  2
ENTITIES
  0
ATTDEF
  5
3930
  8
DEFPOINTS
 10
4341.4006185562120663
 20
192.1185327465468902
 30
0.0
 40
0.001
  1
P21211-LV
  3

  2
MODELNUMBER
 70
     0
1001
ACDBATTR
1070
     0
1070
     1
  0
ATTDEF
  5
3931
  8
DEFPOINTS
 10
4341.4006185562120663
 20
192.1168660798801966
 30
0.0
 40
0.001
  1
CENTRAL PARK WEST
  3

  2
TRADENAME
 70
     0
1001
ACDBATTR
1070
     0
1070
     1
  0
ATTDEF
  5
3932
  8
DEFPOINTS
 10
4341.4006185562120663
 20
192.1151994132135883
 30
0.0
 40
0.001
  1
BATHROOM SINK FAUCET
  3

  2
PRODUCT
 70
     0
1001
ACDBATTR
1070
     0
1070
     1
  0
LINE
  5
D487
  8
0
 10
4340.9281559508908686
 20
187.1509146802551129
 30
0.0
 11
4340.9281559508908686
 21
192.1151837326551117
 31
0.0
  0
ARC
  5
D488
  8
0
 10
4341.4005959508913293
 20
192.1151837326551117
 30
0.0
 40
0.4724399999999999
 50
0.0
 51
180.0
  0
ARC
  5
D489
  8
0
 10
4341.4005959508913293
 20
192.1151837326551117
 30
0.0
 40
0.7383094638
 50
309.7839363991078017
 51
230.2160636008921983
  0
ARC
  5
D48A
  8
0
 10
4341.4005959508913293
 20
192.1151837326551117
 30
0.0
 40
0.8603999999999999
 50
303.3048417092546742
 51
236.6951582907452973
  0
ARC
  5
D48B
  8
0
 10
4341.4005959508913293
 20
192.1151837326551117
 30
0.0
 40
1.0259999999999989
 50
297.4173002412480855
 51
242.5826997587518861
  0
ARC
  5
D48C
  8
0
 10
4345.4005959508913293
 20
192.1151837326551117
 30
0.0
 40
0.6500000000000004
 50
205.5163873662293099
 51
334.4836126337692122
  0
ARC
  5
D48D
  8
0
 10
4345.4005959508913293
 20
192.1151837326551117
 30
0.0
 40
0.6500000000000004
 50
25.5163873662308305
 51
154.4836126337692122
  0
ARC
  5
D48E
  8
0
 10
4345.4005959508913293
 20
192.1151837326551117
 30
0.0
 40
0.8609999999999997
 50
198.9778894027458875
 51
341.0221105972524924
  0
ARC
  5
D48F
  8
0
 10
4345.4005959508913293
 20
192.1151837326551117
 30
0.0
 40
0.8609999999999997
 50
18.9778894027459799
 51
161.0221105972539988
  0
ARC
  5
D490
  8
0
 10
4345.4005959508913293
 20
192.1151837326551117
 30
0.0
 40
1.0259999999999989
 50
15.8371739011802095
 51
344.1628260988197781
  0
ARC
  5
D491
  8
0
 10
4345.4005959508913293
 20
192.1151837326551117
 30
0.0
 40
0.7387365101999999
 50
202.273335026897513
 51
337.7266649731009807
  0
ARC
  5
D492
  8
0
 10
4345.4005959508913293
 20
192.1151837326551117
 30
0.0
 40
0.7387365101999999
 50
22.2733350268990193
 51
157.7266649731010091
  0
CIRCLE
  5
D493
  8
0
 10
4345.4005959508913293
 20
192.1151837326551117
 30
0.0
 40
0.3885000000000005
  0
ARC
  5
D494
  8
0
 10
4345.4005959508913293
 20
192.1151837326551117
 30
0.0
 40
0.4620000000000001
 50
218.4805304899664975
 51
225.5194695052693135
  0
ARC
  5
D495
  8
0
 10
4345.4005959508913293
 20
192.1151837326551117
 30
0.0
 40
0.4620000000000001
 50
230.4805304899713008
 51
237.519469505293813
  0
ARC
  5
D496
  8
0
 10
4345.4005959508913293
 20
192.1151837326551117
 30
0.0
 40
0.4620000000000001
 50
242.4805304899952887
 51
249.5194695052844907
  0
ARC
  5
D497
  8
0
 10
4345.4005959508913293
 20
192.1151837326551117
 30
0.0
 40
0.4620000000000001
 50
254.480530489967208
 51
261.519469505293273
  0
ARC
  5
D498
  8
0
 10
4345.4005959508913293
 20
192.1151837326551117
 30
0.0
 40
0.4620000000000001
 50
266.4805304900033889
 51
273.5194695052975931
  0
ARC
  5
D499
  8
0
 10
4345.4005959508913293
 20
192.1151837326551117
 30
0.0
 40
0.4620000000000001
 50
278.4805304899649059
 51
285.5194695052749125
  0
ARC
  5
D49A
  8
0
 10
4345.4005959508913293
 20
192.1151837326551117
 30
0.0
 40
0.4620000000000001
 50
290.4805304899855969
 51
297.5194695052948077
  0
ARC
  5
D49B
  8
0
 10
4345.4005959508913293
 20
192.1151837326551117
 30
0.0
 40
0.4620000000000001
 50
302.4805304899975908
 51
309.519469505294694
  0
ARC
  5
D49C
  8
0
 10
4345.4005959508913293
 20
192.1151837326551117
 30
0.0
 40
0.4620000000000001
 50
314.4805304899850853
 51
321.5194695052774136
  0
ARC
  5
D49D
  8
0
 10
4345.4005959508913293
 20
192.1151837326551117
 30
0.0
 40
0.4620000000000001
 50
38.4805304899665188
 51
45.5194695052693703
  0
ARC
  5
D49E
  8
0
 10
4345.4005959508913293
 20
192.1151837326551117
 30
0.0
 40
0.4620000000000001
 50
50.480530489971251
 51
57.5194695052938414
  0
ARC
  5
D49F
  8
0
 10
4345.4005959508913293
 20
192.1151837326551117
 30
0.0
 40
0.4620000000000001
 50
62.4805304899952887
 51
69.5194695052844622
  0
ARC
  5
D4A0
  8
0
 10
4345.4005959508913293
 20
192.1151837326551117
 30
0.0
 40
0.4620000000000001
 50
74.4805304899672223
 51
81.5194695052932445
  0
ARC
  5
D4A1
  8
0
 10
4345.4005959508913293
 20
192.1151837326551117
 30
0.0
 40
0.4620000000000001
 50
86.4805304900034031
 51
93.5194695052976357
  0
ARC
  5
D4A2
  8
0
 10
4345.4005959508913293
 20
192.1151837326551117
 30
0.0
 40
0.4620000000000001
 50
98.4805304899648632
 51
105.5194695052747988
  0
ARC
  5
D4A3
  8
0
 10
4345.4005959508913293
 20
192.1151837326551117
 30
0.0
 40
0.4620000000000001
 50
110.4805304899854974
 51
117.5194695052947935
  0
ARC
  5
D4A4
  8
0
 10
4345.4005959508913293
 20
192.1151837326551117
 30
0.0
 40
0.4620000000000001
 50
122.4805304899976051
 51
129.519469505294694
  0
ARC
  5
D4A5
  8
0
 10
4345.4005959508913293
 20
192.1151837326551117
 30
0.0
 40
0.4620000000000001
 50
134.4805304899851137
 51
141.5194695052786926
  0
ARC
  5
D4A6
  8
0
 10
4345.0914576107907124
 20
191.7718508233550949
 30
0.0
 40
0.0200000000000002
 50
319.2402650211878949
 51
136.7597349740399011
  0
ARC
  5
D4A7
  8
0
 10
4345.16959595091339
 20
191.7150799961835901
 30
0.0
 40
0.0200000000000002
 50
331.2402650212058006
 51
148.7597349740584889
  0
ARC
  5
D4A8
  8
0
 10
4345.2578300994946403
 20
191.675795622206607
 30
0.0
 40
0.0200000000000002
 50
343.2402650211989226
 51
160.7597349740520087
  0
ARC
  5
D4A9
  8
0
 10
4345.3523038008497679
 20
191.6557146170742953
 30
0.0
 40
0.0200000000000002
 50
355.2402650212035269
 51
172.7597349740518098
  0
ARC
  5
D4AA
  8
0
 10
4345.4488881008937824
 20
191.6557146170702879
 30
0.0
 40
0.0200000000000002
 50
7.2402650212023616
 51
184.7597349740507866
  0
ARC
  5
D4AB
  8
0
 10
4345.5433618022507289
 20
191.675795622194812
 30
0.0
 40
0.0200000000000002
 50
19.2402650212047597
 51
196.7597349740464949
  0
ARC
  5
D4AC
  8
0
 10
4345.6315959508356173
 20
191.7150799961644907
 30
0.0
 40
0.0200000000000002
 50
31.2402650212044009
 51
208.7597349740464097
  0
ARC
  5
D4AD
  8
0
 10
4345.7097342909619329
 20
191.771850823329487
 30
0.0
 40
0.0200000000000002
 50
43.2402650211937214
 51
220.7597349740497066
  0
ARC
  5
D4AE
  8
0
 10
4345.7743618022177543
 20
191.8436269461261929
 30
0.0
 40
0.0200000000000002
 50
204.9710751824808028
 51
232.7597349740645996
  0
ARC
  5
D4AF
  8
0
 10
4345.7743618022414012
 20
192.3867405191531077
 30
0.0
 40
0.0200000000000003
 50
127.2402650212111013
 51
155.028924719724813
  0
ARC
  5
D4B0
  8
0
 10
4345.7097342909901272
 20
192.4585166419551001
 30
0.0
 40
0.0200000000000003
 50
139.2402650211878949
 51
316.7597349740398727
  0
ARC
  5
D4B1
  8
0
 10
4345.6315959508692686
 20
192.5152874691266902
 30
0.0
 40
0.0200000000000003
 50
151.240265021204408
 51
328.7597349740585173
  0
ARC
  5
D4B2
  8
0
 10
4345.5433618022871087
 20
192.5545718431037017
 30
0.0
 40
0.0200000000000003
 50
163.2402650211988941
 51
340.7597349740519803
  0
ARC
  5
D4B3
  8
0
 10
4345.4488881009310717
 20
192.5746528482360134
 30
0.0
 40
0.0200000000000003
 50
175.2402650212034985
 51
352.7597349740501045
  0
ARC
  5
D4B4
  8
0
 10
4345.3523038008888761
 20
192.5746528482399924
 30
0.0
 40
0.0200000000000003
 50
187.2402650212023048
 51
4.7597349740508283
  0
ARC
  5
D4B5
  8
0
 10
4345.2578300995319296
 20
192.5545718431154967
 30
0.0
 40
0.0200000000000003
 50
199.2402650212046922
 51
16.7597349740466086
  0
ARC
  5
D4B6
  8
0
 10
4345.1695959509470413
 20
192.5152874691457896
 30
0.0
 40
0.0200000000000003
 50
211.2402650212029869
 51
28.759734974046399
  0
ARC
  5
D4B7
  8
0
 10
4345.0914576108189067
 20
192.4585166419807081
 30
0.0
 40
0.0200000000000003
 50
223.240265021193693
 51
40.7597349740497066
  0
ARC
  5
D4B8
  8
0
 10
4345.0268300995639947
 20
192.3867405191840021
 30
0.0
 40
0.0200000000000003
 50
24.9710751824852117
 51
52.7597349740645782
  0
ARC
  5
D4B9
  8
0
 10
4345.0268300995403479
 20
191.843626946157201
 30
0.0
 40
0.0200000000000004
 50
307.2402650212112007
 51
335.0289247197247846
  0
LINE
  5
D4BA
  8
0
 10
4344.5255959508913293
 20
192.3951837326551129
 30
0.0
 11
4345.1312778304463791
 21
192.3951837326551129
 31
0.0
  0
LINE
  5
D4BB
  8
0
 10
4345.66991407133537
 20
192.3951837326551129
 30
0.0
 11
4347.9421769508908255
 21
192.3951837326551129
 31
0.0
  0
LINE
  5
D4BC
  8
0
 10
4344.5255959508913293
 20
191.8351837326551959
 30
0.0
 11
4345.1312778304463791
 21
191.8351837326551106
 31
0.0
  0
LINE
  5
D4BD
  8
0
 10
4345.66991407133537
 20
191.8351837326551106
 30
0.0
 11
4347.9421769508908255
 21
191.8351837326551959
 31
0.0
  0
LINE
  5
D4BE
  8
0
 10
4344.5055959508908927
 20
191.8551837326550924
 30
0.0
 11
4344.5055959508908927
 21
192.3751837326551026
 31
0.0
  0
ARC
  5
D4BF
  8
0
 10
4344.5255959508913293
 20
191.8551837326550924
 30
0.0
 40
0.0200000000000014
 50
179.9999988540899949
 51
270.0
  0
ARC
  5
D4C0
  8
0
 10
4344.5255959508913293
 20
192.3751837326551026
 30
0.0
 40
0.0200000000000014
 50
90.0
 51
180.0000011459131883
  0
LINE
  5
D4C1
  8
0
 10
4344.5055959508908927
 20
192.3751837322550955
 30
0.0
 11
4344.5055959612918741
 21
191.8551633362010875
 31
0.0
  0
LINE
  5
D4C2
  8
0
 10
4347.9621769508921716
 20
192.3751837326551026
 30
0.0
 11
4347.9621769508921716
 21
191.8551837326550924
 31
0.0
  0
LINE
  5
D4C3
  8
0
 10
4346.1455646495705878
 20
192.3936972173374897
 30
0.0
 11
4347.9421769610116826
 21
192.3936972173374897
 31
0.0
  0
LINE
  5
D4C4
  8
0
 10
4346.159582075822982
 20
192.386755721446491
 30
0.0
 11
4347.9426878852664231
 21
192.386755721446491
 31
0.0
  0
LINE
  5
D4C5
  8
0
 10
4346.1426103962730849
 20
192.3614700516988876
 30
0.0
 11
4347.9421769508908255
 21
192.3614700516988876
 31
0.0
  0
LINE
  5
D4C6
  8
0
 10
4346.1443556232770788
 20
192.3399917783615081
 30
0.0
 11
4347.9421769508908255
 21
192.3399917783615081
 31
0.0
  0
LINE
  5
D4C7
  8
0
 10
4346.1482948917191607
 20
192.2917480265768972
 30
0.0
 11
4347.942653209065611
 21
192.2917480265768972
 31
0.0
  0
LINE
  5
D4C8
  8
0
 10
4346.1482948867023879
 20
192.2590028482077003
 30
0.0
 11
4347.9421769508908255
 21
192.2590028482077003
 31
0.0
  0
LINE
  5
D4C9
  8
0
 10
4346.1520047729700309
 20
192.1951456882646028
 30
0.0
 11
4347.9421769508908255
 21
192.1951456882646028
 31
0.0
  0
LINE
  5
D4CA
  8
0
 10
4346.1520047729700309
 20
192.1561187614346125
 30
0.0
 11
4347.9421769516038694
 21
192.1561187614346125
 31
0.0
  0
ARC
  5
D4CB
  8
0
 10
4346.153870803060272
 20
189.7301540832129092
 30
0.0
 40
2.663556085298008
 50
90.1786740338713031
 51
92.6173223393174965
  0
ARC
  5
D4CC
  8
0
 10
4346.160879506765923
 20
194.3700650378233945
 30
0.0
 40
1.983309740750212
 50
266.2811116863824168
 51
269.9625185511961263
  0
ARC
  5
D4CD
  8
0
 10
4346.1523612071514435
 20
191.6534259117597969
 30
0.0
 40
0.7081112782711866
 50
90.7889974142584322
 51
99.7667008135974243
  0
ARC
  5
D4CE
  8
0
 10
4346.1532349956787584
 20
192.9909268203639101
 30
0.0
 40
0.6509956007231722
 50
259.2885931264182773
 51
269.2184796044221002
  0
ARC
  5
D4CF
  8
0
 10
4346.155235920571613
 20
191.823037675134799
 30
0.0
 40
0.46876174271208
 50
90.8484186237303675
 51
105.2116741746867064
  0
ARC
  5
D4D0
  8
0
 10
4346.155235920571613
 20
192.7277131995755042
 30
0.0
 40
0.46876174271208
 50
254.7883258253133079
 51
269.1515807630216273
  0
ARC
  5
D4D1
  8
0
 10
4346.1570908615512963
 20
191.7866387527504912
 30
0.0
 40
0.4085385962919077
 50
90.7133204566007976
 51
107.7945551252400946
  0
ARC
  5
D4D2
  8
0
 10
4346.1570908616686211
 20
192.5646256974486903
 30
0.0
 40
0.4085385967934255
 50
252.2054448800132889
 51
269.2866795277648748
  0
ARC
  5
D4D3
  8
0
 10
4347.9421769508908255
 20
192.3751837326551026
 30
0.0
 40
0.0200000000000005
 50
0.0000000000048853
 51
90.0
  0
ARC
  5
D4D4
  8
0
 10
4347.9421420222706729
 20
192.3736545498506985
 30
0.0
 40
0.0200426979396476
 50
1.595383408305449
 51
89.9001210592628865
  0
ARC
  5
D4D5
  8
0
 10
4347.9424324177343806
 20
192.3662877015102879
 30
0.0
 40
0.0204696141577849
 50
15.2955975483765396
 51
89.2849112181288405
  0
ARC
  5
D4D6
  8
0
 10
4347.9406432193791261
 20
192.3398008193221926
 30
0.0
 40
0.0217234427323317
 50
7.5776820424473899
 51
85.9514007767039345
  0
ARC
  5
D4D7
  8
0
 10
4347.9417877584737653
 20
192.3132002305908088
 30
0.0
 40
0.0267943744597213
 50
40.4519370749536407
 51
89.1677407096549643
  0
ARC
  5
D4D8
  8
0
 10
4347.9424150809172716
 20
192.2711851633494007
 30
0.0
 40
0.0205642420021944
 50
16.058000999597791
 51
89.3365161289854086
  0
ARC
  5
D4D9
  8
0
 10
4347.9405708945023434
 20
192.2069521255957056
 30
0.0
 40
0.0520754946356884
 50
71.6089660905158496
 51
88.2326649537819065
  0
ARC
  5
D4DA
  8
0
 10
4347.9582452222803113
 20
192.2601108877437071
 30
0.0
 40
0.0039444648030117
 50
251.608965890570488
 51
355.3944626008564001
  0
ARC
  5
D4DB
  8
0
 10
4347.9421072387922322
 20
192.1747997842875009
 30
0.0
 40
0.0203460234055779
 50
9.4534409455401391
 51
89.8036856255399272
  0
LINE
  5
D4DC
  8
0
 10
4347.9421769516038694
 20
192.1561187614346125
 30
0.0
 11
4347.953678636492441
 21
192.1557867758550913
 31
0.0
  0
ARC
  5
D4DD
  8
0
 10
4347.954553837597814
 20
192.1654520546397862
 30
0.0
 40
0.0097048230773271
 50
264.825918040538113
 51
321.7667050922106
  0
LINE
  5
D4DE
  8
0
 10
4346.1455646495705878
 20
191.8366702479727905
 30
0.0
 11
4347.9421769610116826
 21
191.8366702479727905
 31
0.0
  0
LINE
  5
D4DF
  8
0
 10
4346.159582075822982
 20
191.8436117438637893
 30
0.0
 11
4347.9426878852664231
 21
191.8436117438637893
 31
0.0
  0
LINE
  5
D4E0
  8
0
 10
4346.1426103962730849
 20
191.8688974136113927
 30
0.0
 11
4347.9421769508908255
 21
191.8688974136113927
 31
0.0
  0
LINE
  5
D4E1
  8
0
 10
4346.1443556232770788
 20
191.8903756869488006
 30
0.0
 11
4347.9421769508908255
 21
191.8903756869488006
 31
0.0
  0
LINE
  5
D4E2
  8
0
 10
4346.1482948917191607
 20
191.9386194387334115
 30
0.0
 11
4347.942653209065611
 21
191.9386194387334115
 31
0.0
  0
LINE
  5
D4E3
  8
0
 10
4346.1482948867023879
 20
191.9713646171024948
 30
0.0
 11
4347.9421769508908255
 21
191.9713646171024948
 31
0.0
  0
LINE
  5
D4E4
  8
0
 10
4346.1520047729700309
 20
192.0352217770457059
 30
0.0
 11
4347.9421769508908255
 21
192.0352217770457059
 31
0.0
  0
LINE
  5
D4E5
  8
0
 10
4346.1520047729700309
 20
192.0742487038756963
 30
0.0
 11
4347.9421769516038694
 21
192.0742487038756963
 31
0.0
  0
ARC
  5
D4E6
  8
0
 10
4346.153870803060272
 20
194.5002133820973995
 30
0.0
 40
2.663556085298008
 50
267.3826776606824751
 51
269.8213259661287111
  0
ARC
  5
D4E7
  8
0
 10
4346.160879506765923
 20
189.8603024274868005
 30
0.0
 40
1.983309740750212
 50
90.0374814488038737
 51
93.7188883136175832
  0
ARC
  5
D4E8
  8
0
 10
4346.1523612071514435
 20
192.5769415535505118
 30
0.0
 40
0.7081112782711866
 50
260.2332991864025757
 51
269.2110025857415962
  0
ARC
  5
D4E9
  8
0
 10
4346.1532349956787584
 20
191.2394406449463986
 30
0.0
 40
0.6509956007231722
 50
90.781520395577914
 51
100.7114068735815948
  0
ARC
  5
D4EA
  8
0
 10
4346.155235920571613
 20
192.4073297901755097
 30
0.0
 40
0.46876174271208
 50
254.7883258253133079
 51
269.1515813762695757
  0
ARC
  5
D4EB
  8
0
 10
4346.155235920571613
 20
191.5026542657348045
 30
0.0
 40
0.46876174271208
 50
90.8484192369784154
 51
105.2116741746867064
  0
ARC
  5
D4EC
  8
0
 10
4346.1570908615512963
 20
192.4437287125597891
 30
0.0
 40
0.4085385962919077
 50
252.2054448747597917
 51
269.2866795433992024
  0
ARC
  5
D4ED
  8
0
 10
4346.1570908616686211
 20
191.6657417678615047
 30
0.0
 40
0.4085385967934255
 50
90.7133204722350825
 51
107.7945551199866969
  0
ARC
  5
D4EE
  8
0
 10
4347.9421769508908255
 20
191.8551837326550924
 30
0.0
 40
0.0200000000000005
 50
270.0
 51
359.9999999999951115
  0
ARC
  5
D4EF
  8
0
 10
4347.9421420222706729
 20
191.8567129154594966
 30
0.0
 40
0.0200426979396476
 50
270.099878940737085
 51
358.4046165916944915
  0
ARC
  5
D4F0
  8
0
 10
4347.9424324177343806
 20
191.8640797637999071
 30
0.0
 40
0.0204696141577849
 50
270.7150887818710885
 51
344.7044024516234799
  0
ARC
  5
D4F1
  8
0
 10
4347.9406432193791261
 20
191.8905666459880877
 30
0.0
 40
0.0217234427323317
 50
274.0485992232960939
 51
352.4223179575525933
  0
ARC
  5
D4F2
  8
0
 10
4347.9417877584737653
 20
191.9171672347194999
 30
0.0
 40
0.0267943744597213
 50
270.8322592903451209
 51
319.5480629250463949
  0
ARC
  5
D4F3
  8
0
 10
4347.9424150809172716
 20
191.9591823019607943
 30
0.0
 40
0.0205642420021944
 50
270.6634838710145914
 51
343.941999000402177
  0
ARC
  5
D4F4
  8
0
 10
4347.9405708945023434
 20
192.0234153397144894
 30
0.0
 40
0.0520754946356884
 50
271.7673350462180792
 51
288.3910339094841788
  0
ARC
  5
D4F5
  8
0
 10
4347.9582452222803113
 20
191.9702565775666017
 30
0.0
 40
0.0039444648030117
 50
4.6055373991435511
 51
108.3910341094294978
  0
ARC
  5
D4F6
  8
0
 10
4347.9421072387922322
 20
192.0555676810226942
 30
0.0
 40
0.0203460234055779
 50
270.1963143744599734
 51
350.5465590544598058
  0
LINE
  5
D4F7
  8
0
 10
4347.9421769516038694
 20
192.0742487038756963
 30
0.0
 11
4347.953678636492441
 21
192.0745806894551038
 31
0.0
  0
ARC
  5
D4F8
  8
0
 10
4347.954553837597814
 20
192.0649154106704941
 30
0.0
 40
0.0097048230773271
 50
38.2332949077893787
 51
95.1740819594619154
  0
LINE
  5
D4F9
  8
0
 10
4341.873035950889971
 20
187.1509146802538908
 30
0.0
 11
4341.873035950889971
 21
192.1151837326551117
 31
0.0
  0
ARC
  5
D4FA
  8
0
 10
4337.4005959508913293
 20
192.1151837326551117
 30
0.0
 40
0.6500000000000004
 50
205.5163873662307878
 51
334.4836126337692122
  0
ARC
  5
D4FB
  8
0
 10
4337.4005959508913293
 20
192.1151837326551117
 30
0.0
 40
0.6500000000000004
 50
25.5163873662308305
 51
154.4836126337692122
  0
ARC
  5
D4FC
  8
0
 10
4337.4005959508913293
 20
192.1151837326551117
 30
0.0
 40
0.8609999999999997
 50
198.9778894027458875
 51
341.0221105972540272
  0
ARC
  5
D4FD
  8
0
 10
4337.4005959508913293
 20
192.1151837326551117
 30
0.0
 40
0.8609999999999997
 50
18.9778894027459799
 51
161.0221105972539988
  0
ARC
  5
D4FE
  8
0
 10
4337.4005959508913293
 20
192.1151837326551117
 30
0.0
 40
1.0259999999999989
 50
195.8371739011801935
 51
164.1628260988198065
  0
ARC
  5
D4FF
  8
0
 10
4337.4005959508913293
 20
192.1151837326551117
 30
0.0
 40
0.7387365101999999
 50
202.2733350268989909
 51
337.7266649731009807
  0
ARC
  5
D500
  8
0
 10
4337.4005959508913293
 20
192.1151837326551117
 30
0.0
 40
0.7387365101999999
 50
22.2733350268990193
 51
157.7266649731010091
  0
CIRCLE
  5
D501
  8
0
 10
4337.4005959508913293
 20
192.1151837326551117
 30
0.0
 40
0.3885000000000005
  0
ARC
  5
D502
  8
0
 10
4337.4005959508913293
 20
192.1151837326551117
 30
0.0
 40
0.4620000000000001
 50
314.480530494730715
 51
321.5194695100335025
  0
ARC
  5
D503
  8
0
 10
4337.4005959508913293
 20
192.1151837326551117
 30
0.0
 40
0.4620000000000001
 50
302.4805304947062154
 51
309.5194695100287845
  0
ARC
  5
D504
  8
0
 10
4337.4005959508913293
 20
192.1151837326551117
 30
0.0
 40
0.4620000000000001
 50
290.4805304947155946
 51
297.5194695100046829
  0
ARC
  5
D505
  8
0
 10
4337.4005959508913293
 20
192.1151837326551117
 30
0.0
 40
0.4620000000000001
 50
278.480530494706727
 51
285.5194695100328204
  0
ARC
  5
D506
  8
0
 10
4337.4005959508913293
 20
192.1151837326551117
 30
0.0
 40
0.4620000000000001
 50
266.4805304947024069
 51
273.5194695099966111
  0
ARC
  5
D507
  8
0
 10
4337.4005959508913293
 20
192.1151837326551117
 30
0.0
 40
0.4620000000000001
 50
254.4805304947250875
 51
261.5194695100352078
  0
ARC
  5
D508
  8
0
 10
4337.4005959508913293
 20
192.1151837326551117
 30
0.0
 40
0.4620000000000001
 50
242.4805304947051923
 51
249.5194695100144884
  0
ARC
  5
D509
  8
0
 10
4337.4005959508913293
 20
192.1151837326551117
 30
0.0
 40
0.4620000000000001
 50
230.480530494705306
 51
237.5194695100024092
  0
ARC
  5
D50A
  8
0
 10
4337.4005959508913293
 20
192.1151837326551117
 30
0.0
 40
0.4620000000000001
 50
218.4805304947213074
 51
225.519469510014801
  0
ARC
  5
D50B
  8
0
 10
4337.4005959508913293
 20
192.1151837326551117
 30
0.0
 40
0.4620000000000001
 50
134.4805304947306013
 51
141.5194695100333888
  0
ARC
  5
D50C
  8
0
 10
4337.4005959508913293
 20
192.1151837326551117
 30
0.0
 40
0.4620000000000001
 50
122.4805304947061018
 51
129.5194695100286992
  0
ARC
  5
D50D
  8
0
 10
4337.4005959508913293
 20
192.1151837326551117
 30
0.0
 40
0.4620000000000001
 50
110.4805304947154951
 51
117.5194695100046971
  0
ARC
  5
D50E
  8
0
 10
4337.4005959508913293
 20
192.1151837326551117
 30
0.0
 40
0.4620000000000001
 50
98.4805304947067413
 51
105.5194695100328062
  0
ARC
  5
D50F
  8
0
 10
4337.4005959508913293
 20
192.1151837326551117
 30
0.0
 40
0.4620000000000001
 50
86.4805304947023785
 51
93.5194695099965969
  0
ARC
  5
D510
  8
0
 10
4337.4005959508913293
 20
192.1151837326551117
 30
0.0
 40
0.4620000000000001
 50
74.4805304947251301
 51
81.5194695100351368
  0
ARC
  5
D511
  8
0
 10
4337.4005959508913293
 20
192.1151837326551117
 30
0.0
 40
0.4620000000000001
 50
62.4805304947051781
 51
69.5194695100144315
  0
ARC
  5
D512
  8
0
 10
4337.4005959508913293
 20
192.1151837326551117
 30
0.0
 40
0.4620000000000001
 50
50.4805304947053131
 51
57.5194695100024234
  0
ARC
  5
D513
  8
0
 10
4337.4005959508913293
 20
192.1151837326551117
 30
0.0
 40
0.4620000000000001
 50
38.4805304947212719
 51
45.5194695100148579
  0
ARC
  5
D514
  8
0
 10
4337.7097342909910367
 20
191.7718508233550949
 30
0.0
 40
0.0200000000000002
 50
43.2402650259600634
 51
220.7597349788121051
  0
ARC
  5
D515
  8
0
 10
4337.6315959508701781
 20
191.7150799961835901
 30
0.0
 40
0.0200000000000002
 50
31.2402650259414898
 51
208.7597349787941141
  0
ARC
  5
D516
  8
0
 10
4337.5433618022871087
 20
191.675795622206607
 30
0.0
 40
0.0200000000000002
 50
19.2402650259479984
 51
196.7597349788011059
  0
ARC
  5
D517
  8
0
 10
4337.4488881009319812
 20
191.6557146170742953
 30
0.0
 40
0.0200000000000002
 50
7.2402650259482328
 51
184.7597349787965015
  0
ARC
  5
D518
  8
0
 10
4337.3523038008888761
 20
191.6557146170702879
 30
0.0
 40
0.0200000000000002
 50
355.2402650259490997
 51
172.75973497879761
  0
ARC
  5
D519
  8
0
 10
4337.2578300995319296
 20
191.675795622194812
 30
0.0
 40
0.0200000000000002
 50
343.2402650259534198
 51
160.7597349787951941
  0
ARC
  5
D51A
  8
0
 10
4337.1695959509470413
 20
191.7150799961644907
 30
0.0
 40
0.0200000000000002
 50
331.2402650259535903
 51
148.7597349787970131
  0
ARC
  5
D51B
  8
0
 10
4337.0914576108198162
 20
191.771850823329487
 30
0.0
 40
0.0200000000000002
 50
319.2402650259502934
 51
136.759734978806307
  0
ARC
  5
D51C
  8
0
 10
4337.0268300995639947
 20
191.8436269461261929
 30
0.0
 40
0.0200000000000002
 50
307.2402650259355141
 51
335.0289248175192256
  0
ARC
  5
D51D
  8
0
 10
4337.0268300995412574
 20
192.3867405191531077
 30
0.0
 40
0.0200000000000003
 50
24.9710752802751408
 51
52.7597349787888916
  0
ARC
  5
D51E
  8
0
 10
4337.0914576107907124
 20
192.4585166419551001
 30
0.0
 40
0.0200000000000003
 50
223.2402650259600136
 51
40.7597349788120766
  0
ARC
  5
D51F
  8
0
 10
4337.16959595091339
 20
192.5152874691266902
 30
0.0
 40
0.0200000000000003
 50
211.2402650259415111
 51
28.7597349787955814
  0
ARC
  5
D520
  8
0
 10
4337.2578300994946403
 20
192.5545718431037017
 30
0.0
 40
0.0200000000000003
 50
199.2402650259479913
 51
16.7597349788011307
  0
ARC
  5
D521
  8
0
 10
4337.3523038008506774
 20
192.5746528482360134
 30
0.0
 40
0.0200000000000003
 50
187.2402650259481902
 51
4.75973497879649
  0
ARC
  5
D522
  8
0
 10
4337.4488881008928729
 20
192.5746528482399924
 30
0.0
 40
0.0200000000000003
 50
175.2402650259492134
 51
352.7597349787977237
  0
ARC
  5
D523
  8
0
 10
4337.5433618022498194
 20
192.5545718431154967
 30
0.0
 40
0.0200000000000003
 50
163.2402650259533914
 51
340.7597349787952226
  0
ARC
  5
D524
  8
0
 10
4337.6315959508347078
 20
192.5152874691457896
 30
0.0
 40
0.0200000000000003
 50
151.2402650259535903
 51
328.7597349787956205
  0
ARC
  5
D525
  8
0
 10
4337.7097342909628424
 20
192.4585166419807081
 30
0.0
 40
0.0200000000000003
 50
139.2402650259502934
 51
316.759734978806307
  0
ARC
  5
D526
  8
0
 10
4337.7743618022177543
 20
192.3867405191840021
 30
0.0
 40
0.0200000000000003
 50
127.2402650259354004
 51
155.0289248175147918
  0
ARC
  5
D527
  8
0
 10
4337.7743618022414012
 20
191.843626946157201
 30
0.0
 40
0.0200000000000004
 50
204.9710752802751017
 51
232.7597349787889129
  0
LINE
  5
D528
  8
0
 10
4338.2755959508913293
 20
192.3951837326551129
 30
0.0
 11
4337.6699140713362794
 21
192.3951837326551129
 31
0.0
  0
LINE
  5
D529
  8
0
 10
4337.1312778304463791
 20
192.3951837326551129
 30
0.0
 11
4334.859014950890014
 21
192.3951837326551129
 31
0.0
  0
LINE
  5
D52A
  8
0
 10
4338.2755959508913293
 20
191.8351837326551959
 30
0.0
 11
4337.6699140713362794
 21
191.8351837326551106
 31
0.0
  0
LINE
  5
D52B
  8
0
 10
4337.1312778304463791
 20
191.8351837326551106
 30
0.0
 11
4334.859014950890014
 21
191.8351837326551959
 31
0.0
  0
LINE
  5
D52C
  8
0
 10
4338.2955959508908563
 20
191.8551837326550924
 30
0.0
 11
4338.2955959508908563
 21
192.3751837326551026
 31
0.0
  0
ARC
  5
D52D
  8
0
 10
4338.2755959508913293
 20
191.8551837326550924
 30
0.0
 40
0.0200000000000014
 50
270.0
 51
0.0000011459099855
  0
ARC
  5
D52E
  8
0
 10
4338.2755959508913293
 20
192.3751837326551026
 30
0.0
 40
0.0200000000000014
 50
359.9999988540868117
 51
90.0
  0
LINE
  5
D52F
  8
0
 10
4338.2955959508908563
 20
192.3751837322550955
 30
0.0
 11
4338.2955959404907844
 21
191.8551633362010875
 31
0.0
  0
LINE
  5
D530
  8
0
 10
4334.8390149508913964
 20
192.3751837326551026
 30
0.0
 11
4334.8390149508913964
 21
191.8551837326550924
 31
0.0
  0
LINE
  5
D531
  8
0
 10
4336.6556272522111612
 20
192.3936972173374897
 30
0.0
 11
4334.859014940769157
 21
192.3936972173374897
 31
0.0
  0
LINE
  5
D532
  8
0
 10
4336.641609825958767
 20
192.386755721446491
 30
0.0
 11
4334.8585040165162354
 21
192.386755721446491
 31
0.0
  0
LINE
  5
D533
  8
0
 10
4336.6585815055086641
 20
192.3614700516988876
 30
0.0
 11
4334.859014950890014
 21
192.3614700516988876
 31
0.0
  0
LINE
  5
D534
  8
0
 10
4336.6568362785055797
 20
192.3399917783615081
 30
0.0
 11
4334.859014950890014
 21
192.3399917783615081
 31
0.0
  0
LINE
  5
D535
  8
0
 10
4336.6528970100644074
 20
192.2917480265768972
 30
0.0
 11
4334.858538692716138
 21
192.2917480265768972
 31
0.0
  0
LINE
  5
D536
  8
0
 10
4336.6528970150802706
 20
192.2590028482077003
 30
0.0
 11
4334.859014950890014
 21
192.2590028482077003
 31
0.0
  0
LINE
  5
D537
  8
0
 10
4336.6491871288117181
 20
192.1951456882646028
 30
0.0
 11
4334.859014950890014
 21
192.1951456882646028
 31
0.0
  0
LINE
  5
D538
  8
0
 10
4336.6491871288117181
 20
192.1561187614346125
 30
0.0
 11
4334.8590149501778797
 21
192.1561187614346125
 31
0.0
  0
ARC
  5
D539
  8
0
 10
4336.6473210987223865
 20
189.7301540832129092
 30
0.0
 40
2.663556085298008
 50
87.3826776606825035
 51
89.8213259661287111
  0
ARC
  5
D53A
  8
0
 10
4336.6403123950167355
 20
194.3700650378233945
 30
0.0
 40
1.983309740750212
 50
270.0374814488038169
 51
273.7188883136175832
  0
ARC
  5
D53B
  8
0
 10
4336.6488306946321245
 20
191.6534259117597969
 30
0.0
 40
0.7081112782711866
 50
80.2332991864025757
 51
89.2110025857415536
  0
ARC
  5
D53C
  8
0
 10
4336.6479569061039001
 20
192.9909268203639101
 30
0.0
 40
0.6509956007231722
 50
270.7815203955778998
 51
280.7114068735817227
  0
ARC
  5
D53D
  8
0
 10
4336.6459559812110456
 20
191.823037675134799
 30
0.0
 40
0.46876174271208
 50
74.7883258253132652
 51
89.1515813762696183
  0
ARC
  5
D53E
  8
0
 10
4336.6459559812110456
 20
192.7277131995755042
 30
0.0
 40
0.46876174271208
 50
270.8484192369783727
 51
285.2116741746867206
  0
ARC
  5
D53F
  8
0
 10
4336.6441010402313623
 20
191.7866387527504912
 30
0.0
 40
0.4085385962919077
 50
72.2054448747598343
 51
89.2866795433991882
  0
ARC
  5
D540
  8
0
 10
4336.644101040113128
 20
192.5646256974486903
 30
0.0
 40
0.4085385967934255
 50
270.7133204722351252
 51
287.7945551199866827
  0
ARC
  5
D541
  8
0
 10
4334.859014950890014
 20
192.3751837326551026
 30
0.0
 40
0.0200000000000005
 50
90.0
 51
179.9999999999951115
  0
ARC
  5
D542
  8
0
 10
4334.8590498795101666
 20
192.3736545498506985
 30
0.0
 40
0.0200426979396476
 50
90.0998789407371561
 51
178.4046165916944915
  0
ARC
  5
D543
  8
0
 10
4334.8587594840491874
 20
192.3662877015102879
 30
0.0
 40
0.0204696141577849
 50
90.7150887818711453
 51
164.7044024516233947
  0
ARC
  5
D544
  8
0
 10
4334.8605486824017134
 20
192.3398008193221926
 30
0.0
 40
0.0217234427323317
 50
94.0485992232960655
 51
172.4223179575525933
  0
ARC
  5
D545
  8
0
 10
4334.8594041433070743
 20
192.3132002305908088
 30
0.0
 40
0.0267943744597213
 50
90.8322592903450357
 51
139.5480629250463949
  0
ARC
  5
D546
  8
0
 10
4334.858776820865387
 20
192.2711851633494007
 30
0.0
 40
0.0205642420021944
 50
90.6634838710145914
 51
163.9419990004022054
  0
ARC
  5
D547
  8
0
 10
4334.8606210072803151
 20
192.2069521255957056
 30
0.0
 40
0.0520754946356884
 50
91.7673350462180935
 51
108.3910339094840936
  0
ARC
  5
D548
  8
0
 10
4334.8429466795023473
 20
192.2601108877437071
 30
0.0
 40
0.0039444648030117
 50
184.6055373991434863
 51
288.3910341094294836
  0
ARC
  5
D549
  8
0
 10
4334.8590846629904263
 20
192.1747997842875009
 30
0.0
 40
0.0203460234055779
 50
90.1963143744600586
 51
170.5465590544598058
  0
LINE
  5
D54A
  8
0
 10
4334.8590149501778797
 20
192.1561187614346125
 30
0.0
 11
4334.847513265291127
 21
192.1557867758550913
 31
0.0
  0
ARC
  5
D54B
  8
0
 10
4334.8466380641839351
 20
192.1654520546397862
 30
0.0
 40
0.0097048230773271
 50
218.2332949077894
 51
275.174081959461887
  0
LINE
  5
D54C
  8
0
 10
4336.6556272522111612
 20
191.8366702479727905
 30
0.0
 11
4334.859014940769157
 21
191.8366702479727905
 31
0.0
  0
LINE
  5
D54D
  8
0
 10
4336.641609825958767
 20
191.8436117438637893
 30
0.0
 11
4334.8585040165162354
 21
191.8436117438637893
 31
0.0
  0
LINE
  5
D54E
  8
0
 10
4336.6585815055086641
 20
191.8688974136113927
 30
0.0
 11
4334.859014950890014
 21
191.8688974136113927
 31
0.0
  0
LINE
  5
D54F
  8
0
 10
4336.6568362785055797
 20
191.8903756869488006
 30
0.0
 11
4334.859014950890014
 21
191.8903756869488006
 31
0.0
  0
LINE
  5
D550
  8
0
 10
4336.6528970100644074
 20
191.9386194387334115
 30
0.0
 11
4334.858538692716138
 21
191.9386194387334115
 31
0.0
  0
LINE
  5
D551
  8
0
 10
4336.6528970150802706
 20
191.9713646171024948
 30
0.0
 11
4334.859014950890014
 21
191.9713646171024948
 31
0.0
  0
LINE
  5
D552
  8
0
 10
4336.6491871288117181
 20
192.0352217770457059
 30
0.0
 11
4334.859014950890014
 21
192.0352217770457059
 31
0.0
  0
LINE
  5
D553
  8
0
 10
4336.6491871288117181
 20
192.0742487038756963
 30
0.0
 11
4334.8590149501778797
 21
192.0742487038756963
 31
0.0
  0
ARC
  5
D554
  8
0
 10
4336.6473210987223865
 20
194.5002133820973995
 30
0.0
 40
2.663556085298008
 50
270.1786740338712889
 51
272.6173223393175249
  0
ARC
  5
D555
  8
0
 10
4336.6403123950167355
 20
189.8603024274868005
 30
0.0
 40
1.983309740750212
 50
86.2811116863824168
 51
89.9625185511961547
  0
ARC
  5
D556
  8
0
 10
4336.6488306946321245
 20
192.5769415535505118
 30
0.0
 40
0.7081112782711866
 50
270.7889974142584038
 51
279.7667008135974243
  0
ARC
  5
D557
  8
0
 10
4336.6479569061039001
 20
191.2394406449463986
 30
0.0
 40
0.6509956007231722
 50
79.2885931264183768
 51
89.2184796044220718
  0
ARC
  5
D558
  8
0
 10
4336.6459559812110456
 20
192.4073297901755097
 30
0.0
 40
0.46876174271208
 50
270.8484186237304243
 51
285.2116741746867206
  0
ARC
  5
D559
  8
0
 10
4336.6459559812110456
 20
191.5026542657348045
 30
0.0
 40
0.46876174271208
 50
74.7883258253132652
 51
89.1515807630215704
  0
ARC
  5
D55A
  8
0
 10
4336.6441010402313623
 20
192.4437287125597891
 30
0.0
 40
0.4085385962919077
 50
270.7133204566007976
 51
287.7945551252402083
  0
ARC
  5
D55B
  8
0
 10
4336.644101040113128
 20
191.6657417678615047
 30
0.0
 40
0.4085385967934255
 50
72.2054448800132889
 51
89.2866795277649032
  0
ARC
  5
D55C
  8
0
 10
4334.859014950890014
 20
191.8551837326550924
 30
0.0
 40
0.0200000000000005
 50
180.0000000000048885
 51
270.0
  0
ARC
  5
D55D
  8
0
 10
4334.8590498795101666
 20
191.8567129154594966
 30
0.0
 40
0.0200426979396476
 50
181.5953834083053948
 51
269.900121059262915
  0
ARC
  5
D55E
  8
0
 10
4334.8587594840491874
 20
191.8640797637999071
 30
0.0
 40
0.0204696141577849
 50
195.2955975483764917
 51
269.2849112181287978
  0
ARC
  5
D55F
  8
0
 10
4334.8605486824017134
 20
191.8905666459880877
 30
0.0
 40
0.0217234427323317
 50
187.5776820424474067
 51
265.9514007767039061
  0
ARC
  5
D560
  8
0
 10
4334.8594041433070743
 20
191.9171672347194999
 30
0.0
 40
0.0267943744597213
 50
220.4519370749536051
 51
269.1677407096548791
  0
ARC
  5
D561
  8
0
 10
4334.858776820865387
 20
191.9591823019607943
 30
0.0
 40
0.0205642420021944
 50
196.0580009995977093
 51
269.3365161289854086
  0
ARC
  5
D562
  8
0
 10
4334.8606210072803151
 20
192.0234153397144894
 30
0.0
 40
0.0520754946356884
 50
251.6089660905159064
 51
268.2326649537819208
  0
ARC
  5
D563
  8
0
 10
4334.8429466795023473
 20
191.9702565775666017
 30
0.0
 40
0.0039444648030117
 50
71.6089658905705164
 51
175.3944626008564001
  0
ARC
  5
D564
  8
0
 10
4334.8590846629904263
 20
192.0555676810226942
 30
0.0
 40
0.0203460234055779
 50
189.4534409455401089
 51
269.8036856255400266
  0
LINE
  5
D565
  8
0
 10
4334.8590149501778797
 20
192.0742487038756963
 30
0.0
 11
4334.847513265291127
 21
192.0745806894551038
 31
0.0
  0
ARC
  5
D566
  8
0
 10
4334.8466380641839351
 20
192.0649154106704941
 30
0.0
 40
0.0097048230773271
 50
84.8259180405380846
 51
141.7667050922106
  0
LINE
  5
D567
  8
0
 10
4340.844612262991177
 20
187.0937519036550896
 30
0.0
 11
4340.844612262991177
 21
187.1391849505818925
 31
0.0
  0
LINE
  5
D568
  8
0
 10
4340.8463567561902892
 20
187.0543995859551103
 30
0.0
 11
4340.8463567561902892
 21
187.0914426702946969
 31
0.0
  0
LINE
  5
D569
  8
0
 10
4340.8561262147914022
 20
186.986942629705311
 30
0.0
 11
4340.8561262147914022
 21
187.0240459133551099
 31
0.0
  0
LINE
  5
D56A
  8
0
 10
4340.8656321126909461
 20
186.9487415349493062
 30
0.0
 11
4340.8656321126909461
 21
186.9857849355076098
 31
0.0
  0
LINE
  5
D56B
  8
0
 10
4340.8885638332913004
 20
186.8845172602038929
 30
0.0
 11
4340.8885638332913004
 21
186.9215603443686859
 31
0.0
  0
LINE
  5
D56C
  8
0
 10
4340.9054658293916873
 20
186.8486790803794975
 30
0.0
 11
4340.9054658293916873
 21
186.8858610545836996
 31
0.0
  0
LINE
  5
D56D
  8
0
 10
4340.9406785588917046
 20
186.7902336596796999
 30
0.0
 11
4340.9406785588917046
 21
186.8272767440795121
 31
0.0
  0
LINE
  5
D56E
  8
0
 10
4340.9643271189906955
 20
186.7582800507377954
 30
0.0
 11
4340.9643271189906955
 21
186.795511045874207
 31
0.0
  0
LINE
  5
D56F
  8
0
 10
4341.0104676519913482
 20
186.7075594897067958
 30
0.0
 11
4341.0104676519913482
 21
186.7448183782491071
 31
0.0
  0
LINE
  5
D570
  8
0
 10
4341.0399539751906559
 20
186.6809335148967932
 30
0.0
 11
4341.0399539751906559
 21
186.7182070096021107
 31
0.0
  0
LINE
  5
D571
  8
0
 10
4341.0952491567913967
 20
186.6400582016125895
 30
0.0
 11
4341.0952491567913967
 21
186.6773540757482976
 31
0.0
  0
LINE
  5
D572
  8
0
 10
4341.1294401001923688
 20
186.6196126549340022
 30
0.0
 11
4341.1294401001923688
 21
186.6569196967282096
 31
0.0
  0
LINE
  5
D573
  8
0
 10
4341.1917649676915971
 20
186.5901533433460031
 30
0.0
 11
4341.1917649676915971
 21
186.6274764518925906
 31
0.0
  0
LINE
  5
D574
  8
0
 10
4341.2293465924904012
 20
186.5766738985111033
 30
0.0
 11
4341.2293465924904012
 21
186.6140043440699117
 31
0.0
  0
LINE
  5
D575
  8
0
 10
4341.2963060360907548
 20
186.5597626325287877
 30
0.0
 11
4341.2963060360907548
 21
186.5971022756995978
 31
0.0
  0
LINE
  5
D576
  8
0
 10
4341.33583410159099
 20
186.5537672650594061
 30
0.0
 11
4341.33583410159099
 21
186.591132467964286
 31
0.0
  0
LINE
  5
D577
  8
0
 10
4341.4048549074914263
 20
186.5500638864866971
 30
0.0
 11
4341.4048549074914263
 21
186.5874211130731908
 31
0.0
  0
LINE
  5
D578
  8
0
 10
4341.444810372291613
 20
186.5517729857774896
 30
0.0
 11
4341.444810372291613
 21
186.5891169691315099
 31
0.0
  0
LINE
  5
D579
  8
0
 10
4341.5132401094906527
 20
186.5614002008290129
 30
0.0
 11
4341.5132401094906527
 21
186.5987389529884126
 31
0.0
  0
LINE
  5
D57A
  8
0
 10
4341.5520875075899312
 20
186.5707676944755917
 30
0.0
 11
4341.5520875075899312
 21
186.6081013546551048
 31
0.0
  0
LINE
  5
D57B
  8
0
 10
4341.6172964597908503
 20
186.5933655532296029
 30
0.0
 11
4341.6172964597908503
 21
186.6306869099018115
 31
0.0
  0
LINE
  5
D57C
  8
0
 10
4341.6535429072901024
 20
186.6100214841611944
 30
0.0
 11
4341.6535429072901024
 21
186.6473337621690973
 31
0.0
  0
LINE
  5
D57D
  8
0
 10
4341.7130251309899904
 20
186.6447216160651976
 30
0.0
 11
4341.7130251309899904
 21
186.682014938462487
 31
0.0
  0
LINE
  5
D57E
  8
0
 10
4341.7452776972913853
 20
186.6680259421113988
 30
0.0
 11
4341.7452776972913853
 21
186.7053065118226982
 31
0.0
  0
LINE
  5
D57F
  8
0
 10
4341.7967473239914398
 20
186.7507505310788076
 30
0.0
 11
4341.7967473239914398
 21
186.7134949040793117
 31
0.0
  0
LINE
  5
D580
  8
0
 10
4341.8237665610913609
 20
186.7797917438612956
 30
0.0
 11
4341.8237665610913609
 21
186.7427486594611992
 31
0.0
  0
LINE
  5
D581
  8
0
 10
4341.8652456418913061
 20
186.8342522178741945
 30
0.0
 11
4341.8652456418913061
 21
186.7970414316191921
 31
0.0
  0
LINE
  5
D582
  8
0
 10
4341.8859932156910872
 20
186.8308839480990002
 30
0.0
 11
4341.8859932156910872
 21
186.8679270324998924
 31
0.0
  0
LINE
  5
D583
  8
0
 10
4341.9158877327909067
 20
186.8921543546977944
 30
0.0
 11
4341.9158877327909067
 21
186.9293110758131888
 31
0.0
  0
LINE
  5
D584
  8
0
 10
4341.9295663255916224
 20
186.9291892057995028
 30
0.0
 11
4341.9295663255916224
 21
186.966325387517486
 31
0.0
  0
LINE
  5
D585
  8
0
 10
4341.9467274494909361
 20
186.9951739793114029
 30
0.0
 11
4341.9467274494909361
 21
187.0322740456551003
 31
0.0
  0
LINE
  5
D586
  8
0
 10
4341.95281140059069
 20
187.034162331455093
 30
0.0
 11
4341.95281140059069
 21
187.0712054154807049
 31
0.0
  0
LINE
  5
D587
  8
0
 10
4341.9565959473702605
 20
187.0978797401573956
 30
0.0
 11
4341.9565959473702605
 21
187.1391802793096133
 31
0.0
  0
ARC
  5
D588
  8
0
 10
4341.4171300372909172
 20
187.1349936994087955
 30
0.0
 40
0.5394659100945614
 50
353.2092649533258282
 51
359.9995703000446952
  0
ARC
  5
D589
  8
0
 10
4341.4177586109863114
 20
187.0979133200328022
 30
0.0
 40
0.5388373374312261
 50
353.2052996813757204
 51
359.996429376724393
  0
ARC
  5
D58A
  8
0
 10
4341.9509796558731978
 20
187.0706648689034921
 30
0.0
 40
0.0019098376155902
 50
16.4413036450511107
 51
58.9533688724084328
  0
ARC
  5
D58B
  8
0
 10
4341.9464405670296401
 20
187.0591616939821904
 30
0.0
 40
0.0142534103336031
 50
67.1972036474068233
 51
123.9154761579182065
  0
ARC
  5
D58C
  8
0
 10
4341.9496249364301548
 20
187.0549458752132921
 30
0.0
 40
0.0195308941688617
 50
124.767097141552
 51
223.1170669859567113
  0
ARC
  5
D58D
  8
0
 10
4342.1195683793293938
 20
187.2544555669842055
 30
0.0
 40
0.2814935442376415
 50
229.1283022598333901
 51
232.1197015183998928
  0
ARC
  5
D58E
  8
0
 10
4341.4157256326743664
 20
187.1352438909781029
 30
0.0
 40
0.540893444690086
 50
341.8023869473204854
 51
349.0256265310366075
  0
ARC
  5
D58F
  8
0
 10
4341.9201705848327038
 20
186.956148485531287
 30
0.0
 40
0.0138509666897952
 50
47.2855114753729779
 51
111.7508375805397947
  0
ARC
  5
D590
  8
0
 10
4341.9228191665888517
 20
186.9508556644177872
 30
0.0
 40
0.0197547428739265
 50
113.1972465602259064
 51
217.2519225574899053
  0
ARC
  5
D591
  8
0
 10
4341.9750126834805997
 20
186.9923670465028067
 30
0.0
 40
0.0864396625917111
 50
218.2120825847412959
 51
226.8427852000872065
  0
ARC
  5
D592
  8
0
 10
4341.4127948041914351
 20
187.1363498762551103
 30
0.0
 40
0.5440290062998728
 50
330.4358295318122032
 51
337.6312697882985958
  0
ARC
  5
D593
  8
0
 10
4341.4289144146250692
 20
187.0918259486628017
 30
0.0
 40
0.5263190648670916
 50
330.2783593362589158
 51
337.7051084127483023
  0
ARC
  5
D594
  8
0
 10
4341.934502678811441
 20
186.8797316981398069
 30
0.0
 40
0.049703245840037
 50
95.699813810918414
 51
111.9947564204318979
  0
ARC
  5
D595
  8
0
 10
4341.4063673213740913
 20
187.1004852425762124
 30
0.0
 40
0.5505265935710776
 50
341.8714857606527744
 51
348.9718139647142152
  0
ARC
  5
D596
  8
0
 10
4341.8735547687547296
 20
186.8569552596837013
 30
0.0
 40
0.0165859806934266
 50
41.4150459933372019
 51
152.6057529500772887
  0
ARC
  5
D597
  8
0
 10
4341.8832053641408493
 20
186.8538973384353028
 30
0.0
 40
0.0266173324204483
 50
156.3222609272530121
 51
227.5662022511081091
  0
ARC
  5
D598
  8
0
 10
4341.4091127442907236
 20
187.1386334217550029
 30
0.0
 40
0.5483658792997125
 50
319.1270667674895094
 51
326.2844943976928107
  0
ARC
  5
D599
  8
0
 10
4341.8820008765478633
 20
186.7942352514982076
 30
0.0
 40
0.0368655085892454
 50
83.7829783865903863
 51
117.0325254421382937
  0
ARC
  5
D59A
  8
0
 10
4341.389606750168241
 20
187.1174331468263858
 30
0.0
 40
0.5734833968756692
 50
319.2054611454572068
 51
326.0356795740732991
  0
ARC
  5
D59B
  8
0
 10
4341.8136927722425753
 20
186.7172515592031914
 30
0.0
 40
0.0274150204304568
 50
68.4412483787705099
 51
128.1781146376536924
  0
ARC
  5
D59C
  8
0
 10
4341.8090545286422639
 20
186.770810706475487
 30
0.0
 40
0.0172366740552634
 50
31.4021972792070514
 51
140.3835215284744038
  0
ARC
  5
D59D
  8
0
 10
4341.8138678370851267
 20
186.7668264591881098
 30
0.0
 40
0.0234850470127433
 50
140.383521598683302
 51
223.1976812337211982
  0
ARC
  5
D59E
  8
0
 10
4341.4055415080092644
 20
187.1419588115759041
 30
0.0
 40
0.5532503133188321
 50
307.8846080537023226
 51
314.9998195247993067
  0
ARC
  5
D59F
  8
0
 10
4341.4053949340914187
 20
187.1046295629552958
 30
0.0
 40
0.5533019198002523
 50
307.8996827729092729
 51
315.0159428433329936
  0
ARC
  5
D5A0
  8
0
 10
4341.7286298178169091
 20
186.6986231447129967
 30
0.0
 40
0.0179393224440888
 50
21.8732184020422515
 51
128.1921472834696942
  0
ARC
  5
D5A1
  8
0
 10
4341.7314907235977444
 20
186.6949865564822915
 30
0.0
 40
0.0225663685697619
 50
128.192147283470689
 51
215.0870838623577015
  0
ARC
  5
D5A2
  8
0
 10
4341.7308603052670151
 20
186.647569617512687
 30
0.0
 40
0.0250264342018245
 50
54.8242408025887471
 51
122.1631842603820957
  0
ARC
  5
D5A3
  8
0
 10
4341.7248625923066356
 20
186.6569234477408941
 30
0.0
 40
0.0139156532536139
 50
121.7599716475187961
 51
148.2833058486947095
  0
ARC
  5
D5A4
  8
0
 10
4341.4027911875909922
 20
187.1457519588554987
 30
0.0
 40
0.5579400718004445
 50
296.7067413806144032
 51
303.7819999510991238
  0
ARC
  5
D5A5
  8
0
 10
4341.6353201126121348
 20
186.643218172020994
 30
0.0
 40
0.0186817644967183
 50
12.7266458251031498
 51
116.0383155488792966
  0
ARC
  5
D5A6
  8
0
 10
4341.6366440120682455
 20
186.6405083766281052
 30
0.0
 40
0.0216976724599368
 50
116.0383155488800071
 51
206.9138780749489968
  0
ARC
  5
D5A7
  8
0
 10
4341.4027362761898985
 20
187.1082804887556108
 30
0.0
 40
0.5578225541005831
 50
296.71912841948091
 51
303.7968622044456879
  0
ARC
  5
D5A8
  8
0
 10
4341.6360239859932335
 20
186.5941088421328118
 30
0.0
 40
0.0236669554389853
 50
42.249237176316349
 51
112.1014735003590062
  0
ARC
  5
D5A9
  8
0
 10
4341.6355255023108839
 20
186.5977356793615911
 30
0.0
 40
0.0201393110164083
 50
114.6705931329933037
 51
154.8431260554131086
  0
ARC
  5
D5AA
  8
0
 10
4341.4011936248916754
 20
187.1115741244549042
 30
0.0
 40
0.5614628736997576
 50
285.5899760183820035
 51
292.6370651229293003
  0
ARC
  5
D5AB
  8
0
 10
4341.4011995963255686
 20
187.1491728419927938
 30
0.0
 40
0.5617165799366078
 50
285.582123325921998
 51
292.6256138972203189
  0
ARC
  5
D5AC
  8
0
 10
4341.5326745143429434
 20
186.6067849461823016
 30
0.0
 40
0.0194575753391948
 50
3.8793275428082392
 51
103.9141665478889962
  0
ARC
  5
D5AD
  8
0
 10
4341.5334309858080815
 20
186.6051853795765965
 30
0.0
 40
0.0211949970835219
 50
104.8593525770078969
 51
197.7069428303742029
  0
ARC
  5
D5AE
  8
0
 10
4341.5326853590513565
 20
186.5600317721030024
 30
0.0
 40
0.0221743860614115
 50
28.9573687281414891
 51
102.2099723815404957
  0
ARC
  5
D5AF
  8
0
 10
4341.532191461941693
 20
186.5625735977129978
 30
0.0
 40
0.0195856789407437
 50
102.3704551143078021
 51
165.3780970971722866
  0
ARC
  5
D5B0
  8
0
 10
4341.4006461196913733
 20
187.1137012559561015
 30
0.0
 40
0.5636611234009892
 50
274.4938730868443031
 51
281.522618163303207
  0
ARC
  5
D5B1
  8
0
 10
4341.4006410182910258
 20
187.1513817910557123
 30
0.0
 40
0.5639970406005594
 50
274.4917108785185746
 51
281.5161902199204178
  0
ARC
  5
D5B2
  8
0
 10
4341.4246145639026508
 20
186.5907903093226139
 30
0.0
 40
0.0202650128257614
 50
355.2635304118143154
 51
91.8058890577292317
  0
ARC
  5
D5B3
  8
0
 10
4341.4250155451509272
 20
186.5906536035014938
 30
0.0
 40
0.0204181367448984
 50
92.9185133723378556
 51
189.1090867313496062
  0
ARC
  5
D5B4
  8
0
 10
4341.4248781725127628
 20
186.5464650196855132
 30
0.0
 40
0.020626853662306
 50
14.9118588372657204
 51
131.0215057983295139
  0
ARC
  5
D5B5
  8
0
 10
4341.4231793633871348
 20
186.5478700468106865
 30
0.0
 40
0.0184553140431646
 50
129.9053106074007076
 51
173.1729317867078066
  0
ARC
  5
D5B6
  8
0
 10
4341.4112606912331103
 20
187.3144809264111075
 30
0.0
 40
0.7644438795570022
 50
264.3374936300510853
 51
269.5198749336919946
  0
ARC
  5
D5B7
  8
0
 10
4341.31569205568303
 20
186.5521722676068919
 30
0.0
 40
0.0208190152337508
 50
14.6512924917174505
 51
158.6177649676978092
  0
ARC
  5
D5B8
  8
0
 10
4341.4005940096913037
 20
187.151832860963907
 30
0.0
 40
0.5644278309997942
 50
263.4116307988962831
 51
270.4325331993979944
  0
ARC
  5
D5B9
  8
0
 10
4341.3154942982564535
 20
186.5960634846123867
 30
0.0
 40
0.0209289876705533
 50
346.3725921318355176
 51
80.1966516621821484
  0
ARC
  5
D5BA
  8
0
 10
4341.3161197372282913
 20
186.5970922100655969
 30
0.0
 40
0.019813703694191
 50
81.4724362912121052
 51
179.9708927941721868
  0
ARC
  5
D5BB
  8
0
 10
4341.4003444735908488
 20
187.1503469546549923
 30
0.0
 40
0.5629419785998613
 50
252.3165687318125947
 51
259.3498277428010965
  0
ARC
  5
D5BC
  8
0
 10
4341.2095075966162767
 20
186.6223192181294053
 30
0.0
 40
0.0215109946341873
 50
337.260580291674728
 51
68.8381253333111971
  0
ARC
  5
D5BD
  8
0
 10
4341.2105663598304091
 20
186.6245774886687911
 30
0.0
 40
0.0190235731116847
 50
69.3565278491592068
 51
171.2346631672234878
  0
ARC
  5
D5BE
  8
0
 10
4341.3992543794911398
 20
187.1473714930548056
 30
0.0
 40
0.5597702294996642
 50
241.1833057069135009
 51
248.2431243858027017
  0
ARC
  5
D5BF
  8
0
 10
4341.1060526718156325
 20
186.6685859154428044
 30
0.0
 40
0.026135655063611
 50
333.4888620708849203
 51
25.3765569860653706
  0
ARC
  5
D5C0
  8
0
 10
4341.1129592884008161
 20
186.6714759139412081
 30
0.0
 40
0.0186601593951588
 50
26.447583489738971
 51
161.6385016102217094
  0
ARC
  5
D5C1
  8
0
 10
4341.3992821704905509
 20
187.1098396977544951
 30
0.0
 40
0.55958671929934
 50
241.169720391753799
 51
248.2325613811819096
  0
ARC
  5
D5C2
  8
0
 10
4341.110829334033042
 20
186.6244821094450117
 30
0.0
 40
0.0220308095661658
 50
32.3536744138199381
 51
135.0075123752222908
  0
ARC
  5
D5C3
  8
0
 10
4341.3971055187912498
 20
187.1062412102552059
 30
0.0
 40
0.5553772239000609
 50
229.9781868425374114
 51
237.076695065915402
  0
ARC
  5
D5C4
  8
0
 10
4341.3970045758906053
 20
187.1436334480549135
 30
0.0
 40
0.5554032642997534
 50
229.994038840610699
 51
237.0908390681059927
  0
ARC
  5
D5C5
  8
0
 10
4341.0139293753018137
 20
186.7341952601358059
 30
0.0
 40
0.0305434763853584
 50
328.4354539735459753
 51
15.9174356306159694
  0
ARC
  5
D5C6
  8
0
 10
4341.0254041543503263
 20
186.7346988321507979
 30
0.0
 40
0.0195527135697089
 50
23.7443748999535593
 51
96.5072797019194013
  0
ARC
  5
D5C7
  8
0
 10
4341.0250675926226904
 20
186.738210459702799
 30
0.0
 40
0.0160256935598998
 50
96.7345850967096794
 51
155.648540021012991
  0
ARC
  5
D5C8
  8
0
 10
4341.022717140432178
 20
186.6850212194777896
 30
0.0
 40
0.0256519705276072
 50
47.7822748976961194
 51
118.5239595930846974
  0
ARC
  5
D5C9
  8
0
 10
4341.3939409502909257
 20
187.102752760755294
 30
0.0
 40
0.5506627752002548
 50
218.7233156960004123
 51
225.8623129586221125
  0
ARC
  5
D5CA
  8
0
 10
4341.393728748191279
 20
187.1400080548552864
 30
0.0
 40
0.5505124416002763
 50
218.7391044797095105
 51
225.8779024312165973
  0
ARC
  5
D5CB
  8
0
 10
4340.9376723727500575
 20
186.8177016614239108
 30
0.0
 40
0.0346828331556564
 50
320.2219340013832038
 51
354.830057904165983
  0
ARC
  5
D5CC
  8
0
 10
4340.9527723739129215
 20
186.8146499761876953
 30
0.0
 40
0.0194418748474708
 50
359.7831307239358125
 51
84.8670332964161958
  0
ARC
  5
D5CD
  8
0
 10
4340.9531871642448095
 20
186.819163396623793
 30
0.0
 40
0.0149094470531744
 50
84.902860861521404
 51
147.0317005306442866
  0
ARC
  5
D5CE
  8
0
 10
4341.3899923631915954
 20
187.1372162854551107
 30
0.0
 40
0.5458437633999013
 50
207.4186878188899925
 51
214.5981604825873887
  0
ARC
  5
D5CF
  8
0
 10
4340.947814759526409
 20
186.7597338767851056
 30
0.0
 40
0.0313235072887894
 50
58.1453836399599595
 51
103.1689085858118062
  0
ARC
  5
D5D0
  8
0
 10
4341.4042019000644359
 20
187.1093317783368093
 30
0.0
 40
0.5627410569184697
 50
207.5927619086816094
 51
214.5442495482560901
  0
ARC
  5
D5D1
  8
0
 10
4340.8850464017095874
 20
186.9102505311601021
 30
0.0
 40
0.0318087974781383
 50
309.9368403017210198
 51
354.1467988209720943
  0
ARC
  5
D5D2
  8
0
 10
4340.897377306204362
 20
186.9070480265125127
 30
0.0
 40
0.0193121003725689
 50
359.8772986374345919
 51
73.0729833478639392
  0
ARC
  5
D5D3
  8
0
 10
4340.8989313779557051
 20
186.9120696592453044
 30
0.0
 40
0.014055571336135
 50
73.1735830255857707
 51
137.5283088592103127
  0
ARC
  5
D5D4
  8
0
 10
4341.3866227734906715
 20
187.1356010906552001
 30
0.0
 40
0.5421034486002114
 50
196.0431267284969863
 51
203.255606894508702
  0
ARC
  5
D5D5
  8
0
 10
4341.3865575495301528
 20
187.0985354558777942
 30
0.0
 40
0.5420346201978563
 50
196.042773379520014
 51
203.2561390540215029
  0
ARC
  5
D5D6
  8
0
 10
4340.8857629089916372
 20
186.8308462788322117
 30
0.0
 40
0.0537440173057064
 50
68.4935006447583703
 51
87.012618522925294
  0
ARC
  5
D5D7
  8
0
 10
4340.8511379045348804
 20
187.0115603224913912
 30
0.0
 40
0.0295711453176246
 50
299.3502438016470251
 51
353.6539614733292751
  0
ARC
  5
D5D8
  8
0
 10
4340.8613460997876246
 20
187.0083286212604889
 30
0.0
 40
0.0191817871655077
 50
359.889826036318027
 51
61.1101125750046208
  0
ARC
  5
D5D9
  8
0
 10
4340.8642472967121648
 20
187.0127843121300941
 30
0.0
 40
0.0138843665220831
 50
62.709285965363577
 51
125.7965156634321033
  0
ARC
  5
D5DA
  8
0
 10
4341.3844469482546629
 20
187.1350347866545007
 30
0.0
 40
0.5398530609383166
 50
184.6315686137527052
 51
191.8640915875577093
  0
ARC
  5
D5DB
  8
0
 10
4340.8375912492801945
 20
187.117735420809197
 30
0.0
 40
0.0277153899096614
 50
288.4374135749798143
 51
353.4331359498194161
  0
ARC
  5
D5DC
  8
0
 10
4340.8477545238229141
 20
187.1152697605004107
 30
0.0
 40
0.0173845347810166
 50
357.6793116501639247
 51
85.217574286245366
  0
ARC
  5
D5DD
  8
0
 10
4340.8489451153172922
 20
187.1260999057763001
 30
0.0
 40
0.0064990196188151
 50
87.7178415251198231
 51
131.8123562141446996
  0
ARC
  5
D5DE
  8
0
 10
4340.8476024906858584
 20
187.0954767156678997
 30
0.0
 40
0.0034520194307942
 50
209.9770481577139094
 51
276.5447389880498008
  0
ARC
  5
D5DF
  8
0
 10
4341.3846217702666763
 20
187.1349876123279898
 30
0.0
 40
0.5400258193798207
 50
173.2090419872187965
 51
179.5546653882732073
  0
ARC
  5
D5E0
  8
0
 10
4340.8366879016894018
 20
187.2423693760190986
 30
0.0
 40
0.0450694625681641
 50
285.0420373423751244
 51
305.1687301869002908
  0
ARC
  5
D5E1
  8
0
 10
4340.8516317877320034
 20
187.2215375591268014
 30
0.0
 40
0.0194340390862143
 50
304.5284250052623065
 51
40.6804199366479011
  0
ARC
  5
D5E2
  8
0
 10
4340.8576850045392348
 20
187.2269970062502011
 30
0.0
 40
0.0112865326021629
 50
39.6930671578390388
 51
106.5224041149429013
  0
LINE
  5
D5E3
  8
0
 10
4340.8544752247544238
 20
187.2378175021686957
 30
0.0
 11
4340.8544752247544238
 21
187.2009584161853013
 31
0.0
  0
ARC
  5
D5E4
  8
0
 10
4341.3859658279907308
 20
187.1347561870551033
 30
0.0
 40
0.5413907055000801
 50
161.8021981405987901
 51
169.0259708200956936
  0
ARC
  5
D5E5
  8
0
 10
4340.8725252504600576
 20
187.3310029816416886
 30
0.0
 40
0.027185291227517
 50
268.1619640285350101
 51
333.8154023627425886
  0
ARC
  5
D5E6
  8
0
 10
4340.8793319742180756
 20
187.3256278770959113
 30
0.0
 40
0.018793576703246
 50
339.3725088376227177
 51
34.8354346430795303
  0
ARC
  5
D5E7
  8
0
 10
4340.8865177840307297
 20
187.3308011980709011
 30
0.0
 40
0.0099413887863753
 50
34.0195805625797973
 51
97.0119874722999356
  0
LINE
  5
D5E8
  8
0
 10
4340.8853041690899772
 20
187.3406682315550995
 30
0.0
 11
4340.8853041690899772
 21
187.3070084135530067
 31
0.0
  0
ARC
  5
D5E9
  8
0
 10
4341.3793414424490038
 20
187.1386752255930901
 30
0.0
 40
0.5337358915457511
 50
150.3997473162714016
 51
157.7622186205502999
  0
ARC
  5
D5EA
  8
0
 10
4340.9186113785435737
 20
187.4846602458779898
 30
0.0
 40
0.0824165598426241
 50
267.6708470731314833
 51
276.6502841963591095
  0
ARC
  5
D5EB
  8
0
 10
4341.3871472814544177
 20
187.0982837037466027
 30
0.0
 40
0.5425681597814723
 50
184.6392776145121957
 51
191.8418639470330049
  0
ARC
  5
D5EC
  8
0
 10
4340.8809415837431516
 20
187.0484295029860107
 30
0.0
 40
0.0663056417062332
 50
248.0215845013277942
 51
256.6503812044774122
  0
ARC
  5
D5ED
  8
0
 10
4341.2102834133311262
 20
186.5764800757835928
 30
0.0
 40
0.023019363039819
 50
72.323268948842113
 51
143.5593470998234125
  0
ARC
  5
D5EE
  8
0
 10
4341.2104835596310295
 20
186.5794291021973095
 30
0.0
 40
0.0201611234609748
 50
20.6724035212792892
 51
70.3199957593121923
  0
ARC
  5
D5EF
  8
0
 10
4341.4003417173162234
 20
187.1127046973834069
 30
0.0
 40
0.56264407048653
 50
252.307191007066308
 51
259.3444083946815226
  0
ARC
  5
D5F0
  8
0
 10
4341.9429941800526649
 20
187.048825945561191
 30
0.0
 40
0.0176465123397622
 50
282.2136991704704769
 51
303.8021220334978807
  0
ARC
  5
D5F1
  8
0
 10
4341.9631874068636535
 20
187.1658249822334881
 30
0.0
 40
0.0274479057883138
 50
189.1109745680932974
 51
256.1049398311340042
  0
ARC
  5
D5F2
  8
0
 10
4341.951086609831691
 20
187.1638843712262883
 30
0.0
 40
0.0151924882162323
 50
128.682286551937807
 51
189.1109745680950027
  0
ARC
  5
D5F3
  8
0
 10
4341.950980453446391
 20
187.1640169600410104
 30
0.0
 40
0.0150226383640597
 50
75.1320477633720856
 51
128.682286551937807
  0
LINE
  5
D5F4
  8
0
 10
4341.9548351455923694
 20
187.1785366367550978
 30
0.0
 11
4341.9548351455923694
 21
187.139678715505795
 31
0.0
  0
ARC
  5
D5F5
  8
0
 10
4341.4166735901462744
 20
187.1350350277720906
 30
0.0
 40
0.5399168915147184
 50
4.6213838643785232
 51
11.8659128817016892
  0
ARC
  5
D5F6
  8
0
 10
4341.9586377724708655
 20
187.3046810253349008
 30
0.0
 40
0.0601804630290356
 50
242.0421026668605009
 51
256.954216269724327
  0
ARC
  5
D5F7
  8
0
 10
4341.94022887493702
 20
187.2683926591247996
 30
0.0
 40
0.0195112310628556
 50
142.5300906912478922
 51
239.8321833338744113
  0
ARC
  5
D5F8
  8
0
 10
4341.9330391801813676
 20
187.2742851339552885
 30
0.0
 40
0.0102247962135784
 50
75.7283660168685344
 51
144.2275898153723119
  0
LINE
  5
D5F9
  8
0
 10
4341.9355597891908474
 20
187.2841943714551007
 30
0.0
 11
4341.9355597891908474
 21
187.2491013994084881
 31
0.0
  0
ARC
  5
D5FA
  8
0
 10
4341.4193783831242399
 20
187.1364859697411021
 30
0.0
 40
0.53689944673551
 50
15.9687909846593605
 51
23.2747565998204209
  0
ARC
  5
D5FB
  8
0
 10
4341.9123860476147456
 20
187.3919240079212045
 30
0.0
 40
0.0432876117733724
 50
249.8889355399687986
 51
270.2636725570465046
  0
ARC
  5
D5FC
  8
0
 10
4341.9015773323708345
 20
187.3679653774892984
 30
0.0
 40
0.0171800061653071
 50
109.9125459613839979
 51
256.2778193010851169
  0
LINE
  5
D5FD
  8
0
 10
4341.8957260724910157
 20
187.3841182524550959
 30
0.0
 11
4341.8957260724910157
 21
187.3518125025235008
 31
0.0
  0
ARC
  5
D5FE
  8
0
 10
4341.4402712054879885
 20
187.150522539823811
 30
0.0
 40
0.5118653073179285
 50
27.1525815259009597
 51
32.2780950553321375
  0
ARC
  5
D5FF
  8
0
 10
4341.3889647682690338
 20
187.1512150745687961
 30
0.0
 40
0.4608089152896574
 50
180.0373502486825998
 51
216.2818802501925006
  0
ARC
  5
D600
  8
0
 10
4341.4005959506876025
 20
187.1620641165451104
 30
0.0
 40
0.4766086417631342
 50
216.5058102191268006
 51
323.4941897808732278
  0
ARC
  5
D601
  8
0
 10
4341.3867101049900157
 20
187.1456603936551062
 30
0.0
 40
0.4946148068000288
 50
157.9861788117887897
 51
179.99289112019909
  0
ARC
  5
D602
  8
0
 10
4341.4122271335118057
 20
187.1512150745687961
 30
0.0
 40
0.4608089152896574
 50
323.7181197498073857
 51
359.9626497513173717
  0
ARC
  5
D603
  8
0
 10
4341.4144817967908239
 20
187.1456603936551062
 30
0.0
 40
0.4946148068000288
 50
0.0071088798008982
 51
22.0138211882111499
  0
LINE
  5
D604
  8
0
 10
4340.8920953019978697
 20
187.1457217621752989
 30
0.0
 11
4340.892095783192417
 21
187.1401826092551062
 31
0.0
  0
ARC
  5
D605
  8
0
 10
4341.3876444195975637
 20
187.1461256875574861
 30
0.0
 40
0.4955842725756999
 50
180.6871111230323095
 51
211.6512368652711871
  0
ARC
  5
D606
  8
0
 10
4341.4135474821841854
 20
187.1461256875574861
 30
0.0
 40
0.4955842725756999
 50
328.3487631347288129
 51
359.3128888769676905
  0
ARC
  5
D607
  8
0
 10
4341.4005959508913293
 20
187.1574658880155084
 30
0.0
 40
0.5125680708629349
 50
211.9706164118996981
 51
328.0293835881003019
  0
ARC
  5
D608
  8
0
 10
4341.3867101049900157
 20
187.1456603936551062
 30
0.0
 40
0.4946148068000288
 50
157.9861788117887897
 51
179.99289112019909
  0
LINE
  5
D609
  8
0
 10
4341.9090965997838794
 20
187.1457217621752989
 30
0.0
 11
4341.909096118591151
 21
187.1401826092551062
 31
0.0
  0
ARC
  5
D60A
  8
0
 10
4341.3876444195975637
 20
187.1461256875574861
 30
0.0
 40
0.4955842725756999
 50
180.6871111230323095
 51
211.6512368652711871
  0
ENDSEC
  0
EOF
