  0
SECTION
  2
HEADER
  9
$ACADVER
  1
AC1009
  9
$INSBASE
 10
58.054089773277191
 20
4.181620313625201
 30
0.0
  9
$EXTMIN
 10
54.497088863071589
 20
0.9242191680999997
 30
0.0
  9
$EXTMAX
 10
58.072991932313528
 20
7.4390766013
 30
0.0
  9
$LIMMIN
 10
0.0
 20
0.0
  9
$LIMMAX
 10
11.692913385800001
 20
8.2677165353999982
  9
$ORTHOMODE
 70
     1
  9
$REGENMODE
 70
     1
  9
$FILLMODE
 70
     1
  9
$QTEXTMODE
 70
     0
  9
$MIRRTEXT
 70
     0
  9
$DRAGMODE
 70
     2
  9
$LTSCALE
 40
0.6431102362
  9
$OSMODE
 70
  3071
  9
$ATTMODE
 70
     1
  9
$TEXTSIZE
 40
0.2
  9
$TRACEWID
 40
0.05
  9
$TEXTSTYLE
  7
STANDARD
  9
$CLAYER
  8
0
  9
$CELTYPE
  6
BYLAYER
  9
$CECOLOR
 62
   256
  9
$DIMSCALE
 40
1.0
  9
$DIMASZ
 40
0.1875
  9
$DIMEXO
 40
0.0625
  9
$DIMDLI
 40
0.4443307087
  9
$DIMRND
 40
0.0
  9
$DIMDLE
 40
0.0
  9
$DIMEXE
 40
0.125
  9
$DIMTP
 40
0.01
  9
$DIMTM
 40
0.01
  9
$DIMTXT
 40
1.0
  9
$DIMCEN
 40
0.1052362205
  9
$DIMTSZ
 40
0.0
  9
$DIMTOL
 70
     1
  9
$DIMLIM
 70
     0
  9
$DIMTIH
 70
     1
  9
$DIMTOH
 70
     1
  9
$DIMSE1
 70
     0
  9
$DIMSE2
 70
     0
  9
$DIMTAD
 70
     0
  9
$DIMZIN
 70
     0
  9
$DIMBLK
  1

  9
$DIMASO
 70
     1
  9
$DIMSHO
 70
     1
  9
$DIMPOST
  1
\X
  9
$DIMAPOST
  1

  9
$DIMALT
 70
     1
  9
$DIMALTD
 70
     2
  9
$DIMALTF
 40
25.399999999999999
  9
$DIMLFAC
 40
1.0
  9
$DIMTOFL
 70
     0
  9
$DIMTVP
 40
0.0
  9
$DIMTIX
 70
     0
  9
$DIMSOXD
 70
     0
  9
$DIMSAH
 70
     0
  9
$DIMBLK1
  1

  9
$DIMBLK2
  1

  9
$DIMSTYLE
  2
STANDARD
  9
$DIMCLRD
 70
     0
  9
$DIMCLRE
 70
     0
  9
$DIMCLRT
 70
     0
  9
$DIMTFAC
 40
1.0
  9
$DIMGAP
 40
0.09
  9
$LUNITS
 70
     2
  9
$LUPREC
 70
     4
  9
$SKETCHINC
 40
0.1
  9
$FILLETRAD
 40
0.0
  9
$AUNITS
 70
     0
  9
$AUPREC
 70
     0
  9
$MENU
  1
.
  9
$ELEVATION
 40
0.0
  9
$PELEVATION
 40
0.0
  9
$THICKNESS
 40
0.0
  9
$LIMCHECK
 70
     0
  9
$BLIPMODE
 70
     0
  9
$CHAMFERA
 40
0.0
  9
$CHAMFERB
 40
0.0
  9
$SKPOLY
 70
     0
  9
$TDCREATE
 40
2458277.4229385648
  9
$TDUPDATE
 40
2458277.5959047801
  9
$TDINDWG
 40
0.170439537
  9
$TDUSRTIMER
 40
0.170439537
  9
$USRTIMER
 70
     1
  9
$ANGBASE
 50
0.0
  9
$ANGDIR
 70
     0
  9
$PDMODE
 70
     0
  9
$PDSIZE
 40
0.3125
  9
$PLINEWID
 40
0.0
  9
$COORDS
 70
     1
  9
$SPLFRAME
 70
     0
  9
$SPLINETYPE
 70
     6
  9
$SPLINESEGS
 70
     8
  9
$ATTDIA
 70
     1
  9
$ATTREQ
 70
     1
  9
$HANDLING
 70
     1
  9
$HANDSEED
  5
F38
  9
$SURFTAB1
 70
     6
  9
$SURFTAB2
 70
     6
  9
$SURFTYPE
 70
     6
  9
$SURFU
 70
     6
  9
$SURFV
 70
     6
  9
$UCSNAME
  2

  9
$UCSORG
 10
0.0
 20
0.0
 30
0.0
  9
$UCSXDIR
 10
1.0
 20
0.0
 30
0.0
  9
$UCSYDIR
 10
0.0
 20
1.0
 30
0.0
  9
$PUCSNAME
  2

  9
$PUCSORG
 10
0.0
 20
0.0
 30
0.0
  9
$PUCSXDIR
 10
1.0
 20
0.0
 30
0.0
  9
$PUCSYDIR
 10
0.0
 20
1.0
 30
0.0
  9
$USERI1
 70
     0
  9
$USERI2
 70
     0
  9
$USERI3
 70
     0
  9
$USERI4
 70
     0
  9
$USERI5
 70
     0
  9
$USERR1
 40
0.0
  9
$USERR2
 40
0.0
  9
$USERR3
 40
0.0
  9
$USERR4
 40
0.0
  9
$USERR5
 40
0.0
  9
$WORLDVIEW
 70
     1
  9
$SHADEDGE
 70
     3
  9
$SHADEDIF
 70
    70
  9
$TILEMODE
 70
     1
  9
$MAXACTVP
 70
    64
  9
$PLIMCHECK
 70
     0
  9
$PEXTMIN
 10
1.0000000000000000E+020
 20
1.0000000000000000E+020
 30
1.0000000000000000E+020
  9
$PEXTMAX
 10
-1.0000000000000000E+020
 20
-1.0000000000000000E+020
 30
-1.0000000000000000E+020
  9
$PLIMMIN
 10
0.0
 20
0.0
  9
$PLIMMAX
 10
12.0
 20
9.0
  9
$UNITMODE
 70
     0
  9
$VISRETAIN
 70
     1
  9
$PLINEGEN
 70
     0
  9
$PSLTSCALE
 70
     1
  0
ENDSEC
  0
SECTION
  2
TABLES
  0
TABLE
  2
VPORT
 70
     1
  0
VPORT
  2
*ACTIVE
 70
     0
 10
0.0
 20
0.0
 11
1.0
 21
1.0
 12
0.0
 22
0.0
 13
0.0
 23
0.0
 14
1.0
 24
1.0
 15
0.0
 25
0.0
 16
-0.0000000000000071
 26
0.0
 36
20.916334477897479
 17
56.285040397692583
 27
4.1816478847000003
 37
0.0
 40
7.4325371661514641
 41
2.1006711409395971
 42
50.0
 43
0.0
 44
0.0
 50
0.0
 51
0.0
 71
     0
 72
   100
 73
     1
 74
     1
 75
     0
 76
     0
 77
     0
 78
     0
  0
ENDTAB
  0
TABLE
  2
LTYPE
 70
     2
  0
LTYPE
  2
CONTINUOUS
 70
     0
  3
Solid line
 72
    65
 73
     0
 40
0.0
  0
LTYPE
  2
PHANTOM2
 70
     0
  3
___ _ _ ___ _ _ ___ _ _ ___ _ _
 72
    65
 73
     6
 40
1.25
 49
0.625
 49
-0.125
 49
0.125
 49
-0.125
 49
0.125
 49
-0.125
  0
ENDTAB
  0
TABLE
  2
LAYER
 70
     2
  0
LAYER
  2
0
 70
     0
 62
   255
  6
CONTINUOUS
  0
LAYER
  2
DEFPOINTS
 70
     0
 62
     7
  6
CONTINUOUS
  0
ENDTAB
  0
TABLE
  2
STYLE
 70
     1
  0
STYLE
  2
STANDARD
 70
     0
 40
0.0
 41
0.8
 50
0.0
 71
     0
 42
0.2
  3
txt
  4

  0
ENDTAB
  0
TABLE
  2
VIEW
 70
     0
  0
ENDTAB
  0
TABLE
  2
UCS
 70
     0
  0
ENDTAB
  0
TABLE
  2
APPID
 70
     9
  0
APPID
  2
ACAD
 70
     0
  0
APPID
  2
ACAD_MLEADERVER
 70
     0
  0
APPID
  2
ACAD_EXEMPT_FROM_CAD_STANDARDS
 70
     0
  0
APPID
  2
ACAD_DSTYLE_DIMJAG
 70
     0
  0
APPID
  2
ACAD_DSTYLE_DIMTALN
 70
     0
  0
APPID
  2
ACAD_NAV_VCDISPLAY
 70
     0
  0
APPID
  2
ACAECLAYERSTANDARD
 70
     0
  0
APPID
  2
ACCMTRANSPARENCY
 70
     0
  0
APPID
  2
AcDbAttr
 70
     0
  0
ENDTAB
  0
TABLE
  2
DIMSTYLE
 70
     1
  0
DIMSTYLE
  2
STANDARD
 70
     0
  3

  4

  5

  6

  7

 40
1.0
 41
0.1875
 42
0.0625
 43
0.38
 44
0.125
 45
0.0
 46
0.0
 47
0.01
 48
0.01
140
0.15625
141
0.09
142
0.0
143
25.399999999999999
144
1.0
145
0.0
146
1.0
147
0.09
 71
     1
 72
     0
 73
     1
 74
     1
 75
     0
 76
     0
 77
     0
 78
     4
170
     0
171
     2
172
     0
173
     0
174
     0
175
     0
176
     0
177
     0
178
     0
  0
ENDTAB
  0
ENDSEC
  0
SECTION
  2
BLOCKS
  0
BLOCK
  8
0
  2
$MODEL_SPACE
 70
     0
 10
0.0
 20
0.0
 30
0.0
  3
$MODEL_SPACE
  1

  0
ENDBLK
  5
21
  8
0
  0
BLOCK
 67
     1
  8
0
  2
$PAPER_SPACE
 70
     0
 10
0.0
 20
0.0
 30
0.0
  3
$PAPER_SPACE
  1

  0
ENDBLK
  5
1D
 67
     1
  8
0
  0
ENDSEC
  0
SECTION
  2
ENTITIES
  0
LINE
  5
342
  8
0
 10
55.047258510031689
 20
1.371368605699999
 30
0.0
 11
54.557258510231698
 21
1.3713558209000001
 31
0.0
  0
ARC
  5
40C
  8
0
 10
54.557376191598927
 20
1.431643729551026
 30
0.0
 40
0.0602880234868976
 50
180.2751074111965
 51
269.88815937779532
  0
ARC
  5
410
  8
0
 10
55.047368410829478
 20
1.3911020416388591
 30
0.0
 40
0.019733741963031
 50
269.6809078170586
 51
0.7754801191013558
  0
LINE
  5
816
  8
0
 10
58.054089773277191
 20
7.3438460330288207
 30
0.0
 11
57.695836690631701
 21
7.437256677699998
 31
0.0
  0
LINE
  5
818
  8
0
 10
57.680730342131703
 20
7.4390766012999956
 30
0.0
 11
57.053030835731697
 21
7.4281033212000009
 31
0.0
  0
LINE
  5
819
  8
0
 10
54.497088863071589
 20
1.431354255902243
 30
0.0
 11
54.497099081774742
 21
4.9501396693627981
 31
0.0
  0
LINE
  5
81A
  8
0
 10
54.497097924631703
 20
4.944518009599995
 30
0.0
 11
54.497098030931703
 21
4.9449889306999992
 31
0.0
  0
LINE
  5
81B
  8
0
 10
56.859100344631692
 20
5.1816396692999973
 30
0.0
 11
56.879100344631688
 21
5.1816396692999973
 31
0.0
  0
LINE
  5
81C
  8
0
 10
55.124100345231703
 20
4.9701396692999964
 30
0.0
 11
55.124093518720642
 21
3.3931396692999982
 31
0.0
  0
LINE
  5
81D
  8
0
 10
55.047100345331692
 20
4.9701396692999964
 30
0.0
 11
54.517100345431693
 21
4.9701396692999964
 31
0.0
  0
LINE
  5
81E
  8
0
 10
55.124100345231703
 20
4.9701396692999964
 30
0.0
 11
56.829085615931689
 21
4.9701396692999964
 31
0.0
  0
LINE
  5
81F
  8
0
 10
55.087100345231683
 20
4.9066396692999978
 30
0.0
 11
55.124092260331693
 21
4.9066396692999978
 31
0.0
  0
LINE
  5
820
  8
0
 10
55.087100345231683
 20
3.456639669299995
 30
0.0
 11
55.124092273531687
 21
3.456639669299995
 31
0.0
  0
LINE
  5
821
  8
0
 10
56.984491539803919
 20
7.3638940566673874
 30
0.0
 11
56.984491548331697
 21
0.9993852827999987
 31
0.0
  0
LINE
  5
822
  8
0
 10
56.829100344631691
 20
5.1516396513364242
 30
0.0
 11
56.829064162529228
 21
3.2116396879357181
 31
0.0
  0
LINE
  5
823
  8
0
 10
56.829085614931692
 20
3.3931396692999982
 30
0.0
 11
55.124093518720642
 21
3.3931396692999982
 31
0.0
  0
LINE
  5
824
  8
0
 10
55.047100345331692
 20
3.3931396692999982
 30
0.0
 11
54.517100345431693
 21
3.3931396692999982
 31
0.0
  0
LINE
  5
825
  8
0
 10
56.879100344631688
 20
3.1816396692999969
 30
0.0
 11
56.859100344631692
 21
3.1816396692999969
 31
0.0
  0
LINE
  5
826
  8
0
 10
58.054089773277191
 20
1.0193945942215801
 30
0.0
 11
58.054089773277191
 21
7.3438460330288207
 31
0.0
  0
LINE
  5
828
  8
0
 10
57.053030835731697
 20
0.9351760174999981
 30
0.0
 11
57.680730342131703
 21
0.9242191681000002
 31
0.0
  0
LINE
  5
82A
  8
0
 10
57.695836690631701
 20
0.9260226609999975
 30
0.0
 11
58.054089773277191
 21
1.0193945942215801
 31
0.0
  0
ARC
  5
82B
  8
0
 10
57.05425251210508
 20
7.3581139630748771
 30
0.0
 40
0.0700000195595729
 50
91.000006165480698
 51
175.2635375116804
  0
ARC
  5
82C
  8
0
 10
57.678283462319001
 20
7.3551607913534411
 30
0.0
 40
0.0839514763408287
 50
77.931100402591923
 51
88.329800146639514
  0
ARC
  5
82D
  8
0
 10
56.859100344631692
 20
5.1516396692999962
 30
0.0
 40
0.03
 50
90.0
 51
180.00003430789971
  0
ARC
  5
82E
  8
0
 10
55.087100345231683
 20
4.9266396692999983
 30
0.0
 40
0.02
 50
180.0
 51
270.0
  0
ARC
  5
82F
  8
0
 10
54.517101239040251
 20
4.950137511938105
 30
0.0
 40
0.0200021573818513
 50
90.00255972381548
 51
179.99382020518181
  0
ARC
  5
830
  8
0
 10
55.047100345331692
 20
4.9501396692999959
 30
0.0
 40
0.02
 50
0.0
 51
90.0
  0
ARC
  5
831
  8
0
 10
56.879100344631688
 20
5.1716396692999993
 30
0.0
 40
0.01
 50
0.0000098227998374
 51
90.0
  0
ARC
  5
832
  8
0
 10
84.719091712973224
 20
5.0616402052396161
 30
0.0
 40
27.829991368341759
 50
175.25474704859531
 51
180.0000072682825
  0
ARC
  5
833
  8
0
 10
57.054252505430199
 20
1.005165359056917
 30
0.0
 40
0.0700000029773903
 50
184.73644937489939
 51
268.99999906190169
  0
ARC
  5
834
  8
0
 10
57.667691628180073
 20
1.097601913199008
 30
0.0
 40
0.1738723220054878
 50
274.30065715495363
 51
279.3155712033967
  0
ARC
  5
835
  8
0
 10
56.85912596651233
 20
3.211701525965541
 30
0.0
 40
0.0300618675843722
 50
180.1178589663179
 51
269.95116651361099
  0
ARC
  5
836
  8
0
 10
55.087100345231683
 20
3.4366396692999959
 30
0.0
 40
0.02
 50
90.0
 51
180.0
  0
ARC
  5
837
  8
0
 10
54.517112519434903
 20
3.4131690599436508
 30
0.0
 40
0.0200293943433733
 50
181.94092513017009
 51
269.96517523023948
  0
ARC
  5
838
  8
0
 10
55.047100345331692
 20
3.4131396692999969
 30
0.0
 40
0.02
 50
270.0
 51
0.0
  0
ARC
  5
839
  8
0
 10
56.879100344631688
 20
3.191639669299998
 30
0.0
 40
0.01
 50
270.0
 51
359.99999017719978
  0
LINE
  5
83A
  8
0
 10
55.067100345331703
 20
4.9501396692999959
 30
0.0
 11
55.067100345331703
 21
1.391369123393891
 31
0.0
  0
ARC
  5
83B
  8
0
 10
84.72718450583109
 20
3.301974553725131
 30
0.0
 40
27.8380841633304
 50
180.0007089386614
 51
184.74456302700489
  0
LINE
  5
83C
  8
0
 10
56.8891003446317
 20
3.1916396675855969
 30
0.0
 11
56.8891003446317
 21
5.1716396709981964
 31
0.0
  0
LINE
  5
83D
  8
0
 10
57.680730342131703
 20
7.4390766013
 30
0.0
 11
57.680730342131703
 21
0.9242191681000002
 31
0.0
  0
ATTDEF
  5
E29
  8
DEFPOINTS
 10
58.062325265646912
 20
4.1832869802918662
 30
0.0
 40
0.001
  1
K-TS950-4
  3

  2
MODELNUMBER
 70
     0
1001
AcDbAttr
1070
     0
1070
     1
  0
ATTDEF
  5
E2A
  8
DEFPOINTS
 10
58.062325265646912
 20
4.181620313625201
 30
0.0
 40
0.001
  1
STILLNESS
  3

  2
TRADENAME
 70
     0
1001
AcDbAttr
1070
     0
1070
     1
  0
ATTDEF
  5
E2B
  8
DEFPOINTS
 10
58.062325265646912
 20
4.179953646958535
 30
0.0
 40
0.001
  1
VALVE TRIM
  3

  2
PRODUCT
 70
     0
1001
AcDbAttr
1070
     0
1070
     1
  0
ATTDEF
  5
E2C
  8
DEFPOINTS
 10
58.062325265646912
 20
4.1782869802918698
 30
0.0
 40
0.001
  1
PREMIUM MATERIALS
  3

  2
MATERIAL
 70
     0
1001
AcDbAttr
1070
     0
1070
     1
  0
ENDSEC
  0
EOF
