  0
SECTION
  2
HEADER
  9
$ACADVER
  1
AC1009
  9
$INSBASE
 10
44.212937704006499
 20
14.30425053424549
 30
0.0
  9
$EXTMIN
 10
40.955489631731687
 20
10.74724390762314
 30
0.0
  9
$EXTMAX
 10
47.470347064931687
 20
14.311027795814249
 30
0.0
  9
$LIMMIN
 10
0.0
 20
0.0
  9
$LIMMAX
 10
11.692913385800001
 20
8.2677165353999982
  9
$ORTHOMODE
 70
     1
  9
$REGENMODE
 70
     1
  9
$FILLMODE
 70
     1
  9
$QTEXTMODE
 70
     0
  9
$MIRRTEXT
 70
     0
  9
$DRAGMODE
 70
     2
  9
$LTSCALE
 40
0.6431102362
  9
$OSMODE
 70
  3071
  9
$ATTMODE
 70
     1
  9
$TEXTSIZE
 40
0.2
  9
$TRACEWID
 40
0.05
  9
$TEXTSTYLE
  7
STANDARD
  9
$CLAYER
  8
0
  9
$CELTYPE
  6
BYLAYER
  9
$CECOLOR
 62
   256
  9
$DIMSCALE
 40
1.0
  9
$DIMASZ
 40
0.1875
  9
$DIMEXO
 40
0.0625
  9
$DIMDLI
 40
0.4443307087
  9
$DIMRND
 40
0.0
  9
$DIMDLE
 40
0.0
  9
$DIMEXE
 40
0.125
  9
$DIMTP
 40
0.01
  9
$DIMTM
 40
0.01
  9
$DIMTXT
 40
1.0
  9
$DIMCEN
 40
0.1052362205
  9
$DIMTSZ
 40
0.0
  9
$DIMTOL
 70
     1
  9
$DIMLIM
 70
     0
  9
$DIMTIH
 70
     1
  9
$DIMTOH
 70
     1
  9
$DIMSE1
 70
     0
  9
$DIMSE2
 70
     0
  9
$DIMTAD
 70
     0
  9
$DIMZIN
 70
     0
  9
$DIMBLK
  1

  9
$DIMASO
 70
     1
  9
$DIMSHO
 70
     1
  9
$DIMPOST
  1
\X
  9
$DIMAPOST
  1

  9
$DIMALT
 70
     1
  9
$DIMALTD
 70
     2
  9
$DIMALTF
 40
25.399999999999999
  9
$DIMLFAC
 40
1.0
  9
$DIMTOFL
 70
     0
  9
$DIMTVP
 40
0.0
  9
$DIMTIX
 70
     0
  9
$DIMSOXD
 70
     0
  9
$DIMSAH
 70
     0
  9
$DIMBLK1
  1

  9
$DIMBLK2
  1

  9
$DIMSTYLE
  2
STANDARD
  9
$DIMCLRD
 70
     0
  9
$DIMCLRE
 70
     0
  9
$DIMCLRT
 70
     0
  9
$DIMTFAC
 40
1.0
  9
$DIMGAP
 40
0.09
  9
$LUNITS
 70
     2
  9
$LUPREC
 70
     4
  9
$SKETCHINC
 40
0.1
  9
$FILLETRAD
 40
0.0
  9
$AUNITS
 70
     0
  9
$AUPREC
 70
     0
  9
$MENU
  1
.
  9
$ELEVATION
 40
0.0
  9
$PELEVATION
 40
0.0
  9
$THICKNESS
 40
0.0
  9
$LIMCHECK
 70
     0
  9
$BLIPMODE
 70
     0
  9
$CHAMFERA
 40
0.0
  9
$CHAMFERB
 40
0.0
  9
$SKPOLY
 70
     0
  9
$TDCREATE
 40
2458277.4229385648
  9
$TDUPDATE
 40
2458277.5956899188
  9
$TDINDWG
 40
0.1702462384
  9
$TDUSRTIMER
 40
0.1702462384
  9
$USRTIMER
 70
     1
  9
$ANGBASE
 50
0.0
  9
$ANGDIR
 70
     0
  9
$PDMODE
 70
     0
  9
$PDSIZE
 40
0.3125
  9
$PLINEWID
 40
0.0
  9
$COORDS
 70
     1
  9
$SPLFRAME
 70
     0
  9
$SPLINETYPE
 70
     6
  9
$SPLINESEGS
 70
     8
  9
$ATTDIA
 70
     1
  9
$ATTREQ
 70
     1
  9
$HANDLING
 70
     1
  9
$HANDSEED
  5
EE5
  9
$SURFTAB1
 70
     6
  9
$SURFTAB2
 70
     6
  9
$SURFTYPE
 70
     6
  9
$SURFU
 70
     6
  9
$SURFV
 70
     6
  9
$UCSNAME
  2

  9
$UCSORG
 10
0.0
 20
0.0
 30
0.0
  9
$UCSXDIR
 10
1.0
 20
0.0
 30
0.0
  9
$UCSYDIR
 10
0.0
 20
1.0
 30
0.0
  9
$PUCSNAME
  2

  9
$PUCSORG
 10
0.0
 20
0.0
 30
0.0
  9
$PUCSXDIR
 10
1.0
 20
0.0
 30
0.0
  9
$PUCSYDIR
 10
0.0
 20
1.0
 30
0.0
  9
$USERI1
 70
     0
  9
$USERI2
 70
     0
  9
$USERI3
 70
     0
  9
$USERI4
 70
     0
  9
$USERI5
 70
     0
  9
$USERR1
 40
0.0
  9
$USERR2
 40
0.0
  9
$USERR3
 40
0.0
  9
$USERR4
 40
0.0
  9
$USERR5
 40
0.0
  9
$WORLDVIEW
 70
     1
  9
$SHADEDGE
 70
     3
  9
$SHADEDIF
 70
    70
  9
$TILEMODE
 70
     1
  9
$MAXACTVP
 70
    64
  9
$PLIMCHECK
 70
     0
  9
$PEXTMIN
 10
1.0000000000000000E+020
 20
1.0000000000000000E+020
 30
1.0000000000000000E+020
  9
$PEXTMAX
 10
-1.0000000000000000E+020
 20
-1.0000000000000000E+020
 30
-1.0000000000000000E+020
  9
$PLIMMIN
 10
0.0
 20
0.0
  9
$PLIMMAX
 10
12.0
 20
9.0
  9
$UNITMODE
 70
     0
  9
$VISRETAIN
 70
     1
  9
$PLINEGEN
 70
     0
  9
$PSLTSCALE
 70
     1
  0
ENDSEC
  0
SECTION
  2
TABLES
  0
TABLE
  2
VPORT
 70
     1
  0
VPORT
  2
*ACTIVE
 70
     0
 10
0.0
 20
0.0
 11
1.0
 21
1.0
 12
0.0
 22
0.0
 13
0.0
 23
0.0
 14
1.0
 24
1.0
 15
0.0
 25
0.0
 16
-0.0000000000000071
 26
0.0
 36
20.899943697141669
 17
44.212918348331691
 27
12.52913585171869
 37
0.0
 40
7.4266124719727831
 41
2.1006711409395971
 42
50.0
 43
0.0
 44
0.0
 50
0.0
 51
0.0
 71
     0
 72
   100
 73
     1
 74
     1
 75
     0
 76
     0
 77
     0
 78
     0
  0
ENDTAB
  0
TABLE
  2
LTYPE
 70
     2
  0
LTYPE
  2
CONTINUOUS
 70
     0
  3
Solid line
 72
    65
 73
     0
 40
0.0
  0
LTYPE
  2
PHANTOM2
 70
     0
  3
___ _ _ ___ _ _ ___ _ _ ___ _ _
 72
    65
 73
     6
 40
1.25
 49
0.625
 49
-0.125
 49
0.125
 49
-0.125
 49
0.125
 49
-0.125
  0
ENDTAB
  0
TABLE
  2
LAYER
 70
     2
  0
LAYER
  2
0
 70
     0
 62
   255
  6
CONTINUOUS
  0
LAYER
  2
DEFPOINTS
 70
     0
 62
     7
  6
CONTINUOUS
  0
ENDTAB
  0
TABLE
  2
STYLE
 70
     1
  0
STYLE
  2
STANDARD
 70
     0
 40
0.0
 41
0.8
 50
0.0
 71
     0
 42
0.2
  3
txt
  4

  0
ENDTAB
  0
TABLE
  2
VIEW
 70
     0
  0
ENDTAB
  0
TABLE
  2
UCS
 70
     0
  0
ENDTAB
  0
TABLE
  2
APPID
 70
     9
  0
APPID
  2
ACAD
 70
     0
  0
APPID
  2
ACAD_MLEADERVER
 70
     0
  0
APPID
  2
ACAD_EXEMPT_FROM_CAD_STANDARDS
 70
     0
  0
APPID
  2
ACAD_DSTYLE_DIMJAG
 70
     0
  0
APPID
  2
ACAD_DSTYLE_DIMTALN
 70
     0
  0
APPID
  2
ACAD_NAV_VCDISPLAY
 70
     0
  0
APPID
  2
ACAECLAYERSTANDARD
 70
     0
  0
APPID
  2
ACCMTRANSPARENCY
 70
     0
  0
APPID
  2
AcDbAttr
 70
     0
  0
ENDTAB
  0
TABLE
  2
DIMSTYLE
 70
     1
  0
DIMSTYLE
  2
STANDARD
 70
     0
  3

  4

  5

  6

  7

 40
1.0
 41
0.1875
 42
0.0625
 43
0.38
 44
0.125
 45
0.0
 46
0.0
 47
0.01
 48
0.01
140
0.15625
141
0.09
142
0.0
143
25.399999999999999
144
1.0
145
0.0
146
1.0
147
0.09
 71
     1
 72
     0
 73
     1
 74
     1
 75
     0
 76
     0
 77
     0
 78
     4
170
     0
171
     2
172
     0
173
     0
174
     0
175
     0
176
     0
177
     0
178
     0
  0
ENDTAB
  0
ENDSEC
  0
SECTION
  2
BLOCKS
  0
BLOCK
  8
0
  2
$MODEL_SPACE
 70
     0
 10
0.0
 20
0.0
 30
0.0
  3
$MODEL_SPACE
  1

  0
ENDBLK
  5
21
  8
0
  0
BLOCK
 67
     1
  8
0
  2
$PAPER_SPACE
 70
     0
 10
0.0
 20
0.0
 30
0.0
  3
$PAPER_SPACE
  1

  0
ENDBLK
  5
1D
 67
     1
  8
0
  0
ENDSEC
  0
SECTION
  2
ENTITIES
  0
LINE
  5
2E0
  8
0
 10
41.05071198460287
 20
14.30425053424549
 30
0.0
 11
40.957301339931689
 21
13.9459974516
 31
0.0
  0
LINE
  5
2E2
  8
0
 10
40.955489631731687
 20
13.9308911031
 30
0.0
 11
40.966454696431697
 21
13.3031915967
 31
0.0
  0
LINE
  5
2E6
  8
0
 10
44.981418348153547
 20
10.74724390762314
 30
0.0
 11
43.444418348268897
 21
10.74725984274305
 31
0.0
  0
LINE
  5
2E8
  8
0
 10
43.450040008031699
 20
10.7472586856
 30
0.0
 11
43.449569086931689
 21
10.7472587919
 31
0.0
  0
LINE
  5
2F1
  8
0
 10
43.212918348331698
 20
13.1092611056
 30
0.0
 11
43.212918348331698
 21
13.129261105599999
 31
0.0
  0
LINE
  5
2F5
  8
0
 10
43.424418348331692
 20
11.374261106200001
 30
0.0
 11
45.00141834833169
 21
11.37425427968895
 31
0.0
  0
LINE
  5
2F6
  8
0
 10
43.424418348331692
 20
11.297261106300001
 30
0.0
 11
43.424418348331692
 21
10.767261106399999
 31
0.0
  0
LINE
  5
2F7
  8
0
 10
43.424418348331692
 20
11.374261106200001
 30
0.0
 11
43.424418348331692
 21
13.0792463769
 31
0.0
  0
LINE
  5
2F8
  8
0
 10
43.487918348331696
 20
11.3372611062
 30
0.0
 11
43.487918348331696
 21
11.374253021299999
 31
0.0
  0
LINE
  5
304
  8
0
 10
44.937918348331699
 20
11.3372611062
 30
0.0
 11
44.937918348331699
 21
11.374253034500001
 31
0.0
  0
LINE
  5
316
  8
0
 10
41.030663960964311
 20
13.234652300772231
 30
0.0
 11
47.395172734831689
 21
13.234652309299999
 31
0.0
  0
LINE
  5
317
  8
0
 10
43.242918366295271
 20
13.079261105600001
 30
0.0
 11
45.182918329695973
 21
13.07922492349754
 31
0.0
  0
LINE
  5
322
  8
0
 10
45.00141834833169
 20
13.0792463759
 30
0.0
 11
45.00141834833169
 21
11.37425427968895
 31
0.0
  0
LINE
  5
323
  8
0
 10
45.00141834833169
 20
11.297261106300001
 30
0.0
 11
45.00141834833169
 21
10.767261106399999
 31
0.0
  0
LINE
  5
324
  8
0
 10
45.212918348331698
 20
13.129261105599999
 30
0.0
 11
45.212918348331698
 21
13.1092611056
 31
0.0
  0
LINE
  5
32D
  8
0
 10
47.375163423410108
 20
14.30425053424549
 30
0.0
 11
41.05071198460287
 21
14.30425053424549
 31
0.0
  0
LINE
  5
33C
  8
0
 10
47.459382000131697
 20
13.3031915967
 30
0.0
 11
47.470347064931687
 21
13.9308911031
 31
0.0
  0
LINE
  5
33E
  8
0
 10
47.468535356631691
 20
13.9459974516
 30
0.0
 11
47.375163423410108
 21
14.30425053424549
 31
0.0
  0
ARC
  5
3EB
  8
0
 10
41.03644405455681
 20
13.304413273073379
 30
0.0
 40
0.0700000195595729
 50
181.0000061654809
 51
265.2635375116804
  0
ARC
  5
3EC
  8
0
 10
41.01927334500617
 20
13.93090331980615
 30
0.0
 40
0.0637837144444269
 50
166.3113580947182
 51
180.01097405054739
  0
ARC
  5
3ED
  8
0
 10
43.242918348331699
 20
13.1092611056
 30
0.0
 40
0.03
 50
180.0
 51
270.00003430790019
  0
ARC
  5
3EE
  8
0
 10
43.4679183483317
 20
11.3372611062
 30
0.0
 40
0.02
 50
270.0
 51
0.0
  0
ARC
  5
3EF
  8
0
 10
43.444420505693579
 20
10.76726200000855
 30
0.0
 40
0.0200021573818513
 50
180.00255972381549
 51
269.99382020518141
  0
ARC
  5
3F0
  8
0
 10
43.444418348331688
 20
11.297261106300001
 30
0.0
 40
0.02
 50
90.0
 51
180.0
  0
ARC
  5
3F1
  8
0
 10
43.222918348331689
 20
13.129261105599999
 30
0.0
 40
0.01
 50
90.000009822799825
 51
180.0
  0
ARC
  5
3F4
  8
0
 10
43.332917812392068
 20
40.969252473941523
 30
0.0
 40
27.829991368341759
 50
265.25474704859528
 51
270.00000726828262
  0
ARC
  5
3F7
  8
0
 10
47.389392658574771
 20
13.3044132663985
 30
0.0
 40
0.0700000029773903
 50
274.73644937489951
 51
358.99999906190169
  0
ARC
  5
3F8
  8
0
 10
47.401671852191591
 20
13.930316681035309
 30
0.0
 40
0.0686776150256207
 50
0.4792295670553579
 51
13.198438287671021
  0
ARC
  5
3F9
  8
0
 10
45.182856491666158
 20
13.10928672748064
 30
0.0
 40
0.0300618675843722
 50
270.11785896631841
 51
359.95116651361099
  0
ARC
  5
3FA
  8
0
 10
44.957918348331688
 20
11.3372611062
 30
0.0
 40
0.02
 50
180.0
 51
270.0
  0
ARC
  5
3FB
  8
0
 10
44.98138895768804
 20
10.767273280403209
 30
0.0
 40
0.0200293943433733
 50
270.0840739463934
 51
359.96517523023942
  0
ARC
  5
3FC
  8
0
 10
44.981418348331701
 20
11.297261106300001
 30
0.0
 40
0.02
 50
0.0
 51
90.0
  0
ARC
  5
3FD
  8
0
 10
45.202918348331693
 20
13.129261105599999
 30
0.0
 40
0.01
 50
0.0
 51
89.999990177200161
  0
LINE
  5
800
  8
0
 10
43.444418348331688
 20
11.3172611063
 30
0.0
 11
44.981418348331701
 21
11.3172611063
 31
0.0
  0
ARC
  5
80A
  8
0
 10
45.09258346390655
 20
40.977345266799396
 30
0.0
 40
27.8380841633304
 50
270.00070893866138
 51
274.74456302700492
  0
LINE
  5
80B
  8
0
 10
45.20291835004609
 20
13.139261105599999
 30
0.0
 11
43.222918346633492
 21
13.139261105599999
 31
0.0
  0
LINE
  5
80C
  8
0
 10
40.955489631731687
 20
13.9308911031
 30
0.0
 11
47.470347064931687
 21
13.9308911031
 31
0.0
  0
ATTDEF
  5
D94
  8
DEFPOINTS
 10
44.209659880838217
 20
14.305027795814251
 30
0.0
 40
0.001
  1
PREMIUM MATERIALS
  3

  2
MATERIAL
 70
     0
1001
AcDbAttr
1070
     0
1070
     1
  0
ATTDEF
  5
D95
  8
DEFPOINTS
 10
44.209659880838217
 20
14.30669446248092
 30
0.0
 40
0.001
  1
VALVE TRIM
  3

  2
PRODUCT
 70
     0
1001
AcDbAttr
1070
     0
1070
     1
  0
ATTDEF
  5
D96
  8
DEFPOINTS
 10
44.209659880838217
 20
14.30836112914759
 30
0.0
 40
0.001
  1
STILLNESS
  3

  2
TRADENAME
 70
     0
1001
AcDbAttr
1070
     0
1070
     1
  0
ATTDEF
  5
D97
  8
DEFPOINTS
 10
44.209659880838217
 20
14.31002779581425
 30
0.0
 40
0.001
  1
K-TS950-4
  3

  2
MODELNUMBER
 70
     0
1001
AcDbAttr
1070
     0
1070
     1
  0
ENDSEC
  0
EOF
