  0
SECTION
  2
HEADER
  9
$ACADVER
  1
AC1009
  9
$INSBASE
 10
99.501041760870095
 20
-0.3540495238251999
 30
0.0
  9
$EXTMIN
 10
87.909105868128009
 20
-3.6089693086167629
 30
0.0
  9
$EXTMAX
 10
99.520199279406313
 20
13.0159229051
 30
0.0
  9
$LIMMIN
 10
0.0
 20
0.0
  9
$LIMMAX
 10
11.692913385800001
 20
8.2677165353999982
  9
$ORTHOMODE
 70
     0
  9
$REGENMODE
 70
     1
  9
$FILLMODE
 70
     1
  9
$QTEXTMODE
 70
     0
  9
$MIRRTEXT
 70
     0
  9
$DRAGMODE
 70
     2
  9
$LTSCALE
 40
0.6431102362
  9
$OSMODE
 70
  3071
  9
$ATTMODE
 70
     1
  9
$TEXTSIZE
 40
0.2
  9
$TRACEWID
 40
0.05
  9
$TEXTSTYLE
  7
STANDARD
  9
$CLAYER
  8
0
  9
$CELTYPE
  6
BYLAYER
  9
$CECOLOR
 62
   256
  9
$DIMSCALE
 40
1.0
  9
$DIMASZ
 40
0.1875
  9
$DIMEXO
 40
0.0625
  9
$DIMDLI
 40
0.4443307087
  9
$DIMRND
 40
0.0
  9
$DIMDLE
 40
0.0
  9
$DIMEXE
 40
0.125
  9
$DIMTP
 40
0.01
  9
$DIMTM
 40
0.01
  9
$DIMTXT
 40
1.0
  9
$DIMCEN
 40
0.1052362205
  9
$DIMTSZ
 40
0.0
  9
$DIMTOL
 70
     1
  9
$DIMLIM
 70
     0
  9
$DIMTIH
 70
     1
  9
$DIMTOH
 70
     1
  9
$DIMSE1
 70
     0
  9
$DIMSE2
 70
     0
  9
$DIMTAD
 70
     0
  9
$DIMZIN
 70
     0
  9
$DIMBLK
  1

  9
$DIMASO
 70
     1
  9
$DIMSHO
 70
     1
  9
$DIMPOST
  1
\X
  9
$DIMAPOST
  1

  9
$DIMALT
 70
     1
  9
$DIMALTD
 70
     2
  9
$DIMALTF
 40
25.399999999999999
  9
$DIMLFAC
 40
1.0
  9
$DIMTOFL
 70
     0
  9
$DIMTVP
 40
0.0
  9
$DIMTIX
 70
     0
  9
$DIMSOXD
 70
     0
  9
$DIMSAH
 70
     0
  9
$DIMBLK1
  1

  9
$DIMBLK2
  1

  9
$DIMSTYLE
  2
STANDARD
  9
$DIMCLRD
 70
     0
  9
$DIMCLRE
 70
     0
  9
$DIMCLRT
 70
     0
  9
$DIMTFAC
 40
1.0
  9
$DIMGAP
 40
0.09
  9
$LUNITS
 70
     2
  9
$LUPREC
 70
     4
  9
$SKETCHINC
 40
0.1
  9
$FILLETRAD
 40
0.0
  9
$AUNITS
 70
     0
  9
$AUPREC
 70
     0
  9
$MENU
  1
.
  9
$ELEVATION
 40
0.0
  9
$PELEVATION
 40
0.0
  9
$THICKNESS
 40
0.0
  9
$LIMCHECK
 70
     0
  9
$BLIPMODE
 70
     0
  9
$CHAMFERA
 40
0.0
  9
$CHAMFERB
 40
0.0
  9
$SKPOLY
 70
     0
  9
$TDCREATE
 40
2458299.3972474081
  9
$TDUPDATE
 40
2458299.6314252201
  9
$TDINDWG
 40
0.2009516551
  9
$TDUSRTIMER
 40
0.2009516551
  9
$USRTIMER
 70
     1
  9
$ANGBASE
 50
0.0
  9
$ANGDIR
 70
     0
  9
$PDMODE
 70
     0
  9
$PDSIZE
 40
0.3125
  9
$PLINEWID
 40
0.0
  9
$COORDS
 70
     1
  9
$SPLFRAME
 70
     0
  9
$SPLINETYPE
 70
     6
  9
$SPLINESEGS
 70
     8
  9
$ATTDIA
 70
     1
  9
$ATTREQ
 70
     1
  9
$HANDLING
 70
     1
  9
$HANDSEED
  5
336A
  9
$SURFTAB1
 70
     6
  9
$SURFTAB2
 70
     6
  9
$SURFTYPE
 70
     6
  9
$SURFU
 70
     6
  9
$SURFV
 70
     6
  9
$UCSNAME
  2

  9
$UCSORG
 10
0.0
 20
0.0
 30
0.0
  9
$UCSXDIR
 10
1.0
 20
0.0
 30
0.0
  9
$UCSYDIR
 10
0.0
 20
1.0
 30
0.0
  9
$PUCSNAME
  2

  9
$PUCSORG
 10
0.0
 20
0.0
 30
0.0
  9
$PUCSXDIR
 10
1.0
 20
0.0
 30
0.0
  9
$PUCSYDIR
 10
0.0
 20
1.0
 30
0.0
  9
$USERI1
 70
     0
  9
$USERI2
 70
     0
  9
$USERI3
 70
     0
  9
$USERI4
 70
     0
  9
$USERI5
 70
     0
  9
$USERR1
 40
0.0
  9
$USERR2
 40
0.0
  9
$USERR3
 40
0.0
  9
$USERR4
 40
0.0
  9
$USERR5
 40
0.0
  9
$WORLDVIEW
 70
     1
  9
$SHADEDGE
 70
     3
  9
$SHADEDIF
 70
    70
  9
$TILEMODE
 70
     1
  9
$MAXACTVP
 70
    64
  9
$PLIMCHECK
 70
     0
  9
$PEXTMIN
 10
1.0000000000000000E+020
 20
1.0000000000000000E+020
 30
1.0000000000000000E+020
  9
$PEXTMAX
 10
-1.0000000000000000E+020
 20
-1.0000000000000000E+020
 30
-1.0000000000000000E+020
  9
$PLIMMIN
 10
0.0
 20
0.0
  9
$PLIMMAX
 10
12.0
 20
9.0
  9
$UNITMODE
 70
     0
  9
$VISRETAIN
 70
     1
  9
$PLINEGEN
 70
     0
  9
$PSLTSCALE
 70
     1
  0
ENDSEC
  0
SECTION
  2
TABLES
  0
TABLE
  2
VPORT
 70
     1
  0
VPORT
  2
*ACTIVE
 70
     0
 10
0.0
 20
0.0
 11
1.0
 21
1.0
 12
0.0
 22
0.0
 13
0.0
 23
0.0
 14
1.0
 24
1.0
 15
0.0
 25
0.0
 16
-0.0000000000000142
 26
0.0
 36
57.073356904337238
 17
93.714318861995906
 27
4.7034767982416179
 37
0.0
 40
20.279650222150622
 41
2.1006711409395971
 42
50.0
 43
0.0
 44
0.0
 50
0.0
 51
0.0
 71
     0
 72
   100
 73
     1
 74
     1
 75
     0
 76
     0
 77
     0
 78
     0
  0
ENDTAB
  0
TABLE
  2
LTYPE
 70
     2
  0
LTYPE
  2
CONTINUOUS
 70
     0
  3
Solid line
 72
    65
 73
     0
 40
0.0
  0
LTYPE
  2
PHANTOM2
 70
     0
  3
___ _ _ ___ _ _ ___ _ _ ___ _ _
 72
    65
 73
     6
 40
1.25
 49
0.625
 49
-0.125
 49
0.125
 49
-0.125
 49
0.125
 49
-0.125
  0
ENDTAB
  0
TABLE
  2
LAYER
 70
     2
  0
LAYER
  2
0
 70
     0
 62
   255
  6
CONTINUOUS
  0
LAYER
  2
DEFPOINTS
 70
     0
 62
     7
  6
CONTINUOUS
  0
ENDTAB
  0
TABLE
  2
STYLE
 70
     1
  0
STYLE
  2
STANDARD
 70
     0
 40
0.0
 41
0.8
 50
0.0
 71
     0
 42
0.2
  3
txt
  4

  0
ENDTAB
  0
TABLE
  2
VIEW
 70
     0
  0
ENDTAB
  0
TABLE
  2
UCS
 70
     0
  0
ENDTAB
  0
TABLE
  2
APPID
 70
     9
  0
APPID
  2
ACAD
 70
     0
  0
APPID
  2
ACAD_MLEADERVER
 70
     0
  0
APPID
  2
ACAD_EXEMPT_FROM_CAD_STANDARDS
 70
     0
  0
APPID
  2
ACAD_NAV_VCDISPLAY
 70
     0
  0
APPID
  2
ACAD_DSTYLE_DIMJAG
 70
     0
  0
APPID
  2
ACAD_DSTYLE_DIMTALN
 70
     0
  0
APPID
  2
ACAECLAYERSTANDARD
 70
     0
  0
APPID
  2
ACCMTRANSPARENCY
 70
     0
  0
APPID
  2
AcDbAttr
 70
     0
  0
ENDTAB
  0
TABLE
  2
DIMSTYLE
 70
     1
  0
DIMSTYLE
  2
STANDARD
 70
     0
  3

  4

  5

  6

  7

 40
1.0
 41
0.1875
 42
0.0625
 43
0.38
 44
0.125
 45
0.0
 46
0.0
 47
0.01
 48
0.01
140
0.15625
141
0.09
142
0.0
143
25.399999999999999
144
1.0
145
0.0
146
1.0
147
0.09
 71
     1
 72
     0
 73
     1
 74
     1
 75
     0
 76
     0
 77
     0
 78
     4
170
     0
171
     2
172
     0
173
     0
174
     0
175
     0
176
     0
177
     0
178
     0
  0
ENDTAB
  0
ENDSEC
  0
SECTION
  2
BLOCKS
  0
BLOCK
  8
0
  2
$MODEL_SPACE
 70
     0
 10
0.0
 20
0.0
 30
0.0
  3
$MODEL_SPACE
  1

  0
ENDBLK
  5
21
  8
0
  0
BLOCK
 67
     1
  8
0
  2
$PAPER_SPACE
 70
     0
 10
0.0
 20
0.0
 30
0.0
  3
$PAPER_SPACE
  1

  0
ENDBLK
  5
1D
 67
     1
  8
0
  0
ENDSEC
  0
SECTION
  2
ENTITIES
  0
LINE
  5
29D1
  8
0
 10
99.501041760870095
 20
-3.515255077625199
 30
0.0
 11
99.222560538070113
 21
-3.582037185616763
 31
0.0
  0
LINE
  5
29D2
  8
0
 10
98.499972257570093
 20
-3.6005325315167629
 30
0.0
 11
98.974589354470098
 21
-3.6089693086167629
 31
0.0
  0
LINE
  5
29D3
  8
0
 10
95.933541760870085
 20
-3.1640688796167629
 30
0.0
 11
95.483541760970098
 21
-3.1640688796167629
 31
0.0
  0
LINE
  5
29D4
  8
0
 10
87.915274561870106
 20
8.4583309312000008
 30
0.0
 11
88.603381820770096
 21
9.4784918954999995
 31
0.0
  0
LINE
  5
29D5
  8
0
 10
98.306041760870102
 20
-1.354068879616763
 30
0.0
 11
98.326041760870083
 21
-1.354068879616763
 31
0.0
  0
LINE
  5
29D6
  8
0
 10
95.993541760870087
 20
-1.077986825547542
 30
0.0
 11
95.953541760870095
 21
-1.0792748775226031
 31
0.0
  0
LINE
  5
29D7
  8
0
 10
95.993541760870087
 20
-1.142568879616763
 30
0.0
 11
98.2760417608701
 21
-1.142568879616763
 31
0.0
  0
LINE
  5
29D8
  8
0
 10
91.995373328470095
 20
10.6438029082
 30
0.0
 11
92.425555655770097
 21
11.258166941400001
 31
0.0
  0
LINE
  5
29D9
  8
0
 10
91.729888163570095
 20
10.255933565199999
 30
0.0
 11
91.999469088685842
 21
10.64093502602249
 31
0.0
  0
LINE
  5
29DA
  8
0
 10
91.555520172370095
 20
9.9546068622000004
 30
0.0
 11
91.737255221376529
 21
10.21415185816848
 31
0.0
  0
LINE
  5
29DB
  8
0
 10
91.577040655001255
 20
9.8197138509445043
 30
0.0
 11
91.519008030470104
 21
9.7368346739000007
 31
0.0
  0
LINE
  5
29DC
  8
0
 10
91.044502483770088
 20
9.5354558097000002
 30
0.0
 11
90.671967348470091
 21
9.0227051846999995
 31
0.0
  0
LINE
  5
29DD
  8
0
 10
90.059515460170076
 20
6.8794686589999987
 30
0.0
 11
90.06987497663377
 21
6.9016847135960422
 31
0.0
  0
LINE
  5
29DE
  8
0
 10
91.763238394170074
 20
9.5658227324999991
 30
0.0
 11
91.821271018575189
 21
9.6487019093072686
 31
0.0
  0
LINE
  5
29DF
  8
0
 10
92.144328631124765
 20
9.4224945337199681
 30
0.0
 11
92.085738190670114
 21
9.3400059435999996
 31
0.0
  0
LINE
  5
29E0
  8
0
 10
90.144098653270078
 20
6.8202428696000004
 30
0.0
 11
90.161431752576334
 21
6.8375759689062301
 31
0.0
  0
LINE
  5
29E1
  8
0
 10
95.934157039552744
 20
0.4344216539464677
 30
0.0
 11
95.443541760870104
 21
0.4344311203832364
 31
0.0
  0
LINE
  5
29E2
  8
0
 10
95.993541760870087
 20
0.4344311203832364
 30
0.0
 11
98.2760417608701
 21
0.4344311203832364
 31
0.0
  0
LINE
  5
29E3
  8
0
 10
98.306041760870102
 20
0.6459311203832363
 30
0.0
 11
98.326041760870083
 21
0.6459311203832363
 31
0.0
  0
LINE
  5
29E4
  8
0
 10
95.993541760870087
 20
0.3692405988964081
 30
0.0
 11
95.953541760870095
 21
0.3707447526127506
 31
0.0
  0
LINE
  5
29E5
  8
0
 10
92.303024776670085
 20
8.6542290132000002
 30
0.0
 11
91.948611318470086
 21
8.1287894533999996
 31
0.0
  0
LINE
  5
29E6
  8
0
 10
92.387992003256144
 20
9.2518796037649054
 30
0.0
 11
92.329968554270096
 21
9.1689940018999998
 31
0.0
  0
LINE
  5
29E7
  8
0
 10
92.703855054583855
 20
9.5373313684759822
 30
0.0
 11
92.522119584670094
 21
9.2777866672999991
 31
0.0
  0
LINE
  5
29E8
  8
0
 10
92.745636698470094
 20
9.5446987840999995
 30
0.0
 11
93.015217623634229
 21
9.9297002449915883
 31
0.0
  0
LINE
  5
29E9
  8
0
 10
93.019313383870099
 20
9.926832362799999
 30
0.0
 11
93.449495711070099
 21
10.541196396
 31
0.0
  0
LINE
  5
29EA
  8
0
 10
92.361117459070101
 20
5.3453182208999994
 30
0.0
 11
93.084408645870099
 21
6.3408431335999991
 31
0.0
  0
LINE
  5
29EB
  8
0
 10
98.499972257570093
 20
2.8923947721832359
 30
0.0
 11
98.974589354470098
 21
2.900870260966363
 31
0.0
  0
LINE
  5
29EC
  8
0
 10
99.501041760870095
 20
2.8071560299748
 30
0.0
 11
99.222560538070113
 21
2.873899426383236
 31
0.0
  0
LINE
  5
29ED
  8
0
 10
90.064506430470075
 20
6.8608421043999996
 30
0.0
 11
90.124888405024834
 21
6.8185621906356637
 31
0.0
  0
LINE
  5
29EE
  8
0
 10
87.925493004299923
 20
8.4031971354403581
 30
0.0
 11
92.305813724832205
 21
5.3360635471165221
 31
0.0
  0
LINE
  5
29EF
  8
0
 10
93.079699865370074
 20
6.3689818572999997
 30
0.0
 11
88.631434069570091
 21
9.4836910994999997
 31
0.0
  0
LINE
  5
29F0
  8
0
 10
95.423541760870094
 20
0.4144311206144642
 30
0.0
 11
95.423541760870094
 21
-3.1040688796167628
 31
0.0
  0
LINE
  5
29F1
  8
0
 10
95.953541760870095
 20
-3.1440688796167628
 30
0.0
 11
95.953541760870095
 21
0.4144311203832364
 31
0.0
  0
LINE
  5
29F2
  8
0
 10
95.993541760870087
 20
0.4344311203832364
 30
0.0
 11
95.993541760870087
 21
-1.142568879616763
 31
0.0
  0
LINE
  5
29F3
  8
0
 10
92.292806257570092
 20
8.7093628605999989
 30
0.0
 11
91.099806292770083
 21
9.5447104291000002
 31
0.0
  0
LINE
  5
29F4
  8
0
 10
91.54427457317172
 20
9.8426569084395528
 30
0.0
 11
92.420767260568496
 21
9.2289301215276307
 31
0.0
  0
LINE
  5
29F5
  8
0
 10
91.995373328470095
 20
10.6438029082
 30
0.0
 11
93.019313383870099
 21
9.926832362799999
 31
0.0
  0
LINE
  5
29F6
  8
0
 10
98.2760417608701
 20
-1.324068861653189
 30
0.0
 11
98.2760417608701
 21
0.615931102419662
 31
0.0
  0
LINE
  5
29F7
  8
0
 10
98.336041760870103
 20
-1.3440688813167629
 30
0.0
 11
98.336041760870103
 21
0.6359311220832363
 31
0.0
  0
LINE
  5
29F8
  8
0
 10
98.431433862985813
 20
2.8281962549782089
 30
0.0
 11
98.431432248561066
 21
-3.5363145656997008
 31
0.0
  0
LINE
  5
29F9
  8
0
 10
98.974589354470098
 20
-3.6089693086167629
 30
0.0
 11
98.974589354470098
 21
2.900870260966363
 31
0.0
  0
LINE
  5
29FA
  8
0
 10
99.189041760870111
 20
12.985922905100001
 30
0.0
 11
99.189041760870111
 21
10.305922905099999
 31
0.0
  0
LINE
  5
29FB
  8
0
 10
99.501041760870095
 20
-3.515255077625199
 30
0.0
 11
99.501041760870095
 21
2.8071560299748
 31
0.0
  0
LINE
  5
29FC
  8
0
 10
99.501041760870095
 20
10.305922905099999
 30
0.0
 11
99.501041760870095
 21
12.985922905100001
 31
0.0
  0
LINE
  5
29FD
  8
0
 10
99.471041760870094
 20
10.2759229051
 30
0.0
 11
99.219041760870113
 21
10.2759229051
 31
0.0
  0
LINE
  5
29FE
  8
0
 10
94.371041760870085
 20
11.020922905100001
 30
0.0
 11
99.189041760870111
 21
11.020922905100001
 31
0.0
  0
LINE
  5
29FF
  8
0
 10
94.371041760870085
 20
12.270922905100001
 30
0.0
 11
99.189041760870111
 21
12.270922905100001
 31
0.0
  0
LINE
  5
2A00
  8
0
 10
99.471041760870094
 20
13.0159229051
 30
0.0
 11
99.219041760870113
 21
13.0159229051
 31
0.0
  0
ARC
  5
2A08
  8
0
 10
98.966610905065622
 20
-2.3804753950853779
 30
0.0
 40
1.22851982126401
 50
270.37210200720227
 51
282.02508082286209
  0
ARC
  5
2A09
  8
0
 10
98.954002308709718
 20
1.558176882329898
 30
0.0
 40
1.3428511963309151
 50
78.463563963129999
 51
89.121572778316406
  0
ARC
  5
2A0A
  8
0
 10
98.501193928082927
 20
-3.5305431876040281
 30
0.0
 40
0.0700000052488142
 50
184.7293053203056
 51
268.99999834515592
  0
ARC
  5
2A0B
  8
0
 10
98.501193925970085
 20
2.8224054335832358
 30
0.0
 40
0.07
 50
91.000000000199634
 51
175.25472521430001
  0
ARC
  5
2A0C
  8
0
 10
95.483541760870096
 20
-3.1040688796167628
 30
0.0
 40
0.06
 50
180.0
 51
270.0000000175001
  0
ARC
  5
2A0D
  8
0
 10
98.306041760870102
 20
0.6159311203832364
 30
0.0
 40
0.03
 50
90.0
 51
180.00003430789999
  0
ARC
  5
2A0E
  8
0
 10
98.306041760870102
 20
-1.324068879616763
 30
0.0
 40
0.03
 50
179.99996569209989
 51
270.0
  0
ARC
  5
2A0F
  8
0
 10
95.443541760870104
 20
0.4144311203832364
 30
0.0
 40
0.02
 50
90.0
 51
180.0
  0
ARC
  5
2A10
  8
0
 10
95.933541760870085
 20
-3.1440688796167628
 30
0.0
 40
0.02
 50
270.0
 51
0.0
  0
ARC
  5
2A11
  8
0
 10
95.933541760870085
 20
0.4144311203832364
 30
0.0
 40
0.02
 50
0.0
 51
88.237078261099725
  0
ARC
  5
2A12
  8
0
 10
98.326041760870083
 20
-1.344068879616763
 30
0.0
 40
0.01
 50
270.0
 51
359.9999901772
  0
ARC
  5
2A13
  8
0
 10
98.326041760870083
 20
0.6359311203832363
 30
0.0
 40
0.01
 50
0.0000098228
 51
90.0
  0
ARC
  5
2A14
  8
0
 10
87.948436064770092
 20
8.4359632150999992
 30
0.0
 40
0.04
 50
145.99999993669999
 51
234.9999947259
  0
ARC
  5
2A15
  8
0
 10
90.133492051555265
 20
6.8308494712446963
 30
0.0
 40
0.0149999999461961
 50
234.99999992521691
 51
315.00000018939051
  0
ARC
  5
2A16
  8
0
 10
90.073110076940168
 20
6.8731293850790456
 30
0.0
 40
0.0149999999656721
 50
154.9999999605927
 51
235.00000004773
  0
ARC
  5
2A17
  8
0
 10
92.328756779270094
 20
5.3688296309999997
 30
0.0
 40
0.04
 50
235.00000527409961
 51
324.00000006329981
  0
ARC
  5
2A18
  8
0
 10
93.068228305570102
 20
6.3525988380999987
 30
0.0
 40
0.02
 50
324.00000192469992
 51
54.999891418799677
  0
ARC
  5
2A19
  8
0
 10
91.500774232504213
 20
8.8473232874559073
 30
0.0
 40
0.5283858226689461
 50
94.456477687175109
 51
104.7673890127672
  0
ARC
  5
2A1A
  8
0
 10
91.500716710370085
 20
8.8477057976999998
 30
0.0
 40
0.5280000000000001
 50
5.228184731904415
 51
15.546520200900041
  0
ARC
  5
2A1B
  8
0
 10
92.076837777970098
 20
9.0079821697999982
 30
0.0
 40
0.07
 50
77.54031046349985
 51
195.54652020090001
  0
ARC
  5
2A1C
  8
0
 10
92.269863272770095
 20
8.6765967278999998
 30
0.0
 40
0.04
 50
326.00000247490021
 51
55.000127120900153
  0
ARC
  5
2A1D
  8
0
 10
91.707413000670101
 20
9.6049120934999994
 30
0.0
 40
0.23
 50
145.0000000000002
 51
212.45968953649989
  0
ARC
  5
2A1E
  8
0
 10
92.141563584070084
 20
9.3009165823000011
 30
0.0
 40
0.23
 50
257.54031046349979
 51
325.00000000000023
  0
ARC
  5
2A1F
  8
0
 10
92.512489387970106
 20
9.1682090267999996
 30
0.0
 40
0.11
 50
84.977482648800233
 51
146.49498635399999
  0
ARC
  5
2A20
  8
0
 10
91.455844593370102
 20
9.9080796771999982
 30
0.0
 40
0.11
 50
323.5050136459999
 51
25.02251735120015
  0
ARC
  5
2A21
  8
0
 10
91.454282224270102
 20
9.4439002613999996
 30
0.0
 40
0.07
 50
274.45347979910031
 51
32.45968953649993
  0
ARC
  5
2A22
  8
0
 10
91.076863162570092
 20
9.5119443982000007
 30
0.0
 40
0.04
 50
54.999872879099982
 51
143.9999975252
  0
ARC
  5
2A23
  8
0
 10
92.721062137170094
 20
9.5619060771999997
 30
0.0
 40
0.03
 50
235.00049079089959
 51
325.00000000000023
  0
ARC
  5
2A24
  8
0
 10
91.754462724970097
 20
10.238726272099999
 30
0.0
 40
0.03
 50
145.0000000000002
 51
234.9995092090999
  0
ARC
  5
2A25
  8
0
 10
88.61996257187009
 20
9.4673080367999987
 30
0.0
 40
0.02
 50
55.000108581200273
 51
145.99999807529991
  0
ARC
  5
2A26
  8
0
 10
94.371041760870085
 20
9.8959229050999991
 30
0.0
 40
2.375
 50
90.0
 51
145.0000000000002
  0
ARC
  5
2A27
  8
0
 10
94.371041760870085
 20
9.8959229050999991
 30
0.0
 40
1.125
 50
90.0
 51
145.0000000000002
  0
ARC
  5
2A28
  8
0
 10
99.219041760870113
 20
10.305922905099999
 30
0.0
 40
0.03
 50
180.0
 51
270.0
  0
ARC
  5
2A29
  8
0
 10
99.471041760870094
 20
10.305922905099999
 30
0.0
 40
0.03
 50
270.0
 51
0.0
  0
ARC
  5
2A2A
  8
0
 10
99.471041760870094
 20
12.985922905100001
 30
0.0
 40
0.03
 50
0.0
 51
90.0
  0
ARC
  5
2A2B
  8
0
 10
99.219041760870113
 20
12.985922905100001
 30
0.0
 40
0.03
 50
90.0
 51
180.0
  0
ARC
  5
2A2C
  8
0
 10
126.1660459313668
 20
-1.2340687066766951
 30
0.0
 40
27.83000417049676
 50
180.0000001605612
 51
184.74523425234801
  0
ARC
  5
2A2D
  8
0
 10
126.1660418193962
 20
0.5259311167618022
 30
0.0
 40
27.830000058526089
 50
175.25472521688661
 51
179.9999999925443
  0
ARC
  5
2A42
  8
0
 10
91.869857484573004
 20
9.5026978701864717
 30
0.0
 40
0.1239047162050191
 50
149.37193633490071
 51
209.76851976559379
  0
ARC
  5
2A43
  8
0
 10
92.012247545988359
 20
9.5777058303052307
 30
0.0
 40
0.2848007846175244
 50
208.64457122169421
 51
259.82975917065409
  0
ARC
  5
2A44
  8
0
 10
91.989480868408251
 20
9.4184917186120227
 30
0.0
 40
0.1241993921209198
 50
257.1974389910169
 51
320.80707180266501
  0
ARC
  5
2A45
  8
0
 10
90.036279485524361
 20
9.4063138801132276
 30
0.0
 40
0.7424652788468622
 50
281.4305228604735
 51
328.8909301530972
  0
ARC
  5
2A46
  8
0
 10
90.063317972785597
 20
9.3911191932721358
 30
0.0
 40
0.7225954280425955
 50
237.33587561876479
 51
279.56756071344842
  0
ARC
  5
2A47
  8
0
 10
91.672390881351177
 20
12.40563611185072
 30
0.0
 40
4.1377759077794156
 50
235.2439535984752
 51
241.1102317777553
  0
ARC
  5
2A48
  8
0
 10
92.557953920660808
 20
7.6506581202038522
 30
0.0
 40
0.7745372674239053
 50
141.8798756581256
 51
182.4991925274025
  0
ARC
  5
2A49
  8
0
 10
92.467097081409435
 20
7.6775595722827603
 30
0.0
 40
0.6856337378198886
 50
185.07705077658539
 51
221.72175231319349
  0
ARC
  5
2A4A
  8
0
 10
94.118225350918223
 20
9.3259293538645043
 30
0.0
 40
3.0178898889677721
 50
224.21856586203839
 51
235.24035956025179
  0
LINE
  5
2A4B
  8
0
 10
90.434075058092731
 20
6.6171992049821666
 30
0.0
 11
90.444434574570792
 21
6.6394152596090938
 31
0.0
  0
LINE
  5
2A4C
  8
0
 10
90.518658251192704
 20
6.5579734155821683
 30
0.0
 11
90.535991350523048
 21
6.575306514912489
 31
0.0
  0
LINE
  5
2A4D
  8
0
 10
90.43906602839273
 20
6.5985726503821676
 30
0.0
 11
90.49944800294746
 21
6.5562927366178316
 31
0.0
  0
ARC
  5
2A4E
  8
0
 10
90.508051649477906
 20
6.5685800172268642
 30
0.0
 40
0.0149999999461961
 50
234.99999992521691
 51
315.00000018939051
  0
ARC
  5
2A4F
  8
0
 10
90.447669674862794
 20
6.6108599310612144
 30
0.0
 40
0.0149999999656721
 50
154.9999999605927
 51
235.00000004773
  0
LINE
  5
2A50
  8
0
 10
90.535580116842709
 20
6.5566033608321659
 30
0.0
 11
90.542256042802137
 21
6.5709199301540711
 31
0.0
  0
LINE
  5
2A51
  8
0
 10
90.620163309942726
 20
6.4973775714321667
 30
0.0
 11
90.631333183361889
 21
6.5085474448513301
 31
0.0
  0
LINE
  5
2A52
  8
0
 10
90.540571087142723
 20
6.5379768062321668
 30
0.0
 11
90.600953061697467
 21
6.4956968924678309
 31
0.0
  0
ARC
  5
2A53
  8
0
 10
90.609556708227899
 20
6.5079841730768626
 30
0.0
 40
0.0149999999461961
 50
234.99999992521691
 51
315.00000018939051
  0
ARC
  5
2A54
  8
0
 10
90.549174733612801
 20
6.5502640869112128
 30
0.0
 40
0.0149999999656721
 50
154.99999984845601
 51
235.00000004773
  0
LINE
  5
2A55
  8
0
 10
90.673806225192706
 20
6.449337634682168
 30
0.0
 11
90.691139324503141
 21
6.4666707339925757
 31
0.0
  0
LINE
  5
2A56
  8
0
 10
90.594214002392732
 20
6.4899368694821682
 30
0.0
 11
90.654595976947448
 21
6.4476569557178323
 31
0.0
  0
ARC
  5
2A57
  8
0
 10
90.663199623477894
 20
6.4599442363268631
 30
0.0
 40
0.0149999999461961
 50
234.99999992521691
 51
315.00000018939051
  0
ARC
  5
2A58
  8
0
 10
90.602817648862796
 20
6.5022241501612141
 30
0.0
 40
0.0149999999656721
 50
170.3250642789512
 51
235.00000004773
  0
LINE
  5
2A59
  8
0
 10
90.76729816059273
 20
6.3955363040821673
 30
0.0
 11
90.773557994094375
 21
6.4089605602549877
 31
0.0
  0
LINE
  5
2A5A
  8
0
 10
90.851881353692704
 20
6.3363105146821681
 30
0.0
 11
90.862355039030149
 21
6.3467842000195898
 31
0.0
  0
LINE
  5
2A5B
  8
0
 10
90.77228913089273
 20
6.3769097494821683
 30
0.0
 11
90.83267110544746
 21
6.3346298357178323
 31
0.0
  0
ARC
  5
2A5C
  8
0
 10
90.841274751977906
 20
6.3469171163268641
 30
0.0
 40
0.0149999999461961
 50
234.99999992521691
 51
315.00000018939051
  0
ARC
  5
2A5D
  8
0
 10
90.780892777362794
 20
6.3891970301612142
 30
0.0
 40
0.0149999999656721
 50
154.9999999605927
 51
235.00000004773
  0
LINE
  5
2A5E
  8
0
 10
90.888673019404223
 20
6.3128427872147261
 30
0.0
 11
90.894126418985152
 21
6.3245376402755467
 31
0.0
  0
LINE
  5
2A5F
  8
0
 10
90.973256212504239
 20
6.253616997814726
 30
0.0
 11
90.982380607139902
 21
6.2627413924503861
 31
0.0
  0
LINE
  5
2A60
  8
0
 10
90.893663989704237
 20
6.2942162326147271
 30
0.0
 11
90.954045964258995
 21
6.2519363188503911
 31
0.0
  0
ARC
  5
2A61
  8
0
 10
90.962649610789427
 20
6.264223599459422
 30
0.0
 40
0.0149999999461961
 50
234.99999992521691
 51
315.00000018939051
  0
ARC
  5
2A62
  8
0
 10
90.902267636174315
 20
6.306503513293773
 30
0.0
 40
0.0149999999656721
 50
154.9999999605927
 51
235.00000004773
  0
LINE
  5
2A63
  8
0
 10
90.229521689092721
 20
6.7698009364821674
 30
0.0
 11
90.236586702469225
 21
6.784951906456925
 31
0.0
  0
LINE
  5
2A64
  8
0
 10
90.314104882192723
 20
6.7105751470821682
 30
0.0
 11
90.325925760016034
 21
6.7223960249054677
 31
0.0
  0
LINE
  5
2A65
  8
0
 10
90.23451265939272
 20
6.7511743818821683
 30
0.0
 11
90.294894633947465
 21
6.7088944681178324
 31
0.0
  0
ARC
  5
2A66
  8
0
 10
90.30349828047791
 20
6.7211817487268641
 30
0.0
 40
0.0149999999461961
 50
234.99999992521691
 51
315.00000018939051
  0
ARC
  5
2A67
  8
0
 10
90.243116305862799
 20
6.7634616625612143
 30
0.0
 40
0.0149999999656721
 50
154.9999999605927
 51
235.00000004773
  0
LINE
  5
2A68
  8
0
 10
89.899654311292721
 20
7.0006875697821673
 30
0.0
 11
89.906750607685183
 21
7.015905626400694
 31
0.0
  0
LINE
  5
2A69
  8
0
 10
89.984237504392723
 20
6.9414617803821681
 30
0.0
 11
89.996110723618685
 21
6.9533349996081242
 31
0.0
  0
LINE
  5
2A6A
  8
0
 10
89.904645281592721
 20
6.9820610151821683
 30
0.0
 11
89.965027256147465
 21
6.9397811014178323
 31
0.0
  0
ARC
  5
2A6B
  8
0
 10
89.973630902677911
 20
6.9520683820268641
 30
0.0
 40
0.0149999999461961
 50
234.99999992521691
 51
315.00000018939051
  0
ARC
  5
2A6C
  8
0
 10
89.913248928062799
 20
6.9943482958612142
 30
0.0
 40
0.0149999999656721
 50
154.9999999605927
 51
235.00000004773
  0
LINE
  5
2A6D
  8
0
 10
89.684958814142732
 20
7.1417360460321664
 30
0.0
 11
89.695318330608288
 21
7.1639521006322751
 31
0.0
  0
LINE
  5
2A6E
  8
0
 10
89.769542007242705
 20
7.0825102566321672
 30
0.0
 11
89.786875106552131
 21
7.0998433559415677
 31
0.0
  0
LINE
  5
2A6F
  8
0
 10
89.689949784442732
 20
7.1231094914321673
 30
0.0
 11
89.750331758997461
 21
7.0808295776678314
 31
0.0
  0
ARC
  5
2A70
  8
0
 10
89.758935405527907
 20
7.0931168582768631
 30
0.0
 40
0.0149999999461961
 50
234.99999992521691
 51
315.00000018939051
  0
ARC
  5
2A71
  8
0
 10
89.698553430912796
 20
7.1353967721112133
 30
0.0
 40
0.0149999999656721
 50
154.9999999605927
 51
235.00000004773
  0
LINE
  5
2A72
  8
0
 10
89.529807888192735
 20
7.2503738938821671
 30
0.0
 11
89.540167404679906
 21
7.272589948528644
 31
0.0
  0
LINE
  5
2A73
  8
0
 10
89.614391081292723
 20
7.191148104482167
 30
0.0
 11
89.631724180638301
 21
7.208481203827743
 31
0.0
  0
LINE
  5
2A74
  8
0
 10
89.534798858492721
 20
7.2317473392821681
 30
0.0
 11
89.595180833047465
 21
7.1894674255178321
 31
0.0
  0
ARC
  5
2A75
  8
0
 10
89.603784479577925
 20
7.201754706126863
 30
0.0
 40
0.0149999999461961
 50
234.99999992521691
 51
315.00000018939051
  0
ARC
  5
2A76
  8
0
 10
89.543402504962785
 20
7.244034619961214
 30
0.0
 40
0.0149999999656721
 50
154.9999999605927
 51
235.00000004773
  0
LINE
  5
2A77
  8
0
 10
89.365274143299203
 20
7.3770956806412693
 30
0.0
 11
89.371586146926788
 21
7.3906318160094351
 31
0.0
  0
LINE
  5
2A78
  8
0
 10
89.449857336399205
 20
7.3178698912412701
 30
0.0
 11
89.46041831055723
 21
7.3284308653992909
 31
0.0
  0
LINE
  5
2A79
  8
0
 10
89.370265113599203
 20
7.3584691260412702
 30
0.0
 11
89.430647088153947
 21
7.3161892122769343
 31
0.0
  0
ARC
  5
2A7A
  8
0
 10
89.439250734684407
 20
7.328476492885966
 30
0.0
 40
0.0149999999461961
 50
234.99999992521691
 51
315.00000018939051
  0
ARC
  5
2A7B
  8
0
 10
89.378868760069281
 20
7.3707564067203162
 30
0.0
 40
0.0149999999656721
 50
154.9999999605927
 51
235.00000004773
  0
LINE
  5
2A7C
  8
0
 10
89.239329701032759
 20
7.468656832242563
 30
0.0
 11
89.244455679209864
 21
7.4796495278418504
 31
0.0
  0
LINE
  5
2A7D
  8
0
 10
89.323912894132761
 20
7.4094310428425638
 30
0.0
 11
89.332489461296944
 21
7.418007610006744
 31
0.0
  0
LINE
  5
2A7E
  8
0
 10
89.244320671332758
 20
7.450030277642564
 30
0.0
 11
89.304702645887502
 21
7.4077503638782281
 31
0.0
  0
ARC
  5
2A7F
  8
0
 10
89.313306292417934
 20
7.4200376444872598
 30
0.0
 40
0.0149999999461961
 50
234.99999992521691
 51
315.00000018939051
  0
ARC
  5
2A80
  8
0
 10
89.252924317802837
 20
7.4623175583216099
 30
0.0
 40
0.0149999999656721
 50
154.9999999605927
 51
235.00000004773
  0
ATTDEF
  5
321A
  8
DEFPOINTS
 10
99.50953261273969
 20
-0.352382857158549
 30
0.0
 40
0.001
  1
K-TS949-4
  3

  2
MODELNUMBER
 70
     0
1001
AcDbAttr
1070
     0
1070
     1
  0
ATTDEF
  5
321B
  8
DEFPOINTS
 10
99.50953261273969
 20
-0.3540495238252141
 30
0.0
 40
0.001
  1
STILLNESS
  3

  2
TRADENAME
 70
     0
1001
AcDbAttr
1070
     0
1070
     1
  0
ATTDEF
  5
321C
  8
DEFPOINTS
 10
99.50953261273969
 20
-0.3557161904918793
 30
0.0
 40
0.001
  1
SHOWER VALVE TRIM
  3

  2
PRODUCT
 70
     0
1001
AcDbAttr
1070
     0
1070
     1
  0
ATTDEF
  5
321D
  8
DEFPOINTS
 10
99.50953261273969
 20
-0.3573828571585444
 30
0.0
 40
0.001
  1
PREMIUM MATERIALS
  3

  2
MATERIAL
 70
     0
1001
AcDbAttr
1070
     0
1070
     1
  0
ENDSEC
  0
EOF
