  0
SECTION
  2
HEADER
  9
$ACADVER
  1
AC1009
  9
$INSBASE
 10
71.772795599095303
 20
30.695679479799988
 30
0.0
  9
$EXTMIN
 10
68.517875814303736
 20
19.103073783599999
 30
0.0
  9
$EXTMAX
 10
75.027715383886871
 20
30.702119957093931
 30
0.0
  9
$LIMMIN
 10
0.0
 20
0.0
  9
$LIMMAX
 10
11.692913385800001
 20
8.2677165353999982
  9
$ORTHOMODE
 70
     0
  9
$REGENMODE
 70
     1
  9
$FILLMODE
 70
     1
  9
$QTEXTMODE
 70
     0
  9
$MIRRTEXT
 70
     0
  9
$DRAGMODE
 70
     2
  9
$LTSCALE
 40
0.6431102362
  9
$OSMODE
 70
  3071
  9
$ATTMODE
 70
     1
  9
$TEXTSIZE
 40
0.2
  9
$TRACEWID
 40
0.05
  9
$TEXTSTYLE
  7
STANDARD
  9
$CLAYER
  8
0
  9
$CELTYPE
  6
BYLAYER
  9
$CECOLOR
 62
   256
  9
$DIMSCALE
 40
1.0
  9
$DIMASZ
 40
0.1875
  9
$DIMEXO
 40
0.0625
  9
$DIMDLI
 40
0.4443307087
  9
$DIMRND
 40
0.0
  9
$DIMDLE
 40
0.0
  9
$DIMEXE
 40
0.125
  9
$DIMTP
 40
0.01
  9
$DIMTM
 40
0.01
  9
$DIMTXT
 40
1.0
  9
$DIMCEN
 40
0.1052362205
  9
$DIMTSZ
 40
0.0
  9
$DIMTOL
 70
     1
  9
$DIMLIM
 70
     0
  9
$DIMTIH
 70
     1
  9
$DIMTOH
 70
     1
  9
$DIMSE1
 70
     0
  9
$DIMSE2
 70
     0
  9
$DIMTAD
 70
     0
  9
$DIMZIN
 70
     0
  9
$DIMBLK
  1

  9
$DIMASO
 70
     1
  9
$DIMSHO
 70
     1
  9
$DIMPOST
  1
\X
  9
$DIMAPOST
  1

  9
$DIMALT
 70
     1
  9
$DIMALTD
 70
     2
  9
$DIMALTF
 40
25.399999999999999
  9
$DIMLFAC
 40
1.0
  9
$DIMTOFL
 70
     0
  9
$DIMTVP
 40
0.0
  9
$DIMTIX
 70
     0
  9
$DIMSOXD
 70
     0
  9
$DIMSAH
 70
     0
  9
$DIMBLK1
  1

  9
$DIMBLK2
  1

  9
$DIMSTYLE
  2
STANDARD
  9
$DIMCLRD
 70
     0
  9
$DIMCLRE
 70
     0
  9
$DIMCLRT
 70
     0
  9
$DIMTFAC
 40
1.0
  9
$DIMGAP
 40
0.09
  9
$LUNITS
 70
     2
  9
$LUPREC
 70
     4
  9
$SKETCHINC
 40
0.1
  9
$FILLETRAD
 40
0.0
  9
$AUNITS
 70
     0
  9
$AUPREC
 70
     0
  9
$MENU
  1
.
  9
$ELEVATION
 40
0.0
  9
$PELEVATION
 40
0.0
  9
$THICKNESS
 40
0.0
  9
$LIMCHECK
 70
     0
  9
$BLIPMODE
 70
     0
  9
$CHAMFERA
 40
0.0
  9
$CHAMFERB
 40
0.0
  9
$SKPOLY
 70
     0
  9
$TDCREATE
 40
2458299.3972474081
  9
$TDUPDATE
 40
2458299.7098128009
  9
$TDINDWG
 40
0.200478206
  9
$TDUSRTIMER
 40
0.200478206
  9
$USRTIMER
 70
     1
  9
$ANGBASE
 50
0.0
  9
$ANGDIR
 70
     0
  9
$PDMODE
 70
     0
  9
$PDSIZE
 40
0.3125
  9
$PLINEWID
 40
0.0
  9
$COORDS
 70
     1
  9
$SPLFRAME
 70
     0
  9
$SPLINETYPE
 70
     6
  9
$SPLINESEGS
 70
     8
  9
$ATTDIA
 70
     1
  9
$ATTREQ
 70
     1
  9
$HANDLING
 70
     1
  9
$HANDSEED
  5
3321
  9
$SURFTAB1
 70
     6
  9
$SURFTAB2
 70
     6
  9
$SURFTYPE
 70
     6
  9
$SURFU
 70
     6
  9
$SURFV
 70
     6
  9
$UCSNAME
  2

  9
$UCSORG
 10
0.0
 20
0.0
 30
0.0
  9
$UCSXDIR
 10
1.0
 20
0.0
 30
0.0
  9
$UCSYDIR
 10
0.0
 20
1.0
 30
0.0
  9
$PUCSNAME
  2

  9
$PUCSORG
 10
0.0
 20
0.0
 30
0.0
  9
$PUCSXDIR
 10
1.0
 20
0.0
 30
0.0
  9
$PUCSYDIR
 10
0.0
 20
1.0
 30
0.0
  9
$USERI1
 70
     0
  9
$USERI2
 70
     0
  9
$USERI3
 70
     0
  9
$USERI4
 70
     0
  9
$USERI5
 70
     0
  9
$USERR1
 40
0.0
  9
$USERR2
 40
0.0
  9
$USERR3
 40
0.0
  9
$USERR4
 40
0.0
  9
$USERR5
 40
0.0
  9
$WORLDVIEW
 70
     1
  9
$SHADEDGE
 70
     3
  9
$SHADEDIF
 70
    70
  9
$TILEMODE
 70
     1
  9
$MAXACTVP
 70
    64
  9
$PLIMCHECK
 70
     0
  9
$PEXTMIN
 10
1.0000000000000000E+020
 20
1.0000000000000000E+020
 30
1.0000000000000000E+020
  9
$PEXTMAX
 10
-1.0000000000000000E+020
 20
-1.0000000000000000E+020
 30
-1.0000000000000000E+020
  9
$PLIMMIN
 10
0.0
 20
0.0
  9
$PLIMMAX
 10
12.0
 20
9.0
  9
$UNITMODE
 70
     0
  9
$VISRETAIN
 70
     1
  9
$PLINEGEN
 70
     0
  9
$PSLTSCALE
 70
     1
  0
ENDSEC
  0
SECTION
  2
TABLES
  0
TABLE
  2
VPORT
 70
     1
  0
VPORT
  2
*ACTIVE
 70
     0
 10
0.0
 20
0.0
 11
1.0
 21
1.0
 12
0.0
 22
0.0
 13
0.0
 23
0.0
 14
1.0
 24
1.0
 15
0.0
 25
0.0
 16
-0.0000000000000142
 26
0.0
 36
37.435160489071293
 17
71.772795599095303
 27
24.902596870346969
 37
0.0
 40
13.30097302292409
 41
2.1006711409395971
 42
50.0
 43
0.0
 44
0.0
 50
0.0
 51
0.0
 71
     0
 72
   100
 73
     1
 74
     1
 75
     0
 76
     0
 77
     0
 78
     0
  0
ENDTAB
  0
TABLE
  2
LTYPE
 70
     2
  0
LTYPE
  2
CONTINUOUS
 70
     0
  3
Solid line
 72
    65
 73
     0
 40
0.0
  0
LTYPE
  2
PHANTOM2
 70
     0
  3
___ _ _ ___ _ _ ___ _ _ ___ _ _
 72
    65
 73
     6
 40
1.25
 49
0.625
 49
-0.125
 49
0.125
 49
-0.125
 49
0.125
 49
-0.125
  0
ENDTAB
  0
TABLE
  2
LAYER
 70
     2
  0
LAYER
  2
0
 70
     0
 62
   255
  6
CONTINUOUS
  0
LAYER
  2
DEFPOINTS
 70
     0
 62
     7
  6
CONTINUOUS
  0
ENDTAB
  0
TABLE
  2
STYLE
 70
     1
  0
STYLE
  2
STANDARD
 70
     0
 40
0.0
 41
0.8
 50
0.0
 71
     0
 42
0.2
  3
txt
  4

  0
ENDTAB
  0
TABLE
  2
VIEW
 70
     0
  0
ENDTAB
  0
TABLE
  2
UCS
 70
     0
  0
ENDTAB
  0
TABLE
  2
APPID
 70
     9
  0
APPID
  2
ACAD
 70
     0
  0
APPID
  2
ACAD_MLEADERVER
 70
     0
  0
APPID
  2
ACAD_EXEMPT_FROM_CAD_STANDARDS
 70
     0
  0
APPID
  2
ACAD_NAV_VCDISPLAY
 70
     0
  0
APPID
  2
ACAD_DSTYLE_DIMJAG
 70
     0
  0
APPID
  2
ACAD_DSTYLE_DIMTALN
 70
     0
  0
APPID
  2
ACAECLAYERSTANDARD
 70
     0
  0
APPID
  2
ACCMTRANSPARENCY
 70
     0
  0
APPID
  2
ACDBATTR
 70
     0
  0
ENDTAB
  0
TABLE
  2
DIMSTYLE
 70
     1
  0
DIMSTYLE
  2
STANDARD
 70
     0
  3

  4

  5

  6

  7

 40
1.0
 41
0.1875
 42
0.0625
 43
0.38
 44
0.125
 45
0.0
 46
0.0
 47
0.01
 48
0.01
140
0.15625
141
0.09
142
0.0
143
25.399999999999999
144
1.0
145
0.0
146
1.0
147
0.09
 71
     1
 72
     0
 73
     1
 74
     1
 75
     0
 76
     0
 77
     0
 78
     4
170
     0
171
     2
172
     0
173
     0
174
     0
175
     0
176
     0
177
     0
178
     0
  0
ENDTAB
  0
ENDSEC
  0
SECTION
  2
BLOCKS
  0
BLOCK
  8
0
  2
$MODEL_SPACE
 70
     0
 10
0.0
 20
0.0
 30
0.0
  3
$MODEL_SPACE
  1

  0
ENDBLK
  5
21
  8
0
  0
BLOCK
 67
     1
  8
0
  2
$PAPER_SPACE
 70
     0
 10
0.0
 20
0.0
 30
0.0
  3
$PAPER_SPACE
  1

  0
ENDBLK
  5
1D
 67
     1
  8
0
  0
ENDSEC
  0
SECTION
  2
ENTITIES
  0
LINE
  5
29CC
  8
0
 10
69.059972245970101
 20
21.2774198183
 30
0.0
 11
69.038503097270095
 21
21.982680501000001
 31
0.0
  0
LINE
  5
29CD
  8
0
 10
71.152814954770093
 20
23.24380828582726
 30
0.0
 11
71.152814954770093
 21
23.667153892104299
 31
0.0
  0
LINE
  5
29CE
  8
0
 10
71.004869837070089
 20
22.884087788399999
 30
0.0
 11
70.993444111470097
 21
22.5122091275
 31
0.0
  0
LINE
  5
29CF
  8
0
 10
72.392814954770103
 20
23.2402520437
 30
0.0
 11
72.392814954770103
 21
23.66597440003741
 31
0.0
  0
LINE
  5
29D0
  8
0
 10
72.561314954770097
 20
27.1281794798
 30
0.0
 11
72.561314954770097
 21
26.638179479800002
 31
0.0
  0
ARC
  5
2A06
  8
0
 10
72.541314954770101
 20
26.638179479800002
 30
0.0
 40
0.02
 50
270.0
 51
0.0
  0
ARC
  5
2A07
  8
0
 10
72.541314954770101
 20
27.1281794798
 30
0.0
 40
0.02
 50
0.0
 51
90.0
  0
LINE
  5
2DA9
  8
0
 10
74.934001152895306
 20
30.695679479799988
 30
0.0
 11
75.000783260770092
 21
30.417198256999999
 31
0.0
  0
LINE
  5
2DAA
  8
0
 10
75.019278606670085
 20
29.694609976500001
 30
0.0
 11
75.027715383886871
 21
30.169227073399998
 31
0.0
  0
LINE
  5
2DAB
  8
0
 10
72.772814954770084
 20
29.500679479799999
 30
0.0
 11
72.772814954770084
 21
29.520679479799998
 31
0.0
  0
LINE
  5
2DAC
  8
0
 10
72.496732900700863
 20
27.188179479799992
 30
0.0
 11
72.49802095267593
 21
27.1481794798
 31
0.0
  0
LINE
  5
2DAD
  8
0
 10
72.561314954770097
 20
27.188179479799999
 30
0.0
 11
72.561314954770097
 21
29.470679479800001
 31
0.0
  0
LINE
  5
2DAE
  8
0
 10
70.98432442120685
 20
27.128794758482648
 30
0.0
 11
70.984314954770099
 21
26.638179479800002
 31
0.0
  0
LINE
  5
2DAF
  8
0
 10
70.984314954770099
 20
27.188179479799999
 30
0.0
 11
70.984314954770099
 21
29.470679479800001
 31
0.0
  0
LINE
  5
2DB0
  8
0
 10
70.772814954770084
 20
29.500679479799999
 30
0.0
 11
70.772814954770084
 21
29.520679479799998
 31
0.0
  0
LINE
  5
2DB1
  8
0
 10
71.049505476256911
 20
27.188179479799992
 30
0.0
 11
71.048001322540586
 21
27.1481794798
 31
0.0
  0
LINE
  5
2DB2
  8
0
 10
68.526351302970085
 20
29.694609976500001
 30
0.0
 11
68.517875814303736
 21
30.169227073399998
 31
0.0
  0
LINE
  5
2DB3
  8
0
 10
68.611590045295301
 20
30.695679479799988
 30
0.0
 11
68.54484664877009
 21
30.417198256999999
 31
0.0
  0
LINE
  5
2DB4
  8
0
 10
71.00431495453887
 20
26.618179479799991
 30
0.0
 11
71.147814954770098
 21
26.618179479799998
 31
0.0
  0
LINE
  5
2DB5
  8
0
 10
72.397814954770098
 20
26.618179479799991
 30
0.0
 11
72.541314954770101
 21
26.618179479799991
 31
0.0
  0
LINE
  5
2DB6
  8
0
 10
72.541314954770101
 20
27.1481794798
 30
0.0
 11
72.397814954770098
 21
27.1481794798
 31
0.0
  0
LINE
  5
2DB7
  8
0
 10
71.147814954770098
 20
27.1481794798
 30
0.0
 11
71.004314954770095
 21
27.1481794798
 31
0.0
  0
LINE
  5
2DB8
  8
0
 10
70.984314954770099
 20
27.188179479799999
 30
0.0
 11
71.147814954770098
 21
27.188179479799999
 31
0.0
  0
LINE
  5
2DB9
  8
0
 10
72.397814954770098
 20
27.188179479799999
 30
0.0
 11
72.561314954770097
 21
27.188179479799999
 31
0.0
  0
LINE
  5
2DBA
  8
0
 10
72.742814936806525
 20
29.470679479800001
 30
0.0
 11
72.397814954770098
 21
29.470679479800001
 31
0.0
  0
LINE
  5
2DBB
  8
0
 10
71.147814954770098
 20
29.470679479800008
 30
0.0
 11
70.802814972733671
 21
29.470679479800001
 31
0.0
  0
LINE
  5
2DBC
  8
0
 10
72.762814956470095
 20
29.5306794798
 30
0.0
 11
72.397814954770098
 21
29.5306794798
 31
0.0
  0
LINE
  5
2DBD
  8
0
 10
71.147814954770098
 20
29.530679479799989
 30
0.0
 11
70.782814953070101
 21
29.5306794798
 31
0.0
  0
LINE
  5
2DBE
  8
0
 10
68.590549820175113
 20
29.62607158191571
 30
0.0
 11
71.147814954770098
 21
29.626070933238651
 31
0.0
  0
LINE
  5
2DBF
  8
0
 10
72.397814954770098
 20
29.62607061616308
 30
0.0
 11
74.955060640853034
 21
29.62606996749096
 31
0.0
  0
LINE
  5
2DC0
  8
0
 10
75.027715383886871
 20
30.169227073399998
 30
0.0
 11
72.397814954770098
 21
30.169227073399998
 31
0.0
  0
LINE
  5
2DC1
  8
0
 10
71.147814954770098
 20
30.169227073399998
 30
0.0
 11
68.517875814303736
 21
30.169227073399998
 31
0.0
  0
LINE
  5
2DC2
  8
0
 10
74.934001152895306
 20
30.695679479799988
 30
0.0
 11
68.611590045295301
 21
30.695679479799988
 31
0.0
  0
ARC
  5
2DC3
  8
0
 10
73.632596294300498
 20
30.143151481334669
 30
0.0
 40
1.3953627523443031
 50
1.070766967821196
 51
11.326415915575931
  0
ARC
  5
2DC4
  8
0
 10
69.874550138597755
 20
30.147119376460129
 30
0.0
 40
1.35685444041084
 50
168.51871796703631
 51
179.06641881163949
  0
ARC
  5
2DC5
  8
0
 10
74.949289262757347
 20
29.69583164701282
 30
0.0
 40
0.0700000052488142
 50
274.72930532030563
 51
358.99999834515592
  0
ARC
  5
2DC6
  8
0
 10
68.596340641570094
 20
29.6958316449
 30
0.0
 40
0.07
 50
181.0000000002
 51
265.25472521429981
  0
ARC
  5
2DC7
  8
0
 10
70.802814954770085
 20
29.500679479799999
 30
0.0
 40
0.03
 50
180.0
 51
270.00003430790019
  0
ARC
  5
2DC8
  8
0
 10
72.742814954770097
 20
29.500679479799999
 30
0.0
 40
0.03
 50
269.99996569209981
 51
0.0
  0
ARC
  5
2DC9
  8
0
 10
71.004314954770095
 20
26.638179479800002
 30
0.0
 40
0.02
 50
180.0
 51
270.0
  0
ARC
  5
2DCA
  8
0
 10
71.004314954770095
 20
27.1281794798
 30
0.0
 40
0.02
 50
90.0
 51
178.2370782610997
  0
ARC
  5
2DCB
  8
0
 10
72.762814954770093
 20
29.520679479799998
 30
0.0
 40
0.01
 50
0.0
 51
89.999990177199749
  0
ARC
  5
2DCC
  8
0
 10
70.782814954770089
 20
29.520679479799998
 30
0.0
 40
0.01
 50
90.000009822799413
 51
180.0
  0
ARC
  5
2DCD
  8
0
 10
72.652814781830031
 20
57.36068365029675
 30
0.0
 40
27.83000417049676
 50
270.0000001605614
 51
274.74523425234838
  0
ARC
  5
2DCE
  8
0
 10
70.89281495839154
 20
57.360679538326082
 30
0.0
 40
27.830000058526089
 50
265.25472521688641
 51
269.99999999254419
  0
LINE
  5
2DCF
  8
0
 10
70.4327955990953
 20
30.383679479800001
 30
0.0
 11
73.112795599095307
 21
30.383679479800001
 31
0.0
  0
LINE
  5
2DD0
  8
0
 10
73.142795599095308
 20
30.665679479800009
 30
0.0
 11
73.142795599095308
 21
30.413679479799999
 31
0.0
  0
LINE
  5
2DD1
  8
0
 10
72.397814954770098
 20
23.70198103264245
 30
0.0
 11
72.397814954770098
 21
30.383679479800001
 31
0.0
  0
LINE
  5
2DD2
  8
0
 10
71.147814954770098
 20
23.701981074999999
 30
0.0
 11
71.147814954770098
 21
30.383679479800008
 31
0.0
  0
LINE
  5
2DD3
  8
0
 10
70.402795599095299
 20
30.665679479800009
 30
0.0
 11
70.402795599095299
 21
30.413679479799999
 31
0.0
  0
ARC
  5
2DD4
  8
0
 10
73.112795599095307
 20
30.413679479799999
 30
0.0
 40
0.03
 50
270.0
 51
0.0
  0
ARC
  5
2DD5
  8
0
 10
73.112795599095307
 20
30.665679479800009
 30
0.0
 40
0.03
 50
0.0
 51
90.0
  0
ARC
  5
2DD6
  8
0
 10
70.4327955990953
 20
30.665679479800009
 30
0.0
 40
0.03
 50
90.0
 51
180.0
  0
ARC
  5
2DD7
  8
0
 10
70.4327955990953
 20
30.413679479799999
 30
0.0
 40
0.03
 50
180.0
 51
270.0
  0
ARC
  5
2DD8
  8
0
 10
71.711907225683234
 20
21.22934591237097
 30
0.0
 40
3.0468364771262459
 50
100.6693132860931
 51
120.5537086405791
  0
ARC
  5
2DD9
  8
0
 10
71.441335221217386
 20
21.683972463812509
 30
0.0
 40
2.5177900151609101
 50
120.510553684746
 51
140.69787108869761
  0
ARC
  5
2DDA
  8
0
 10
71.083246142802224
 20
21.977454646991859
 30
0.0
 40
2.0548002951249571
 50
140.705799535625
 51
165.13334065809869
  0
ARC
  5
2DDB
  8
0
 10
71.467014147983505
 20
21.973746082274541
 30
0.0
 40
2.428527485385974
 50
167.37237458447379
 51
179.7892115105968
  0
ARC
  5
2DDC
  8
0
 10
70.997169251587167
 20
21.34846600573254
 30
0.0
 40
1.938499367892714
 50
182.10036619625939
 51
216.076758921948
  0
ARC
  5
2DDD
  8
0
 10
71.53630897144177
 20
21.778926177588371
 30
0.0
 40
2.6279082512047842
 50
216.7401870537409
 51
243.73082266819259
  0
ARC
  5
2DDE
  8
0
 10
71.892367813054022
 20
22.853710320370951
 30
0.0
 40
3.752542064429413
 50
246.11952310512569
 51
268.17399966212929
  0
ARC
  5
2DDF
  8
0
 10
70.950469281791072
 20
22.048777338096041
 30
0.0
 40
1.913108330081122
 50
181.9799315936479
 51
209.68198696209609
  0
ARC
  5
2DE0
  8
0
 10
71.314247545781981
 20
22.26394704295334
 30
0.0
 40
2.335713068733785
 50
209.8487676110511
 51
234.3448767316446
  0
ARC
  5
2DE1
  8
0
 10
71.660850961185261
 20
22.734694885637872
 30
0.0
 40
2.9202604770750491
 50
234.20306260712249
 51
254.4201743774785
  0
ARC
  5
2DE2
  8
0
 10
71.769717956465684
 20
23.08419631441172
 30
0.0
 40
3.2861782159128232
 50
254.228426807723
 51
270.05365988930549
  0
ARC
  5
2DE3
  8
0
 10
71.736857373921964
 20
21.196868839700251
 30
0.0
 40
2.9831216956202251
 50
101.3883720398135
 51
112.7952277157318
  0
ARC
  5
2DE4
  8
0
 10
71.598625588886776
 20
21.50942242977796
 30
0.0
 40
2.6414312220195271
 50
112.6577084490698
 51
129.44398691552561
  0
ARC
  5
2DE5
  8
0
 10
71.239755968372208
 20
21.919526387336941
 30
0.0
 40
2.096797339803524
 50
128.99073781396831
 51
158.37861450974839
  0
ARC
  5
2DE6
  8
0
 10
70.938970848132755
 20
22.051739778047839
 30
0.0
 40
1.7685001380403349
 50
158.76998360620979
 51
186.70756161725589
  0
ARC
  5
2DE7
  8
0
 10
71.100280040074736
 20
22.09727013727294
 30
0.0
 40
1.934203104906808
 50
187.4889515392822
 51
223.25658542257989
  0
ARC
  5
2DE8
  8
0
 10
71.593788527091448
 20
22.562688671479162
 30
0.0
 40
2.612557432080806
 50
223.2735985524358
 51
253.86070001344001
  0
ARC
  5
2DE9
  8
0
 10
71.769212403768691
 20
23.039741998471349
 30
0.0
 40
3.1197792646867848
 50
253.20133397357901
 51
270.06580658344859
  0
ARC
  5
2DEA
  8
0
 10
71.729738950872701
 20
21.186210968703652
 30
0.0
 40
3.0310638425986198
 50
101.06874948548651
 51
114.9001766823523
  0
ARC
  5
2DEB
  8
0
 10
71.502683088452585
 20
21.630886920323299
 30
0.0
 40
2.5321936992515739
 50
114.4765146781796
 51
140.40658419688171
  0
ARC
  5
2DEC
  8
0
 10
71.037409381426883
 20
22.013577660642891
 30
0.0
 40
1.9297583917195711
 50
140.35791795450911
 51
179.25309580946649
  0
ARC
  5
2DED
  8
0
 10
70.929349333348611
 20
22.039313921389311
 30
0.0
 40
1.8215344711616051
 50
180.01826773805919
 51
209.35008726741549
  0
ARC
  5
2DEE
  8
0
 10
71.335556263749922
 20
22.26951507202925
 30
0.0
 40
2.2884335193385179
 50
209.38896115432519
 51
235.28231059793239
  0
ARC
  5
2DEF
  8
0
 10
71.704609237747604
 20
22.80568733668742
 30
0.0
 40
2.939338753622931
 50
235.3216498282016
 51
260.9771247811567
  0
ARC
  5
2DF0
  8
0
 10
71.772156028837429
 20
23.098496351278531
 30
0.0
 40
3.239184492961269
 50
260.60938050457997
 51
270.01131293286772
  0
ARC
  5
2DF1
  8
0
 10
71.769338539353484
 20
22.781774516132572
 30
0.0
 40
0.9151759780463933
 50
245.7826243391734
 51
270.21643422527671
  0
ARC
  5
2DF2
  8
0
 10
71.667036481974534
 20
22.58397353499852
 30
0.0
 40
0.6929247813675793
 50
203.80480251761239
 51
246.78824369028669
  0
ARC
  5
2DF3
  8
0
 10
71.531569959898746
 20
22.507015134215099
 30
0.0
 40
0.5381509140689931
 50
179.44699803209909
 51
202.1294023349152
  0
ARC
  5
2DF4
  8
0
 10
71.572779825747929
 20
22.860802451263059
 30
0.0
 40
0.5683871586917181
 50
137.63534306088721
 51
177.65208450858489
  0
ARC
  5
2DF5
  8
0
 10
71.683686761998004
 20
22.931332380941338
 30
0.0
 40
0.6804590135290819
 50
183.981276251982
 51
229.79601136296321
  0
ARC
  5
2DF6
  8
0
 10
71.763530745840086
 20
23.10619849250747
 30
0.0
 40
0.8671077874682303
 50
233.2272568295125
 51
270.61220427030662
  0
ARC
  5
2DF7
  8
0
 10
71.723100655519715
 20
23.766800046327191
 30
0.0
 40
0.5789258471781148
 50
186.42855570697009
 51
274.92432479845962
  0
ARC
  5
2DF8
  8
0
 10
71.825560506296441
 20
23.763095702006861
 30
0.0
 40
0.5755086068942719
 50
264.73950859975417
 51
353.904126911258
  0
ARC
  5
2DF9
  8
0
 10
71.752352253587972
 20
23.317328629653499
 30
0.0
 40
0.6040283218775127
 50
186.9911895153846
 51
271.93954672432358
  0
ARC
  5
2DFA
  8
0
 10
71.790167221098073
 20
23.32149781603783
 30
0.0
 40
0.6080996352760116
 50
268.36300502012739
 51
352.32197946535592
  0
ARC
  5
2DFB
  8
0
 10
71.774225574879281
 20
23.554595081883679
 30
0.0
 40
0.8044384168720521
 50
236.91350218489271
 51
301.9046890180756
  0
LINE
  5
2DFC
  8
0
 10
71.582289365970084
 20
22.773389821885281
 30
0.0
 11
71.582289365970084
 21
22.949100443696459
 31
0.0
  0
LINE
  5
2DFD
  8
0
 10
71.963340543570084
 20
22.77270206160745
 30
0.0
 11
71.963340543570084
 21
22.949100443799999
 31
0.0
  0
LINE
  5
2DFE
  8
0
 10
71.582289365970084
 20
22.949100443799999
 30
0.0
 11
71.582289365970084
 21
22.861153791624279
 31
0.0
  0
ARC
  5
2DFF
  8
0
 10
71.772814954770098
 20
23.675381735503908
 30
0.0
 40
0.7508558547861773
 50
255.30079280596209
 51
284.69920719403791
  0
ARC
  5
2E00
  8
0
 10
71.610060446452465
 20
22.881436677850822
 30
0.0
 40
0.3614675365025481
 50
166.06331435780999
 51
229.5730900834734
  0
ARC
  5
2E01
  8
0
 10
71.764013085346477
 20
23.043014363915731
 30
0.0
 40
0.5844326266970386
 50
228.35592704537251
 51
270.8610400743317
  0
ARC
  5
2E02
  8
0
 10
71.766982096677481
 20
23.189993045755632
 30
0.0
 40
0.517974808536388
 50
223.6699697917596
 51
270.64307402735358
  0
LINE
  5
2E03
  8
0
 10
74.485618952220506
 20
21.2774198183
 30
0.0
 11
74.507088100920512
 21
21.982680501000001
 31
0.0
  0
LINE
  5
2E04
  8
0
 10
72.540721361120518
 20
22.884087788399999
 30
0.0
 11
72.55214708672051
 21
22.5122091275
 31
0.0
  0
ARC
  5
2E05
  8
0
 10
71.833683972507373
 20
21.22934591237097
 30
0.0
 40
3.0468364771262459
 50
59.446291359420933
 51
79.330686713906871
  0
ARC
  5
2E06
  8
0
 10
72.104255976973221
 20
21.683972463812509
 30
0.0
 40
2.5177900151609101
 50
39.302128911302368
 51
59.489446315253943
  0
ARC
  5
2E07
  8
0
 10
72.462345055388397
 20
21.977454646991859
 30
0.0
 40
2.0548002951249571
 50
14.866659341901229
 51
39.29420046437496
  0
ARC
  5
2E08
  8
0
 10
70.064299559874414
 20
21.747124904388279
 30
0.0
 40
4.4490287096787338
 50
3.0349669332261469
 51
9.8034469717028916
  0
ARC
  5
2E09
  8
0
 10
72.54842194660344
 20
21.34846600573254
 30
0.0
 40
1.938499367892714
 50
323.923241078052
 51
357.89963380374058
  0
ARC
  5
2E0A
  8
0
 10
72.009282226748837
 20
21.778926177588371
 30
0.0
 40
2.6279082512047842
 50
296.26917733180733
 51
323.2598129462591
  0
ARC
  5
2E0B
  8
0
 10
71.653223385136585
 20
22.853710320370951
 30
0.0
 40
3.752542064429413
 50
271.8260003378706
 51
293.88047689487428
  0
ARC
  5
2E0C
  8
0
 10
72.595121916399535
 20
22.048777338096041
 30
0.0
 40
1.913108330081122
 50
330.31801303790388
 51
358.0200684063521
  0
ARC
  5
2E0D
  8
0
 10
72.231343652408626
 20
22.26394704295334
 30
0.0
 40
2.335713068733785
 50
305.6551232683554
 51
330.15123238894893
  0
ARC
  5
2E0E
  8
0
 10
71.884740237005346
 20
22.734694885637872
 30
0.0
 40
2.9202604770750491
 50
285.57982562252153
 51
305.7969373928774
  0
ARC
  5
2E0F
  8
0
 10
71.775873241724923
 20
23.08419631441172
 30
0.0
 40
3.2861782159128232
 50
269.94634011069451
 51
285.771573192277
  0
ARC
  5
2E10
  8
0
 10
71.808733824268643
 20
21.196868839700251
 30
0.0
 40
2.9831216956202251
 50
67.204772284268174
 51
78.611627960186411
  0
ARC
  5
2E11
  8
0
 10
71.946965609303831
 20
21.50942242977796
 30
0.0
 40
2.6414312220195271
 50
50.556013084474408
 51
67.342291550930156
  0
ARC
  5
2E12
  8
0
 10
72.305835229818399
 20
21.919526387336941
 30
0.0
 40
2.096797339803524
 50
21.621385490251608
 51
51.009262186031627
  0
ARC
  5
2E13
  8
0
 10
72.606620350057852
 20
22.051739778047839
 30
0.0
 40
1.7685001380403349
 50
353.29243838274408
 51
21.230016393790141
  0
ARC
  5
2E14
  8
0
 10
72.445311158115871
 20
22.09727013727294
 30
0.0
 40
1.934203104906808
 50
316.74341457742008
 51
352.5110484607178
  0
ARC
  5
2E15
  8
0
 10
71.951802671099159
 20
22.562688671479162
 30
0.0
 40
2.612557432080806
 50
286.13929998655999
 51
316.72640144756423
  0
ARC
  5
2E16
  8
0
 10
71.776378794421916
 20
23.039741998471349
 30
0.0
 40
3.1197792646867848
 50
269.93419341655141
 51
286.79866602642102
  0
ARC
  5
2E17
  8
0
 10
71.815852247317906
 20
21.186210968703652
 30
0.0
 40
3.0310638425986198
 50
65.099823317647633
 51
78.931250514513451
  0
ARC
  5
2E18
  8
0
 10
72.042908109738022
 20
21.630886920323299
 30
0.0
 40
2.5321936992515739
 50
39.593415803118319
 51
65.523485321820402
  0
ARC
  5
2E19
  8
0
 10
72.508181816763724
 20
22.013577660642891
 30
0.0
 40
1.9297583917195711
 50
0.7469041905334798
 51
39.642082045490902
  0
ARC
  5
2E1A
  8
0
 10
72.616241864841996
 20
22.039313921389311
 30
0.0
 40
1.8215344711616051
 50
330.64991273258448
 51
359.98173226194092
  0
ARC
  5
2E1B
  8
0
 10
72.210034934440685
 20
22.26951507202925
 30
0.0
 40
2.2884335193385179
 50
304.71768940206761
 51
330.61103884567473
  0
ARC
  5
2E1C
  8
0
 10
71.840981960442988
 20
22.80568733668742
 30
0.0
 40
2.939338753622931
 50
279.0228752188433
 51
304.6783501717976
  0
ARC
  5
2E1D
  8
0
 10
71.773435169353178
 20
23.098496351278531
 30
0.0
 40
3.239184492961269
 50
269.98868706713228
 51
279.39061949542003
  0
ARC
  5
2E1E
  8
0
 10
71.776252658837109
 20
22.781774516132572
 30
0.0
 40
0.9151759780463933
 50
269.78356577472329
 51
294.21737566082658
  0
ARC
  5
2E1F
  8
0
 10
71.878554716216058
 20
22.58397353499852
 30
0.0
 40
0.6929247813675793
 50
293.21175630971328
 51
336.19519748238758
  0
ARC
  5
2E20
  8
0
 10
72.014021238291861
 20
22.507015134215099
 30
0.0
 40
0.5381509140689931
 50
337.87059766508469
 51
0.553001967900832
  0
ARC
  5
2E21
  8
0
 10
71.972811372442663
 20
22.860802451263059
 30
0.0
 40
0.5683871586917181
 50
2.3479154914150491
 51
42.36465693911282
  0
ARC
  5
2E22
  8
0
 10
71.861904436192603
 20
22.931332380941338
 30
0.0
 40
0.6804590135290819
 50
310.2039886370369
 51
356.01872374801798
  0
ARC
  5
2E23
  8
0
 10
71.782060452350521
 20
23.10619849250747
 30
0.0
 40
0.8671077874682303
 50
269.38779572969338
 51
306.7727431704875
  0
ARC
  5
2E24
  8
0
 10
71.935530751738128
 20
22.881436677850822
 30
0.0
 40
0.3614675365025481
 50
310.42690991652597
 51
14.11331466626376
  0
ARC
  5
2E25
  8
0
 10
71.78157811284413
 20
23.043014363915731
 30
0.0
 40
0.5844326266970386
 50
269.13895992566819
 51
311.64407295462752
  0
ARC
  5
2E26
  8
0
 10
71.778609101513126
 20
23.189993045755632
 30
0.0
 40
0.517974808536388
 50
269.35692597264631
 51
317.04946003866849
  0
ATTDEF
  5
31CE
  8
DEFPOINTS
 10
71.769575333206646
 20
30.70111995709393
 30
0.0
 40
0.001
  1
K-TS949-4
  3

  2
MODELNUMBER
 70
     0
1001
ACDBATTR
1070
     0
1070
     1
  0
ATTDEF
  5
31CF
  8
DEFPOINTS
 10
71.769575333206646
 20
30.699453290427261
 30
0.0
 40
0.001
  1
STILLNESS
  3

  2
TRADENAME
 70
     0
1001
ACDBATTR
1070
     0
1070
     1
  0
ATTDEF
  5
31D0
  8
DEFPOINTS
 10
71.769575333206646
 20
30.697786623760599
 30
0.0
 40
0.001
  1
SHOWER VALVE TRIM
  3

  2
PRODUCT
 70
     0
1001
ACDBATTR
1070
     0
1070
     1
  0
ATTDEF
  5
31D1
  8
DEFPOINTS
 10
71.769575333206646
 20
30.696119957093931
 30
0.0
 40
0.001
  1
PREMIUM MATERIALS
  3

  2
MATERIAL
 70
     0
1001
ACDBATTR
1070
     0
1070
     1
  0
ENDSEC
  0
EOF
