  0
SECTION
  2
HEADER
  9
$ACADVER
  1
AC1009
  9
$INSBASE
 10
111.68331418183909
 20
-0.2537335160787073
 30
0.0
  9
$EXTMIN
 10
108.4283943970475
 20
-3.5086533008702752
 30
0.0
  9
$EXTMAX
 10
114.9382339666307
 20
13.116238912983221
 30
0.0
  9
$LIMMIN
 10
0.0
 20
0.0
  9
$LIMMAX
 10
11.692913385800001
 20
8.2677165353999982
  9
$ORTHOMODE
 70
     0
  9
$REGENMODE
 70
     1
  9
$FILLMODE
 70
     1
  9
$QTEXTMODE
 70
     0
  9
$MIRRTEXT
 70
     0
  9
$DRAGMODE
 70
     2
  9
$LTSCALE
 40
0.6431102362
  9
$OSMODE
 70
  3071
  9
$ATTMODE
 70
     1
  9
$TEXTSIZE
 40
0.2
  9
$TRACEWID
 40
0.05
  9
$TEXTSTYLE
  7
STANDARD
  9
$CLAYER
  8
0
  9
$CELTYPE
  6
BYLAYER
  9
$CECOLOR
 62
   256
  9
$DIMSCALE
 40
1.0
  9
$DIMASZ
 40
0.1875
  9
$DIMEXO
 40
0.0625
  9
$DIMDLI
 40
0.4443307087
  9
$DIMRND
 40
0.0
  9
$DIMDLE
 40
0.0
  9
$DIMEXE
 40
0.125
  9
$DIMTP
 40
0.01
  9
$DIMTM
 40
0.01
  9
$DIMTXT
 40
1.0
  9
$DIMCEN
 40
0.1052362205
  9
$DIMTSZ
 40
0.0
  9
$DIMTOL
 70
     1
  9
$DIMLIM
 70
     0
  9
$DIMTIH
 70
     1
  9
$DIMTOH
 70
     1
  9
$DIMSE1
 70
     0
  9
$DIMSE2
 70
     0
  9
$DIMTAD
 70
     0
  9
$DIMZIN
 70
     0
  9
$DIMBLK
  1

  9
$DIMASO
 70
     1
  9
$DIMSHO
 70
     1
  9
$DIMPOST
  1
\X
  9
$DIMAPOST
  1

  9
$DIMALT
 70
     1
  9
$DIMALTD
 70
     2
  9
$DIMALTF
 40
25.399999999999999
  9
$DIMLFAC
 40
1.0
  9
$DIMTOFL
 70
     0
  9
$DIMTVP
 40
0.0
  9
$DIMTIX
 70
     0
  9
$DIMSOXD
 70
     0
  9
$DIMSAH
 70
     0
  9
$DIMBLK1
  1

  9
$DIMBLK2
  1

  9
$DIMSTYLE
  2
STANDARD
  9
$DIMCLRD
 70
     0
  9
$DIMCLRE
 70
     0
  9
$DIMCLRT
 70
     0
  9
$DIMTFAC
 40
1.0
  9
$DIMGAP
 40
0.09
  9
$LUNITS
 70
     2
  9
$LUPREC
 70
     4
  9
$SKETCHINC
 40
0.1
  9
$FILLETRAD
 40
0.0
  9
$AUNITS
 70
     0
  9
$AUPREC
 70
     0
  9
$MENU
  1
.
  9
$ELEVATION
 40
0.0
  9
$PELEVATION
 40
0.0
  9
$THICKNESS
 40
0.0
  9
$LIMCHECK
 70
     0
  9
$BLIPMODE
 70
     0
  9
$CHAMFERA
 40
0.0
  9
$CHAMFERB
 40
0.0
  9
$SKPOLY
 70
     0
  9
$TDCREATE
 40
2458299.3972474081
  9
$TDUPDATE
 40
2458299.638312188
  9
$TDINDWG
 40
0.2038843519
  9
$TDUSRTIMER
 40
0.2038843519
  9
$USRTIMER
 70
     1
  9
$ANGBASE
 50
0.0
  9
$ANGDIR
 70
     0
  9
$PDMODE
 70
     0
  9
$PDSIZE
 40
0.3125
  9
$PLINEWID
 40
0.0
  9
$COORDS
 70
     1
  9
$SPLFRAME
 70
     0
  9
$SPLINETYPE
 70
     6
  9
$SPLINESEGS
 70
     8
  9
$ATTDIA
 70
     1
  9
$ATTREQ
 70
     1
  9
$HANDLING
 70
     1
  9
$HANDSEED
  5
3B20
  9
$SURFTAB1
 70
     6
  9
$SURFTAB2
 70
     6
  9
$SURFTYPE
 70
     6
  9
$SURFU
 70
     6
  9
$SURFV
 70
     6
  9
$UCSNAME
  2

  9
$UCSORG
 10
0.0
 20
0.0
 30
0.0
  9
$UCSXDIR
 10
1.0
 20
0.0
 30
0.0
  9
$UCSYDIR
 10
0.0
 20
1.0
 30
0.0
  9
$PUCSNAME
  2

  9
$PUCSORG
 10
0.0
 20
0.0
 30
0.0
  9
$PUCSXDIR
 10
1.0
 20
0.0
 30
0.0
  9
$PUCSYDIR
 10
0.0
 20
1.0
 30
0.0
  9
$USERI1
 70
     0
  9
$USERI2
 70
     0
  9
$USERI3
 70
     0
  9
$USERI4
 70
     0
  9
$USERI5
 70
     0
  9
$USERR1
 40
0.0
  9
$USERR2
 40
0.0
  9
$USERR3
 40
0.0
  9
$USERR4
 40
0.0
  9
$USERR5
 40
0.0
  9
$WORLDVIEW
 70
     1
  9
$SHADEDGE
 70
     3
  9
$SHADEDIF
 70
    70
  9
$TILEMODE
 70
     1
  9
$MAXACTVP
 70
    64
  9
$PLIMCHECK
 70
     0
  9
$PEXTMIN
 10
1.0000000000000000E+020
 20
1.0000000000000000E+020
 30
1.0000000000000000E+020
  9
$PEXTMAX
 10
-1.0000000000000000E+020
 20
-1.0000000000000000E+020
 30
-1.0000000000000000E+020
  9
$PLIMMIN
 10
0.0
 20
0.0
  9
$PLIMMAX
 10
12.0
 20
9.0
  9
$UNITMODE
 70
     0
  9
$VISRETAIN
 70
     1
  9
$PLINEGEN
 70
     0
  9
$PSLTSCALE
 70
     1
  0
ENDSEC
  0
SECTION
  2
TABLES
  0
TABLE
  2
VPORT
 70
     1
  0
VPORT
  2
*ACTIVE
 70
     0
 10
0.0
 20
0.0
 11
1.0
 21
1.0
 12
0.0
 22
0.0
 13
0.0
 23
0.0
 14
1.0
 24
1.0
 15
0.0
 25
0.0
 16
-0.0000000000000142
 26
0.0
 36
50.249246677253133
 17
111.68331418183909
 27
4.803838770863007
 37
0.0
 40
17.853907015345161
 41
2.1006711409395971
 42
50.0
 43
0.0
 44
0.0
 50
0.0
 51
0.0
 71
     0
 72
   100
 73
     1
 74
     1
 75
     0
 76
     0
 77
     0
 78
     0
  0
ENDTAB
  0
TABLE
  2
LTYPE
 70
     2
  0
LTYPE
  2
CONTINUOUS
 70
     0
  3
Solid line
 72
    65
 73
     0
 40
0.0
  0
LTYPE
  2
PHANTOM2
 70
     0
  3
___ _ _ ___ _ _ ___ _ _ ___ _ _
 72
    65
 73
     6
 40
1.25
 49
0.625
 49
-0.125
 49
0.125
 49
-0.125
 49
0.125
 49
-0.125
  0
ENDTAB
  0
TABLE
  2
LAYER
 70
     2
  0
LAYER
  2
0
 70
     0
 62
   255
  6
CONTINUOUS
  0
LAYER
  2
DEFPOINTS
 70
     0
 62
     7
  6
CONTINUOUS
  0
ENDTAB
  0
TABLE
  2
STYLE
 70
     1
  0
STYLE
  2
STANDARD
 70
     0
 40
0.0
 41
0.8
 50
0.0
 71
     0
 42
0.2
  3
txt
  4

  0
ENDTAB
  0
TABLE
  2
VIEW
 70
     0
  0
ENDTAB
  0
TABLE
  2
UCS
 70
     0
  0
ENDTAB
  0
TABLE
  2
APPID
 70
     9
  0
APPID
  2
ACAD
 70
     0
  0
APPID
  2
ACAD_MLEADERVER
 70
     0
  0
APPID
  2
ACAD_EXEMPT_FROM_CAD_STANDARDS
 70
     0
  0
APPID
  2
ACAD_NAV_VCDISPLAY
 70
     0
  0
APPID
  2
ACAD_DSTYLE_DIMJAG
 70
     0
  0
APPID
  2
ACAD_DSTYLE_DIMTALN
 70
     0
  0
APPID
  2
ACAECLAYERSTANDARD
 70
     0
  0
APPID
  2
ACCMTRANSPARENCY
 70
     0
  0
APPID
  2
ACDBATTR
 70
     0
  0
ENDTAB
  0
TABLE
  2
DIMSTYLE
 70
     1
  0
DIMSTYLE
  2
STANDARD
 70
     0
  3

  4

  5

  6

  7

 40
1.0
 41
0.1875
 42
0.0625
 43
0.38
 44
0.125
 45
0.0
 46
0.0
 47
0.01
 48
0.01
140
0.15625
141
0.09
142
0.0
143
25.399999999999999
144
1.0
145
0.0
146
1.0
147
0.09
 71
     1
 72
     0
 73
     1
 74
     1
 75
     0
 76
     0
 77
     0
 78
     4
170
     0
171
     2
172
     0
173
     0
174
     0
175
     0
176
     0
177
     0
178
     0
  0
ENDTAB
  0
ENDSEC
  0
SECTION
  2
BLOCKS
  0
BLOCK
  8
0
  2
$MODEL_SPACE
 70
     0
 10
0.0
 20
0.0
 30
0.0
  3
$MODEL_SPACE
  1

  0
ENDBLK
  5
21
  8
0
  0
BLOCK
 67
     1
  8
0
  2
$PAPER_SPACE
 70
     0
 10
0.0
 20
0.0
 30
0.0
  3
$PAPER_SPACE
  1

  0
ENDBLK
  5
1D
 67
     1
  8
0
  0
ENDSEC
  0
SECTION
  2
ENTITIES
  0
ATTDEF
  5
31A2
  8
DEFPOINTS
 10
111.6785230361353
 20
-0.2551449702951878
 30
0.0
 40
0.001
  1
K-TS949-4
  3

  2
MODELNUMBER
 70
     0
1001
ACDBATTR
1070
     0
1070
     1
  0
ATTDEF
  5
31A3
  8
DEFPOINTS
 10
111.6785230361353
 20
-0.2568116369618529
 30
0.0
 40
0.001
  1
STILLNESS
  3

  2
TRADENAME
 70
     0
1001
ACDBATTR
1070
     0
1070
     1
  0
ATTDEF
  5
31A4
  8
DEFPOINTS
 10
111.6785230361353
 20
-0.2584783036285181
 30
0.0
 40
0.001
  1
SHOWER VALVE TRIM
  3

  2
PRODUCT
 70
     0
1001
ACDBATTR
1070
     0
1070
     1
  0
ATTDEF
  5
31A5
  8
DEFPOINTS
 10
111.6785230361353
 20
-0.2601449702951832
 30
0.0
 40
0.001
  1
PREMIUM MATERIALS
  3

  2
MATERIAL
 70
     0
1001
ACDBATTR
1070
     0
1070
     1
  0
LINE
  5
364C
  8
0
 10
108.9698523596139
 20
6.9831167166464923
 30
0.0
 11
108.9490216800139
 21
7.9908090865464914
 31
0.0
  0
LINE
  5
364D
  8
0
 10
111.0583335375139
 20
11.74623891284649
 30
0.0
 11
111.0583335375139
 21
10.385633643246489
 31
0.0
  0
LINE
  5
364E
  8
0
 10
111.0633335375139
 20
9.7262162475464926
 30
0.0
 11
111.0633335375139
 21
10.385633643246489
 31
0.0
  0
LINE
  5
364F
  8
0
 10
111.4928079487139
 20
10.33904227984649
 30
0.0
 11
111.4928079487139
 21
10.06462634504649
 31
0.0
  0
LINE
  5
3650
  8
0
 10
111.8738591263139
 20
10.06462634504649
 30
0.0
 11
111.8738591263139
 21
10.33904227984649
 31
0.0
  0
LINE
  5
3651
  8
0
 10
112.30333353751389
 20
9.7262162475464926
 30
0.0
 11
112.30333353751389
 21
10.385633643246489
 31
0.0
  0
LINE
  5
3652
  8
0
 10
112.3083335375139
 20
11.74623891284649
 30
0.0
 11
112.3083335375139
 21
10.385633643246489
 31
0.0
  0
LINE
  5
3653
  8
0
 10
114.3968168601139
 20
6.9831167015464919
 30
0.0
 11
114.4176066836643
 21
7.9908090865464914
 31
0.0
  0
ARC
  5
3654
  8
0
 10
111.26702429711391
 20
10.385814991246489
 30
0.0
 40
0.2086908384
 50
180.0497888525999
 51
192.56739633563421
  0
ARC
  5
3655
  8
0
 10
111.6833335375139
 20
11.746238912918839
 30
0.0
 40
1.3700000000643879
 50
297.14245293686952
 51
242.85754706313159
  0
ARC
  5
3656
  8
0
 10
111.6833335375139
 20
11.74623891284649
 30
0.0
 40
0.6550000000000001
 50
342.59198238828452
 51
197.4080176117152
  0
ARC
  5
3657
  8
0
 10
111.6833335375139
 20
11.74623891284649
 30
0.0
 40
0.625
 50
0.0
 51
180.0
  0
ARC
  5
3658
  8
0
 10
112.0996428963139
 20
10.385814987346491
 30
0.0
 40
0.20869072
 50
347.43260008497032
 51
359.95021219019998
  0
LINE
  5
3659
  8
0
 10
111.7433141818391
 20
-3.0640255798787051
 30
0.0
 11
111.62331418183911
 21
-3.0640255798787051
 31
0.0
  0
LINE
  5
365A
  8
0
 10
111.6033141818391
 20
-3.0440255798787059
 30
0.0
 11
111.6033141818391
 21
-1.090897133978707
 31
0.0
  0
LINE
  5
365B
  8
0
 10
111.76331418183911
 20
-3.0440255571787058
 30
0.0
 11
111.76331418183911
 21
-1.090897133878707
 31
0.0
  0
ARC
  5
365C
  8
0
 10
111.7433141818391
 20
-3.0440255798787059
 30
0.0
 40
0.02
 50
270.0
 51
0.0000650822999592
  0
ARC
  5
365D
  8
0
 10
111.62331418183911
 20
-3.0440255798787059
 30
0.0
 40
0.02
 50
180.00000000049991
 51
269.99999999989979
  0
ARC
  5
365E
  8
0
 10
111.54331418183909
 20
-1.090897133878707
 30
0.0
 40
0.06
 50
0.0
 51
80.502936685300085
  0
ARC
  5
365F
  8
0
 10
111.82331418183909
 20
-1.090897133878707
 30
0.0
 40
0.06
 50
99.497063310899975
 51
179.9999999890999
  0
CIRCLE
  5
3660
  8
0
 10
111.68331418183909
 20
-0.2537335160787073
 30
0.0
 40
3.254919784791563
  0
ARC
  5
3661
  8
0
 10
111.68331418183909
 20
-0.2538631388063255
 30
0.0
 40
1.0001020514654191
 50
274.58809651027809
 51
265.41190348972191
  0
ARC
  5
3662
  8
0
 10
111.68331418183909
 20
-0.2539636919787078
 30
0.0
 40
0.8050000000000001
 50
276.63579654609919
 51
263.36420345390081
  0
ARC
  5
3663
  8
0
 10
111.68331418183909
 20
-0.2540266244787066
 30
0.0
 40
0.7885
 50
279.49706331399989
 51
260.50293668950042
  0
CIRCLE
  5
3664
  8
0
 10
111.68331418183909
 20
-0.2537335160787073
 30
0.0
 40
3.1822631338925231
  0
LINE
  5
3665
  8
0
 10
112.4864873123845
 20
-0.1997610871534583
 30
0.0
 11
112.5158335375139
 21
-0.1997610871534583
 31
0.0
  0
LINE
  5
3666
  8
0
 10
112.4865145555146
 20
-0.3077610871534624
 30
0.0
 11
112.5158335375139
 21
-0.3077610871534624
 31
0.0
  0
ARC
  5
3667
  8
0
 10
111.6833361469139
 20
-0.2537610871534603
 30
0.0
 40
0.8671499999999999
 50
357.20691570614741
 51
2.7930842938517788
  0
ARC
  5
3668
  8
0
 10
112.5158335375139
 20
-0.2537610871534603
 30
0.0
 40
0.054
 50
270.00000000029962
 51
89.999999999600234
  0
LINE
  5
3669
  8
0
 10
110.88014105129371
 20
-0.1997610871534583
 30
0.0
 11
110.8438335375139
 21
-0.1997610871534583
 31
0.0
  0
LINE
  5
366A
  8
0
 10
110.8801138081636
 20
-0.3077610871534624
 30
0.0
 11
110.8438335375139
 21
-0.3077610871534624
 31
0.0
  0
ARC
  5
366B
  8
0
 10
111.6763309281139
 20
-0.2537610871534603
 30
0.0
 40
0.8671499999999999
 50
177.20691570614821
 51
182.79308429385259
  0
ARC
  5
366C
  8
0
 10
110.8438335375139
 20
-0.2537610871534603
 30
0.0
 40
0.054
 50
90.00000000039978
 51
269.99999999969953
  0
ARC
  5
366D
  8
0
 10
110.1937276132643
 20
7.9302176593564928
 30
0.0
 40
1.2461798350630069
 50
121.6086175835548
 51
177.21308090696911
  0
ARC
  5
366E
  8
0
 10
111.3229096253072
 20
6.3947627325420662
 30
0.0
 40
3.149578355378448
 50
101.6566136007236
 51
124.4642810596451
  0
ARC
  5
366F
  8
0
 10
111.6746962865776
 20
5.023338221669337
 30
0.0
 40
4.5642939952440758
 50
89.89157615150954
 51
102.5032338246439
  0
ARC
  5
3670
  8
0
 10
111.68856977272929
 20
4.9706928697899668
 30
0.0
 40
4.6169341440611742
 50
79.407697103886704
 51
90.064981269677389
  0
ARC
  5
3671
  8
0
 10
111.9497427309558
 20
6.1420002951010551
 30
0.0
 40
3.4178280183042702
 50
59.840875933813713
 51
80.101964533833566
  0
ARC
  5
3672
  8
0
 10
112.7772462311538
 20
7.5527445259045223
 30
0.0
 40
1.782323628823735
 50
34.493459880610629
 51
60.057054725639858
  0
ARC
  5
3673
  8
0
 10
113.1322243948017
 20
7.9165466781689871
 30
0.0
 40
1.287525741031855
 50
3.3065632708365298
 51
30.091843058550861
  0
ARC
  5
3674
  8
0
 10
113.3040141695358
 20
7.0324191629932491
 30
0.0
 40
1.0939142805720541
 50
314.08814213294602
 51
357.41681754947649
  0
ARC
  5
3675
  8
0
 10
112.506871226697
 20
7.7743394923225111
 30
0.0
 40
2.1821651205976349
 50
294.99688676820148
 51
315.56818339423057
  0
ARC
  5
3676
  8
0
 10
111.9018949546351
 20
9.0092939084993517
 30
0.0
 40
3.557184885682521
 50
281.43151112976938
 51
295.42300491113622
  0
ARC
  5
3677
  8
0
 10
111.6085370655928
 20
10.774600220822981
 30
0.0
 40
5.3459775818980608
 50
270.80145358269328
 51
280.76337396766081
  0
ARC
  5
3678
  8
0
 10
111.7804947194619
 20
10.864194724197301
 30
0.0
 40
5.4359178266556096
 50
258.01888631423179
 51
268.97564101010897
  0
ARC
  5
3679
  8
0
 10
111.3578496309418
 20
8.6919369862437392
 30
0.0
 40
3.2234619208236679
 50
238.64500353057451
 51
257.35233864652179
  0
ARC
  5
367A
  8
0
 10
110.530587052768
 20
7.3692255458317533
 30
0.0
 40
1.6635620088552341
 50
210.2178890704451
 51
239.27152829058991
  0
ARC
  5
367B
  8
0
 10
109.96299569363219
 20
7.0119739856845227
 30
0.0
 40
0.9935624911807606
 50
181.66434651699609
 51
208.8888639193076
  0
ARC
  5
367C
  8
0
 10
109.99186200580159
 20
6.9834280235317401
 30
0.0
 40
1.0220096936001291
 50
140.99124818652339
 51
180.01745244790291
  0
ARC
  5
367D
  8
0
 10
110.9329858732078
 20
6.1473540019893562
 30
0.0
 40
2.2802873193249091
 50
107.9805087758193
 51
139.5515703513671
  0
ARC
  5
367E
  8
0
 10
111.6547317939708
 20
4.2462108910977854
 30
0.0
 40
4.3125307673895179
 50
89.620254956689919
 51
109.304253711559
  0
ARC
  5
367F
  8
0
 10
111.7016302727975
 20
4.1393136282138983
 30
0.0
 40
4.4193712664290494
 50
73.627437501638283
 51
90.237463125451484
  0
ARC
  5
3680
  8
0
 10
112.2015936672879
 20
5.7185632243432281
 30
0.0
 40
2.7634467165544692
 50
51.075730842569243
 51
74.343326677715382
  0
ARC
  5
3681
  8
0
 10
113.18629640457451
 20
6.9172122812077212
 30
0.0
 40
1.212313146798119
 50
3.1162802336998818
 51
51.688903276359483
  0
ARC
  5
3682
  8
0
 10
111.7117955734288
 20
9.4445725893555839
 30
0.0
 40
3.563555070399854
 50
269.54206378895771
 51
290.66348837384919
  0
ARC
  5
3683
  8
0
 10
112.4540245957247
 20
7.6723733289863993
 30
0.0
 40
1.6448986509070611
 50
288.25553104659832
 51
329.58939209468599
  0
ARC
  5
3684
  8
0
 10
113.1750346701717
 20
7.1837998177612397
 30
0.0
 40
0.7778188567091803
 50
333.74647499232481
 51
29.695935953476901
  0
ARC
  5
3685
  8
0
 10
112.2860512943181
 20
6.4980163351123501
 30
0.0
 40
1.8961560615639981
 50
34.394398758837127
 51
83.967490745327325
  0
ARC
  5
3686
  8
0
 10
111.68770606299979
 20
4.0784519423475478
 30
0.0
 40
4.3784832839595138
 50
79.503962621599683
 51
90.057471110544057
  0
ARC
  5
3687
  8
0
 10
111.67887350429351
 20
4.0817267739695282
 30
0.0
 40
4.3752085032406693
 50
89.941846857119188
 51
100.7347644107823
  0
ARC
  5
3688
  8
0
 10
111.179811116395
 20
6.2512881997700944
 30
0.0
 40
2.1523853326704838
 50
98.438996551704705
 51
134.0150184958905
  0
ARC
  5
3689
  8
0
 10
110.2917002862971
 20
7.1693851626590179
 30
0.0
 40
0.8750281085443766
 50
133.96558834091331
 51
186.5377845146175
  0
ARC
  5
368A
  8
0
 10
110.5643447942395
 20
7.3373665827462062
 30
0.0
 40
1.1729190381612979
 50
193.1886432525574
 51
241.63912441028961
  0
ARC
  5
368B
  8
0
 10
111.43483211761919
 20
8.6792530540518626
 30
0.0
 40
2.7702305030095769
 50
238.97883249269569
 51
258.85015665070011
  0
ARC
  5
368C
  8
0
 10
111.6772355951406
 20
9.6964850606552204
 30
0.0
 40
3.8153585645800132
 50
258.2326358190835
 51
270.09128303530917
  0
ARC
  5
368D
  8
0
 10
111.2744512855017
 20
6.1976778197009166
 30
0.0
 40
2.2209602098087591
 50
100.6516471189898
 51
134.8233858981022
  0
ARC
  5
368E
  8
0
 10
110.3252597429934
 20
7.185314939263292
 30
0.0
 40
0.8516478801322911
 50
136.36846656142879
 51
181.91016199562219
  0
ARC
  5
368F
  8
0
 10
110.3393248288895
 20
7.2326510401060453
 30
0.0
 40
0.8685469710471641
 50
185.00163872502571
 51
219.3191857358612
  0
ARC
  5
3690
  8
0
 10
111.0462676775379
 20
7.8732162009240163
 30
0.0
 40
1.8219676982043831
 50
220.8166187598556
 51
249.76568343932749
  0
ARC
  5
3691
  8
0
 10
111.6548134044139
 20
9.3975364040979432
 30
0.0
 40
3.4629646934349099
 50
249.04117506083199
 51
270.47155915220839
  0
ARC
  5
3692
  8
0
 10
111.6932043360692
 20
9.595734102097758
 30
0.0
 40
3.661058465257498
 50
269.84521831849122
 51
284.09987741226689
  0
ARC
  5
3693
  8
0
 10
111.98227608483251
 20
8.5289255086877844
 30
0.0
 40
2.5560504940039488
 50
283.64092408818459
 51
302.29166916776398
  0
ARC
  5
3694
  8
0
 10
112.8598987880047
 20
7.2784462328137556
 30
0.0
 40
1.032762580748646
 50
298.19131192794089
 51
358.54842668062241
  0
ARC
  5
3695
  8
0
 10
112.8904435349684
 20
7.1251347755277967
 30
0.0
 40
1.0099224610443891
 50
7.2327470905988642
 51
57.002916471554791
  0
ARC
  5
3696
  8
0
 10
111.99218378975181
 20
5.9249465982929008
 30
0.0
 40
2.5076919329707379
 50
54.723206945089373
 51
78.658822776083937
  0
ARC
  5
3697
  8
0
 10
111.7001725230629
 20
6.6277772910785373
 30
0.0
 40
0.5975866232709554
 50
56.899787746423883
 51
91.640052432576255
  0
ARC
  5
3698
  8
0
 10
111.9442878267126
 20
6.9767188141216137
 30
0.0
 40
0.1725240406210864
 50
299.41913392456172
 51
61.534602079479008
  0
ARC
  5
3699
  8
0
 10
111.7010107071833
 20
7.3210705281859632
 30
0.0
 40
0.5935105102171745
 50
268.29137564622721
 51
303.55090725097568
  0
ARC
  5
369A
  8
0
 10
111.6659661793649
 20
6.6277772910785373
 30
0.0
 40
0.5975866232709554
 50
88.35994756742376
 51
123.10021225357509
  0
ARC
  5
369B
  8
0
 10
111.42185087571519
 20
6.9767188141216137
 30
0.0
 40
0.1725240406210864
 50
118.4653979205209
 51
240.58086607543839
  0
ARC
  5
369C
  8
0
 10
111.66519447405931
 20
7.3212148244464004
 30
0.0
 40
0.5936675078691778
 50
236.45144243917261
 51
271.74903296162603
  0
ARC
  5
369D
  8
0
 10
111.6971339406042
 20
6.5697791344150387
 30
0.0
 40
0.6761186628303521
 50
61.345304503977289
 51
91.171198252575437
  0
ARC
  5
369E
  8
0
 10
111.9145558394665
 20
6.9479473917024519
 30
0.0
 40
0.2401920418615328
 50
9.6991072542082684
 51
63.600186155771929
  0
ARC
  5
369F
  8
0
 10
111.9662244154874
 20
6.9815257480158008
 30
0.0
 40
0.1852182962890095
 50
311.73605143184892
 51
2.131165006536281
  0
ARC
  5
36A0
  8
0
 10
111.7915989396249
 20
7.160057949638861
 30
0.0
 40
0.4348417203027535
 50
284.55658252247429
 51
313.24622819191251
  0
ARC
  5
36A1
  8
0
 10
111.68648227965051
 20
7.4713813123452582
 30
0.0
 40
0.7629530397834075
 50
269.76208344962339
 51
286.32132297154072
  0
ARC
  5
36A2
  8
0
 10
111.669494423074
 20
6.569779134415036
 30
0.0
 40
0.6761186628303547
 50
88.828801747424549
 51
118.6546954960227
  0
ARC
  5
36A3
  8
0
 10
111.4520725242116
 20
6.9479473917024519
 30
0.0
 40
0.2401920418615328
 50
116.39981384422801
 51
170.30089274579171
  0
ARC
  5
36A4
  8
0
 10
111.4004039481908
 20
6.9815257480158008
 30
0.0
 40
0.1852182962890095
 50
177.86883499346371
 51
228.26394856815119
  0
ARC
  5
36A5
  8
0
 10
111.5750294240533
 20
7.160057949638861
 30
0.0
 40
0.4348417203027535
 50
226.75377180808749
 51
255.44341747752571
  0
ARC
  5
36A6
  8
0
 10
111.6801460840277
 20
7.4713813123452582
 30
0.0
 40
0.7629530397834075
 50
253.6786770284593
 51
270.23791655037661
  0
ARC
  5
36A7
  8
0
 10
111.50876312284289
 20
8.0600201101716387
 30
0.0
 40
0.0501054059045031
 50
11.839027538334831
 51
165.80787623830659
  0
ARC
  5
36A8
  8
0
 10
111.5092179861583
 20
8.0821680229505102
 30
0.0
 40
0.0500132525109495
 50
191.37414745922709
 51
346.27275631741452
  0
ARC
  5
36A9
  8
0
 10
111.0861398590568
 20
8.1689209099754123
 30
0.0
 40
0.4818629735866355
 50
348.19004395092549
 51
1.225227072518863
  0
ARC
  5
36AA
  8
0
 10
111.9443353996658
 20
8.1549886039368822
 30
0.0
 40
0.4911581478054448
 50
176.86225090738051
 51
189.69159910943159
  0
ARC
  5
36AB
  8
0
 10
111.48280219350249
 20
8.1327710262776094
 30
0.0
 40
0.0645571795445358
 50
178.20016174447491
 51
249.4935455175827
  0
ARC
  5
36AC
  8
0
 10
111.4817810026063
 20
8.123750263681714
 30
0.0
 40
0.0644580654240128
 50
113.07635863351879
 51
170.13053918677059
  0
ARC
  5
36AD
  8
0
 10
111.5083049660976
 20
8.0745875207225986
 30
0.0
 40
0.1201928445460817
 50
62.154559223235943
 51
115.52347074174401
  0
ARC
  5
36AE
  8
0
 10
111.5397784137828
 20
8.1245380398966631
 30
0.0
 40
0.0614899104448313
 50
353.38372579287812
 51
66.349385122071325
  0
ARC
  5
36AF
  8
0
 10
111.5360673021804
 20
8.1333807690739093
 30
0.0
 40
0.0667205063782557
 50
289.01208491157439
 51
346.18896348924198
  0
CIRCLE
  5
36B0
  8
0
 10
111.5076106935298
 20
8.0619575540797186
 30
0.0
 40
0.013344801724938
  0
ARC
  5
36B1
  8
0
 10
111.8591262218326
 20
8.0598347421066308
 30
0.0
 40
0.0501054059045031
 50
11.839027538334831
 51
165.80787623830659
  0
ARC
  5
36B2
  8
0
 10
111.85958108514789
 20
8.0819826548855076
 30
0.0
 40
0.0500132525109495
 50
191.37414745922709
 51
346.27275631741452
  0
ARC
  5
36B3
  8
0
 10
111.4365029580465
 20
8.1687355419104044
 30
0.0
 40
0.4818629735866355
 50
348.19004395092549
 51
1.225227072518863
  0
ARC
  5
36B4
  8
0
 10
112.29469849865541
 20
8.1548032358718743
 30
0.0
 40
0.4911581478054448
 50
176.86225090738051
 51
189.69159910943159
  0
ARC
  5
36B5
  8
0
 10
111.8331652924922
 20
8.1325856582126015
 30
0.0
 40
0.0645571795445358
 50
178.20016174447491
 51
249.4935455175827
  0
ARC
  5
36B6
  8
0
 10
111.832144101596
 20
8.1235648956167061
 30
0.0
 40
0.0644580654240128
 50
113.07635863351879
 51
170.13053918677059
  0
ARC
  5
36B7
  8
0
 10
111.8586680650872
 20
8.0744021526575906
 30
0.0
 40
0.1201928445460817
 50
62.154559223235943
 51
115.52347074174401
  0
ARC
  5
36B8
  8
0
 10
111.8901415127724
 20
8.1243526718316588
 30
0.0
 40
0.0614899104448313
 50
353.38372579287812
 51
66.349385122071325
  0
ARC
  5
36B9
  8
0
 10
111.88643040117
 20
8.1331954010089014
 30
0.0
 40
0.0667205063782557
 50
289.01208491157439
 51
346.18896348924198
  0
CIRCLE
  5
36BA
  8
0
 10
111.8579737925194
 20
8.0617721860147142
 30
0.0
 40
0.013344801724938
  0
ARC
  5
36BB
  8
0
 10
112.200190315973
 20
8.0208503584723587
 30
0.0
 40
0.0501054059045031
 50
11.839027538334831
 51
165.80787623830659
  0
ARC
  5
36BC
  8
0
 10
112.2006451792884
 20
8.042998271251232
 30
0.0
 40
0.0500132525109495
 50
191.37414745922709
 51
346.27275631741452
  0
ARC
  5
36BD
  8
0
 10
111.7775670521869
 20
8.1297511582761288
 30
0.0
 40
0.4818629735866355
 50
348.19004395092549
 51
1.225227072518863
  0
ARC
  5
36BE
  8
0
 10
112.6357625927959
 20
8.1158188522376022
 30
0.0
 40
0.4911581478054448
 50
176.86225090738051
 51
189.69159910943159
  0
ARC
  5
36BF
  8
0
 10
112.1742293866327
 20
8.0936012745783241
 30
0.0
 40
0.0645571795445358
 50
178.20016174447491
 51
249.4935455175827
  0
ARC
  5
36C0
  8
0
 10
112.17320819573651
 20
8.0845805119824306
 30
0.0
 40
0.0644580654240128
 50
113.07635863351879
 51
170.13053918677059
  0
ARC
  5
36C1
  8
0
 10
112.19973215922769
 20
8.0354177690233186
 30
0.0
 40
0.1201928445460817
 50
62.154559223235943
 51
115.52347074174401
  0
ARC
  5
36C2
  8
0
 10
112.23120560691289
 20
8.0853682881973832
 30
0.0
 40
0.0614899104448313
 50
353.38372579287812
 51
66.349385122071325
  0
ARC
  5
36C3
  8
0
 10
112.22749449531049
 20
8.0942110173746258
 30
0.0
 40
0.0667205063782557
 50
289.01208491157439
 51
346.18896348924198
  0
CIRCLE
  5
36C4
  8
0
 10
112.19903788665989
 20
8.0227878023804351
 30
0.0
 40
0.013344801724938
  0
ARC
  5
36C5
  8
0
 10
112.5248268974201
 20
7.9436574842986722
 30
0.0
 40
0.0501054059045031
 50
11.839027538334831
 51
165.80787623830659
  0
ARC
  5
36C6
  8
0
 10
112.5252817607354
 20
7.9658053970775446
 30
0.0
 40
0.0500132525109495
 50
191.37414745922709
 51
346.27275631741452
  0
ARC
  5
36C7
  8
0
 10
112.10220363363401
 20
8.0525582841024441
 30
0.0
 40
0.4818629735866355
 50
348.19004395092549
 51
1.225227072518863
  0
ARC
  5
36C8
  8
0
 10
112.96039917424289
 20
8.0386259780639158
 30
0.0
 40
0.4911581478054448
 50
176.86225090738051
 51
189.69159910943159
  0
ARC
  5
36C9
  8
0
 10
112.4988659680797
 20
8.0164084004046412
 30
0.0
 40
0.0645571795445358
 50
178.20016174447491
 51
249.4935455175827
  0
ARC
  5
36CA
  8
0
 10
112.4978447771835
 20
8.0073876378087476
 30
0.0
 40
0.0644580654240128
 50
113.07635863351879
 51
170.13053918677059
  0
ARC
  5
36CB
  8
0
 10
112.5243687406747
 20
7.9582248948496321
 30
0.0
 40
0.1201928445460817
 50
62.154559223235943
 51
115.52347074174401
  0
ARC
  5
36CC
  8
0
 10
112.5558421883599
 20
8.0081754140236967
 30
0.0
 40
0.0614899104448313
 50
353.38372579287812
 51
66.349385122071325
  0
ARC
  5
36CD
  8
0
 10
112.5521310767575
 20
8.0170181432009429
 30
0.0
 40
0.0667205063782557
 50
289.01208491157439
 51
346.18896348924198
  0
CIRCLE
  5
36CE
  8
0
 10
112.5236744681069
 20
7.9455949282067522
 30
0.0
 40
0.013344801724938
  0
ARC
  5
36CF
  8
0
 10
112.79935257813121
 20
7.8310255052628177
 30
0.0
 40
0.0501054059045031
 50
11.839027538334831
 51
165.80787623830659
  0
ARC
  5
36D0
  8
0
 10
112.7998074414466
 20
7.853173418041691
 30
0.0
 40
0.0500132525109495
 50
191.37414745922709
 51
346.27275631741452
  0
ARC
  5
36D1
  8
0
 10
112.3767293143451
 20
7.9399263050665878
 30
0.0
 40
0.4818629735866355
 50
348.19004395092549
 51
1.225227072518863
  0
ARC
  5
36D2
  8
0
 10
113.2349248549541
 20
7.9259939990280621
 30
0.0
 40
0.4911581478054448
 50
176.86225090738051
 51
189.69159910943159
  0
ARC
  5
36D3
  8
0
 10
112.77339164879081
 20
7.9037764213687849
 30
0.0
 40
0.0645571795445358
 50
178.20016174447491
 51
249.4935455175827
  0
ARC
  5
36D4
  8
0
 10
112.7723704578946
 20
7.8947556587728904
 30
0.0
 40
0.0644580654240128
 50
113.07635863351879
 51
170.13053918677059
  0
ARC
  5
36D5
  8
0
 10
112.7988944213859
 20
7.8455929158137776
 30
0.0
 40
0.1201928445460817
 50
62.154559223235943
 51
115.52347074174401
  0
ARC
  5
36D6
  8
0
 10
112.8303678690711
 20
7.8955434349878431
 30
0.0
 40
0.0614899104448313
 50
353.38372579287812
 51
66.349385122071325
  0
ARC
  5
36D7
  8
0
 10
112.8266567574687
 20
7.9043861641650848
 30
0.0
 40
0.0667205063782557
 50
289.01208491157439
 51
346.18896348924198
  0
CIRCLE
  5
36D8
  8
0
 10
112.7982001488181
 20
7.8329629491708976
 30
0.0
 40
0.013344801724938
  0
ARC
  5
36D9
  8
0
 10
113.05379713316189
 20
7.6889926369847847
 30
0.0
 40
0.0501054059045031
 50
11.839027538334831
 51
165.80787623830659
  0
ARC
  5
36DA
  8
0
 10
113.0542519964773
 20
7.7111405497636616
 30
0.0
 40
0.0500132525109495
 50
191.37414745922709
 51
346.27275631741452
  0
ARC
  5
36DB
  8
0
 10
112.6311738693759
 20
7.7978934367885593
 30
0.0
 40
0.4818629735866355
 50
348.19004395092549
 51
1.225227072518863
  0
ARC
  5
36DC
  8
0
 10
113.4893694099848
 20
7.7839611307500292
 30
0.0
 40
0.4911581478054448
 50
176.86225090738051
 51
189.69159910943159
  0
ARC
  5
36DD
  8
0
 10
113.02783620382159
 20
7.7617435530907564
 30
0.0
 40
0.0645571795445358
 50
178.20016174447491
 51
249.4935455175827
  0
ARC
  5
36DE
  8
0
 10
113.0268150129253
 20
7.752722790494861
 30
0.0
 40
0.0644580654240128
 50
113.07635863351879
 51
170.13053918677059
  0
ARC
  5
36DF
  8
0
 10
113.0533389764166
 20
7.7035600475357446
 30
0.0
 40
0.1201928445460817
 50
62.154559223235943
 51
115.52347074174401
  0
ARC
  5
36E0
  8
0
 10
113.0848124241018
 20
7.7535105667098128
 30
0.0
 40
0.0614899104448313
 50
353.38372579287812
 51
66.349385122071325
  0
ARC
  5
36E1
  8
0
 10
113.0811013124994
 20
7.7623532958870562
 30
0.0
 40
0.0667205063782557
 50
289.01208491157439
 51
346.18896348924198
  0
CIRCLE
  5
36E2
  8
0
 10
113.0526447038488
 20
7.6909300808928647
 30
0.0
 40
0.013344801724938
  0
ARC
  5
36E3
  8
0
 10
113.225710857973
 20
7.5178307778723577
 30
0.0
 40
0.0501054059045031
 50
11.839027538334831
 51
165.80787623830659
  0
ARC
  5
36E4
  8
0
 10
113.2261657212884
 20
7.5399786906512309
 30
0.0
 40
0.0500132525109495
 50
191.37414745922709
 51
346.27275631741452
  0
ARC
  5
36E5
  8
0
 10
112.80308759418701
 20
7.6267315776761277
 30
0.0
 40
0.4818629735866355
 50
348.19004395092549
 51
1.225227072518863
  0
ARC
  5
36E6
  8
0
 10
113.66128313479589
 20
7.6127992716376021
 30
0.0
 40
0.4911581478054448
 50
176.86225090738051
 51
189.69159910943159
  0
ARC
  5
36E7
  8
0
 10
113.1997499286327
 20
7.5905816939783248
 30
0.0
 40
0.0645571795445358
 50
178.20016174447491
 51
249.4935455175827
  0
ARC
  5
36E8
  8
0
 10
113.1987287377365
 20
7.5815609313824304
 30
0.0
 40
0.0644580654240128
 50
113.07635863351879
 51
170.13053918677059
  0
ARC
  5
36E9
  8
0
 10
113.2252527012277
 20
7.5323981884233184
 30
0.0
 40
0.1201928445460817
 50
62.154559223235943
 51
115.52347074174401
  0
ARC
  5
36EA
  8
0
 10
113.2567261489129
 20
7.5823487075973821
 30
0.0
 40
0.0614899104448313
 50
353.38372579287812
 51
66.349385122071325
  0
ARC
  5
36EB
  8
0
 10
113.2530150373105
 20
7.5911914367746247
 30
0.0
 40
0.0667205063782557
 50
289.01208491157439
 51
346.18896348924198
  0
CIRCLE
  5
36EC
  8
0
 10
113.2245584286599
 20
7.5197682217804376
 30
0.0
 40
0.013344801724938
  0
ARC
  5
36ED
  8
0
 10
113.37636312214291
 20
7.334204612419124
 30
0.0
 40
0.0501054059045031
 50
11.839027538334831
 51
165.80787623830659
  0
ARC
  5
36EE
  8
0
 10
113.3768179854583
 20
7.3563525251979982
 30
0.0
 40
0.0500132525109495
 50
191.37414745922709
 51
346.27275631741452
  0
ARC
  5
36EF
  8
0
 10
112.9537398583568
 20
7.443105412222895
 30
0.0
 40
0.4818629735866355
 50
348.19004395092549
 51
1.225227072518863
  0
ARC
  5
36F0
  8
0
 10
113.8119353989658
 20
7.4291731061843684
 30
0.0
 40
0.4911581478054448
 50
176.86225090738051
 51
189.69159910943159
  0
ARC
  5
36F1
  8
0
 10
113.3504021928026
 20
7.4069555285250921
 30
0.0
 40
0.0645571795445358
 50
178.20016174447491
 51
249.4935455175827
  0
ARC
  5
36F2
  8
0
 10
113.34938100190629
 20
7.3979347659291959
 30
0.0
 40
0.0644580654240128
 50
113.07635863351879
 51
170.13053918677059
  0
ARC
  5
36F3
  8
0
 10
113.37590496539759
 20
7.3487720229700839
 30
0.0
 40
0.1201928445460817
 50
62.154559223235943
 51
115.52347074174401
  0
ARC
  5
36F4
  8
0
 10
113.4073784130828
 20
7.3987225421441494
 30
0.0
 40
0.0614899104448313
 50
353.38372579287812
 51
66.349385122071325
  0
ARC
  5
36F5
  8
0
 10
113.4036673014804
 20
7.4075652713213911
 30
0.0
 40
0.0667205063782557
 50
289.01208491157439
 51
346.18896348924198
  0
CIRCLE
  5
36F6
  8
0
 10
113.3752106928298
 20
7.336142056327204
 30
0.0
 40
0.013344801724938
  0
ARC
  5
36F7
  8
0
 10
113.4301261870946
 20
7.1337972579201496
 30
0.0
 40
0.0501054059045031
 50
11.839027538334831
 51
165.80787623830659
  0
ARC
  5
36F8
  8
0
 10
113.43058105041
 20
7.1559451706990229
 30
0.0
 40
0.0500132525109495
 50
191.37414745922709
 51
346.27275631741452
  0
ARC
  5
36F9
  8
0
 10
113.00750292330849
 20
7.2426980577239197
 30
0.0
 40
0.4818629735866355
 50
348.19004395092549
 51
1.225227072518863
  0
ARC
  5
36FA
  8
0
 10
113.8656984639175
 20
7.228765751685394
 30
0.0
 40
0.4911581478054448
 50
176.86225090738051
 51
189.69159910943159
  0
ARC
  5
36FB
  8
0
 10
113.4041652577542
 20
7.2065481740261168
 30
0.0
 40
0.0645571795445358
 50
178.20016174447491
 51
249.4935455175827
  0
ARC
  5
36FC
  8
0
 10
113.403144066858
 20
7.1975274114302223
 30
0.0
 40
0.0644580654240128
 50
113.07635863351879
 51
170.13053918677059
  0
ARC
  5
36FD
  8
0
 10
113.4296680303493
 20
7.1483646684711104
 30
0.0
 40
0.1201928445460817
 50
62.154559223235943
 51
115.52347074174401
  0
ARC
  5
36FE
  8
0
 10
113.46114147803451
 20
7.1983151876451741
 30
0.0
 40
0.0614899104448313
 50
353.38372579287812
 51
66.349385122071325
  0
ARC
  5
36FF
  8
0
 10
113.45743036643211
 20
7.2071579168224167
 30
0.0
 40
0.0667205063782557
 50
289.01208491157439
 51
346.18896348924198
  0
CIRCLE
  5
3700
  8
0
 10
113.42897375778151
 20
7.135734701828226
 30
0.0
 40
0.013344801724938
  0
ARC
  5
3701
  8
0
 10
113.44720809009721
 20
6.9343188849949122
 30
0.0
 40
0.0501054059045031
 50
11.839027538334831
 51
165.80787623830659
  0
ARC
  5
3702
  8
0
 10
113.4476629534125
 20
6.9564667977737846
 30
0.0
 40
0.0500132525109495
 50
191.37414745922709
 51
346.27275631741452
  0
ARC
  5
3703
  8
0
 10
113.0245848263111
 20
7.043219684798685
 30
0.0
 40
0.4818629735866355
 50
348.19004395092549
 51
1.225227072518863
  0
ARC
  5
3704
  8
0
 10
113.88278036692
 20
7.0292873787601549
 30
0.0
 40
0.4911581478054448
 50
176.86225090738051
 51
189.69159910943159
  0
ARC
  5
3705
  8
0
 10
113.42124716075681
 20
7.0070698011008821
 30
0.0
 40
0.0645571795445358
 50
178.20016174447491
 51
249.4935455175827
  0
ARC
  5
3706
  8
0
 10
113.4202259698606
 20
6.9980490385049867
 30
0.0
 40
0.0644580654240128
 50
113.07635863351879
 51
170.13053918677059
  0
ARC
  5
3707
  8
0
 10
113.4467499333518
 20
6.9488862955458721
 30
0.0
 40
0.1201928445460817
 50
62.154559223235943
 51
115.52347074174401
  0
ARC
  5
3708
  8
0
 10
113.478223381037
 20
6.9988368147199358
 30
0.0
 40
0.0614899104448313
 50
353.38372579287812
 51
66.349385122071325
  0
ARC
  5
3709
  8
0
 10
113.4745122694346
 20
7.007679543897182
 30
0.0
 40
0.0667205063782557
 50
289.01208491157439
 51
346.18896348924198
  0
CIRCLE
  5
370A
  8
0
 10
113.446055660784
 20
6.9362563289029922
 30
0.0
 40
0.013344801724938
  0
ARC
  5
370B
  8
0
 10
113.36182817667191
 20
6.7332204263435784
 30
0.0
 40
0.0501054059045031
 50
11.839027538334831
 51
165.80787623830659
  0
ARC
  5
370C
  8
0
 10
113.3622830399873
 20
6.7553683391224508
 30
0.0
 40
0.0500132525109495
 50
191.37414745922709
 51
346.27275631741452
  0
ARC
  5
370D
  8
0
 10
112.9392049128858
 20
6.8421212261473476
 30
0.0
 40
0.4818629735866355
 50
348.19004395092549
 51
1.225227072518863
  0
ARC
  5
370E
  8
0
 10
113.7974004534948
 20
6.8281889201088211
 30
0.0
 40
0.4911581478054448
 50
176.86225090738051
 51
189.69159910943159
  0
ARC
  5
370F
  8
0
 10
113.33586724733161
 20
6.8059713424495447
 30
0.0
 40
0.0645571795445358
 50
178.20016174447491
 51
249.4935455175827
  0
ARC
  5
3710
  8
0
 10
113.3348460564354
 20
6.7969505798536503
 30
0.0
 40
0.0644580654240128
 50
113.07635863351879
 51
170.13053918677059
  0
ARC
  5
3711
  8
0
 10
113.3613700199266
 20
6.7477878368945383
 30
0.0
 40
0.1201928445460817
 50
62.154559223235943
 51
115.52347074174401
  0
ARC
  5
3712
  8
0
 10
113.3928434676118
 20
6.797738356068602
 30
0.0
 40
0.0614899104448313
 50
353.38372579287812
 51
66.349385122071325
  0
ARC
  5
3713
  8
0
 10
113.3891323560094
 20
6.8065810852458446
 30
0.0
 40
0.0667205063782557
 50
289.01208491157439
 51
346.18896348924198
  0
CIRCLE
  5
3714
  8
0
 10
113.3606757473588
 20
6.7351578702516584
 30
0.0
 40
0.013344801724938
  0
ARC
  5
3715
  8
0
 10
113.2432344499482
 20
6.5484634942900426
 30
0.0
 40
0.0501054059045031
 50
11.839027538334831
 51
165.80787623830659
  0
ARC
  5
3716
  8
0
 10
113.2436893132635
 20
6.5706114070689159
 30
0.0
 40
0.0500132525109495
 50
191.37414745922709
 51
346.27275631741452
  0
ARC
  5
3717
  8
0
 10
112.8206111861621
 20
6.6573642940938127
 30
0.0
 40
0.4818629735866355
 50
348.19004395092549
 51
1.225227072518863
  0
ARC
  5
3718
  8
0
 10
113.678806726771
 20
6.643431988055287
 30
0.0
 40
0.4911581478054448
 50
176.86225090738051
 51
189.69159910943159
  0
ARC
  5
3719
  8
0
 10
113.2172735206078
 20
6.6212144103960098
 30
0.0
 40
0.0645571795445358
 50
178.20016174447491
 51
249.4935455175827
  0
ARC
  5
371A
  8
0
 10
113.21625232971159
 20
6.6121936478001153
 30
0.0
 40
0.0644580654240128
 50
113.07635863351879
 51
170.13053918677059
  0
ARC
  5
371B
  8
0
 10
113.24277629320279
 20
6.5630309048410034
 30
0.0
 40
0.1201928445460817
 50
62.154559223235943
 51
115.52347074174401
  0
ARC
  5
371C
  8
0
 10
113.274249740888
 20
6.6129814240150671
 30
0.0
 40
0.0614899104448313
 50
353.38372579287812
 51
66.349385122071325
  0
ARC
  5
371D
  8
0
 10
113.2705386292856
 20
6.6218241531923097
 30
0.0
 40
0.0667205063782557
 50
289.01208491157439
 51
346.18896348924198
  0
CIRCLE
  5
371E
  8
0
 10
113.242082020635
 20
6.5504009381981234
 30
0.0
 40
0.013344801724938
  0
ARC
  5
371F
  8
0
 10
113.0506736775035
 20
6.3810906113934669
 30
0.0
 40
0.0501054059045031
 50
11.839027538334831
 51
165.80787623830659
  0
ARC
  5
3720
  8
0
 10
113.05112854081889
 20
6.4032385241723437
 30
0.0
 40
0.0500132525109495
 50
191.37414745922709
 51
346.27275631741452
  0
ARC
  5
3721
  8
0
 10
112.6280504137174
 20
6.489991411197237
 30
0.0
 40
0.4818629735866355
 50
348.19004395092549
 51
1.225227072518863
  0
ARC
  5
3722
  8
0
 10
113.48624595432641
 20
6.4760591051587113
 30
0.0
 40
0.4911581478054448
 50
176.86225090738051
 51
189.69159910943159
  0
ARC
  5
3723
  8
0
 10
113.0247127481631
 20
6.4538415274994341
 30
0.0
 40
0.0645571795445358
 50
178.20016174447491
 51
249.4935455175827
  0
ARC
  5
3724
  8
0
 10
113.0236915572669
 20
6.4448207649035387
 30
0.0
 40
0.0644580654240128
 50
113.07635863351879
 51
170.13053918677059
  0
ARC
  5
3725
  8
0
 10
113.0502155207582
 20
6.3956580219444268
 30
0.0
 40
0.1201928445460817
 50
62.154559223235943
 51
115.52347074174401
  0
ARC
  5
3726
  8
0
 10
113.0816889684433
 20
6.4456085411184949
 30
0.0
 40
0.0614899104448313
 50
353.38372579287812
 51
66.349385122071325
  0
ARC
  5
3727
  8
0
 10
113.077977856841
 20
6.454451270295734
 30
0.0
 40
0.0667205063782557
 50
289.01208491157439
 51
346.18896348924198
  0
CIRCLE
  5
3728
  8
0
 10
113.0495212481904
 20
6.3830280553015468
 30
0.0
 40
0.013344801724938
  0
ARC
  5
3729
  8
0
 10
112.80659100195371
 20
6.2372794013470063
 30
0.0
 40
0.0501054059045031
 50
11.839027538334831
 51
165.80787623830659
  0
ARC
  5
372A
  8
0
 10
112.807045865269
 20
6.2594273141258832
 30
0.0
 40
0.0500132525109495
 50
191.37414745922709
 51
346.27275631741452
  0
ARC
  5
372B
  8
0
 10
112.3839677381676
 20
6.3461802011507791
 30
0.0
 40
0.4818629735866355
 50
348.19004395092549
 51
1.225227072518863
  0
ARC
  5
372C
  8
0
 10
113.2421632787765
 20
6.3322478951122489
 30
0.0
 40
0.4911581478054448
 50
176.86225090738051
 51
189.69159910943159
  0
ARC
  5
372D
  8
0
 10
112.78063007261331
 20
6.310030317452977
 30
0.0
 40
0.0645571795445358
 50
178.20016174447491
 51
249.4935455175827
  0
ARC
  5
372E
  8
0
 10
112.7796088817171
 20
6.3010095548570808
 30
0.0
 40
0.0644580654240128
 50
113.07635863351879
 51
170.13053918677059
  0
ARC
  5
372F
  8
0
 10
112.8061328452083
 20
6.2518468118979662
 30
0.0
 40
0.1201928445460817
 50
62.154559223235943
 51
115.52347074174401
  0
ARC
  5
3730
  8
0
 10
112.8376062928935
 20
6.3017973310720343
 30
0.0
 40
0.0614899104448313
 50
353.38372579287812
 51
66.349385122071325
  0
ARC
  5
3731
  8
0
 10
112.8338951812911
 20
6.310640060249276
 30
0.0
 40
0.0667205063782557
 50
289.01208491157439
 51
346.18896348924198
  0
CIRCLE
  5
3732
  8
0
 10
112.8054385726405
 20
6.2392168452550862
 30
0.0
 40
0.013344801724938
  0
ARC
  5
3733
  8
0
 10
112.5178387655983
 20
6.1255824688072407
 30
0.0
 40
0.0501054059045031
 50
11.839027538334831
 51
165.80787623830659
  0
ARC
  5
3734
  8
0
 10
112.5182936289137
 20
6.147730381586114
 30
0.0
 40
0.0500132525109495
 50
191.37414745922709
 51
346.27275631741452
  0
ARC
  5
3735
  8
0
 10
112.09521550181221
 20
6.2344832686110108
 30
0.0
 40
0.4818629735866355
 50
348.19004395092549
 51
1.225227072518863
  0
ARC
  5
3736
  8
0
 10
112.95341104242119
 20
6.2205509625724851
 30
0.0
 40
0.4911581478054448
 50
176.86225090738051
 51
189.69159910943159
  0
ARC
  5
3737
  8
0
 10
112.4918778362579
 20
6.1983333849132078
 30
0.0
 40
0.0645571795445358
 50
178.20016174447491
 51
249.4935455175827
  0
ARC
  5
3738
  8
0
 10
112.4908566453617
 20
6.1893126223173134
 30
0.0
 40
0.0644580654240128
 50
113.07635863351879
 51
170.13053918677059
  0
ARC
  5
3739
  8
0
 10
112.517380608853
 20
6.1401498793582006
 30
0.0
 40
0.1201928445460817
 50
62.154559223235943
 51
115.52347074174401
  0
ARC
  5
373A
  8
0
 10
112.5488540565382
 20
6.190100398532266
 30
0.0
 40
0.0614899104448313
 50
353.38372579287812
 51
66.349385122071325
  0
ARC
  5
373B
  8
0
 10
112.5451429449358
 20
6.1989431277095077
 30
0.0
 40
0.0667205063782557
 50
289.01208491157439
 51
346.18896348924198
  0
CIRCLE
  5
373C
  8
0
 10
112.5166863362852
 20
6.1275199127153206
 30
0.0
 40
0.013344801724938
  0
ARC
  5
373D
  8
0
 10
112.2036394692423
 20
6.047467204696324
 30
0.0
 40
0.0501054059045031
 50
11.839027538334831
 51
165.80787623830659
  0
ARC
  5
373E
  8
0
 10
112.2040943325576
 20
6.0696151174751982
 30
0.0
 40
0.0500132525109495
 50
191.37414745922709
 51
346.27275631741452
  0
ARC
  5
373F
  8
0
 10
111.7810162054562
 20
6.156368004500095
 30
0.0
 40
0.4818629735866355
 50
348.19004395092549
 51
1.225227072518863
  0
ARC
  5
3740
  8
0
 10
112.6392117460652
 20
6.1424356984615676
 30
0.0
 40
0.4911581478054448
 50
176.86225090738051
 51
189.69159910943159
  0
ARC
  5
3741
  8
0
 10
112.1776785399019
 20
6.1202181208022921
 30
0.0
 40
0.0645571795445358
 50
178.20016174447491
 51
249.4935455175827
  0
ARC
  5
3742
  8
0
 10
112.17665734900569
 20
6.1111973582063959
 30
0.0
 40
0.0644580654240128
 50
113.07635863351879
 51
170.13053918677059
  0
ARC
  5
3743
  8
0
 10
112.20318131249699
 20
6.0620346152472839
 30
0.0
 40
0.1201928445460817
 50
62.154559223235943
 51
115.52347074174401
  0
ARC
  5
3744
  8
0
 10
112.2346547601821
 20
6.1119851344213494
 30
0.0
 40
0.0614899104448313
 50
353.38372579287812
 51
66.349385122071325
  0
ARC
  5
3745
  8
0
 10
112.2309436485798
 20
6.1208278635985911
 30
0.0
 40
0.0667205063782557
 50
289.01208491157439
 51
346.18896348924198
  0
CIRCLE
  5
3746
  8
0
 10
112.2024870399292
 20
6.049404648604404
 30
0.0
 40
0.013344801724938
  0
ARC
  5
3747
  8
0
 10
111.859408984667
 20
6.0085476494947514
 30
0.0
 40
0.0501054059045031
 50
11.839027538334831
 51
165.80787623830659
  0
ARC
  5
3748
  8
0
 10
111.8598638479823
 20
6.0306955622736282
 30
0.0
 40
0.0500132525109495
 50
191.37414745922709
 51
346.27275631741452
  0
ARC
  5
3749
  8
0
 10
111.43678572088091
 20
6.117448449298525
 30
0.0
 40
0.4818629735866355
 50
348.19004395092549
 51
1.225227072518863
  0
ARC
  5
374A
  8
0
 10
112.29498126148989
 20
6.103516143259994
 30
0.0
 40
0.4911581478054448
 50
176.86225090738051
 51
189.69159910943159
  0
ARC
  5
374B
  8
0
 10
111.8334480553266
 20
6.0812985656007221
 30
0.0
 40
0.0645571795445358
 50
178.20016174447491
 51
249.4935455175827
  0
ARC
  5
374C
  8
0
 10
111.8324268644304
 20
6.0722778030048259
 30
0.0
 40
0.0644580654240128
 50
113.07635863351879
 51
170.13053918677059
  0
ARC
  5
374D
  8
0
 10
111.8589508279217
 20
6.0231150600457113
 30
0.0
 40
0.1201928445460817
 50
62.154559223235943
 51
115.52347074174401
  0
ARC
  5
374E
  8
0
 10
111.8904242756068
 20
6.0730655792197794
 30
0.0
 40
0.0614899104448313
 50
353.38372579287812
 51
66.349385122071325
  0
ARC
  5
374F
  8
0
 10
111.88671316400441
 20
6.081908308397022
 30
0.0
 40
0.0667205063782557
 50
289.01208491157439
 51
346.18896348924198
  0
CIRCLE
  5
3750
  8
0
 10
111.8582565553539
 20
6.0104850934028313
 30
0.0
 40
0.013344801724938
  0
ARC
  5
3751
  8
0
 10
111.516461891673
 20
6.0073496466723562
 30
0.0
 40
0.0501054059045031
 50
11.839027538334831
 51
165.80787623830659
  0
ARC
  5
3752
  8
0
 10
111.5169167549884
 20
6.029497559451233
 30
0.0
 40
0.0500132525109495
 50
191.37414745922709
 51
346.27275631741452
  0
ARC
  5
3753
  8
0
 10
111.0938386278869
 20
6.1162504464761289
 30
0.0
 40
0.4818629735866355
 50
348.19004395092549
 51
1.225227072518863
  0
ARC
  5
3754
  8
0
 10
111.9520341684959
 20
6.1023181404375988
 30
0.0
 40
0.4911581478054448
 50
176.86225090738051
 51
189.69159910943159
  0
ARC
  5
3755
  8
0
 10
111.4905009623327
 20
6.080100562778326
 30
0.0
 40
0.0645571795445358
 50
178.20016174447491
 51
249.4935455175827
  0
ARC
  5
3756
  8
0
 10
111.48947977143639
 20
6.0710798001824307
 30
0.0
 40
0.0644580654240128
 50
113.07635863351879
 51
170.13053918677059
  0
ARC
  5
3757
  8
0
 10
111.51600373492769
 20
6.021917057223316
 30
0.0
 40
0.1201928445460817
 50
62.154559223235943
 51
115.52347074174401
  0
ARC
  5
3758
  8
0
 10
111.54747718261289
 20
6.0718675763973842
 30
0.0
 40
0.0614899104448313
 50
353.38372579287812
 51
66.349385122071325
  0
ARC
  5
3759
  8
0
 10
111.5437660710105
 20
6.0807103055746259
 30
0.0
 40
0.0667205063782557
 50
289.01208491157439
 51
346.18896348924198
  0
CIRCLE
  5
375A
  8
0
 10
111.51530946235989
 20
6.0092870905804361
 30
0.0
 40
0.013344801724938
  0
ARC
  5
375B
  8
0
 10
111.1693873920898
 20
6.0478853935187429
 30
0.0
 40
0.0501054059045031
 50
11.839027538334831
 51
165.80787623830659
  0
ARC
  5
375C
  8
0
 10
111.1698422554051
 20
6.0700333062976197
 30
0.0
 40
0.0500132525109495
 50
191.37414745922709
 51
346.27275631741452
  0
ARC
  5
375D
  8
0
 10
110.7467641283037
 20
6.1567861933225174
 30
0.0
 40
0.4818629735866355
 50
348.19004395092549
 51
1.225227072518863
  0
ARC
  5
375E
  8
0
 10
111.6049596689126
 20
6.1428538872839873
 30
0.0
 40
0.4911581478054448
 50
176.86225090738051
 51
189.69159910943159
  0
ARC
  5
375F
  8
0
 10
111.1434264627494
 20
6.1206363096247136
 30
0.0
 40
0.0645571795445358
 50
178.20016174447491
 51
249.4935455175827
  0
ARC
  5
3760
  8
0
 10
111.14240527185321
 20
6.1116155470288192
 30
0.0
 40
0.0644580654240128
 50
113.07635863351879
 51
170.13053918677059
  0
ARC
  5
3761
  8
0
 10
111.16892923534439
 20
6.0624528040697028
 30
0.0
 40
0.1201928445460817
 50
62.154559223235943
 51
115.52347074174401
  0
ARC
  5
3762
  8
0
 10
111.20040268302959
 20
6.1124033232437709
 30
0.0
 40
0.0614899104448313
 50
353.38372579287812
 51
66.349385122071325
  0
ARC
  5
3763
  8
0
 10
111.19669157142719
 20
6.1212460524210144
 30
0.0
 40
0.0667205063782557
 50
289.01208491157439
 51
346.18896348924198
  0
CIRCLE
  5
3764
  8
0
 10
111.16823496277659
 20
6.0498228374268228
 30
0.0
 40
0.013344801724938
  0
ARC
  5
3765
  8
0
 10
110.8606080065057
 20
6.1229192162660873
 30
0.0
 40
0.0501054059045031
 50
11.839027538334831
 51
165.80787623830659
  0
ARC
  5
3766
  8
0
 10
110.8610628698211
 20
6.1450671290449597
 30
0.0
 40
0.0500132525109495
 50
191.37414745922709
 51
346.27275631741452
  0
ARC
  5
3767
  8
0
 10
110.43798474271961
 20
6.23182001606986
 30
0.0
 40
0.4818629735866355
 50
348.19004395092549
 51
1.225227072518863
  0
ARC
  5
3768
  8
0
 10
111.2961802833286
 20
6.2178877100313299
 30
0.0
 40
0.4911581478054448
 50
176.86225090738051
 51
189.69159910943159
  0
ARC
  5
3769
  8
0
 10
110.8346470771653
 20
6.1956701323720571
 30
0.0
 40
0.0645571795445358
 50
178.20016174447491
 51
249.4935455175827
  0
ARC
  5
376A
  8
0
 10
110.8336258862691
 20
6.1866493697761618
 30
0.0
 40
0.0644580654240128
 50
113.07635863351879
 51
170.13053918677059
  0
ARC
  5
376B
  8
0
 10
110.8601498497604
 20
6.1374866268170472
 30
0.0
 40
0.1201928445460817
 50
62.154559223235943
 51
115.52347074174401
  0
ARC
  5
376C
  8
0
 10
110.89162329744551
 20
6.1874371459911108
 30
0.0
 40
0.0614899104448313
 50
353.38372579287812
 51
66.349385122071325
  0
ARC
  5
376D
  8
0
 10
110.88791218584311
 20
6.196279875168357
 30
0.0
 40
0.0667205063782557
 50
289.01208491157439
 51
346.18896348924198
  0
CIRCLE
  5
376E
  8
0
 10
110.85945557719261
 20
6.1248566601741672
 30
0.0
 40
0.013344801724938
  0
ARC
  5
376F
  8
0
 10
110.5709741598133
 20
6.2359584127401391
 30
0.0
 40
0.0501054059045031
 50
11.839027538334831
 51
165.80787623830659
  0
ARC
  5
3770
  8
0
 10
110.5714290231286
 20
6.258106325519015
 30
0.0
 40
0.0500132525109495
 50
191.37414745922709
 51
346.27275631741452
  0
ARC
  5
3771
  8
0
 10
110.1483508960272
 20
6.3448592125439092
 30
0.0
 40
0.4818629735866355
 50
348.19004395092549
 51
1.225227072518863
  0
ARC
  5
3772
  8
0
 10
111.0065464366361
 20
6.3309269065053817
 30
0.0
 40
0.4911581478054448
 50
176.86225090738051
 51
189.69159910943159
  0
ARC
  5
3773
  8
0
 10
110.5450132304729
 20
6.3087093288461062
 30
0.0
 40
0.0645571795445358
 50
178.20016174447491
 51
249.4935455175827
  0
ARC
  5
3774
  8
0
 10
110.54399203957669
 20
6.29968856625021
 30
0.0
 40
0.0644580654240128
 50
113.07635863351879
 51
170.13053918677059
  0
ARC
  5
3775
  8
0
 10
110.57051600306789
 20
6.2505258232910981
 30
0.0
 40
0.1201928445460817
 50
62.154559223235943
 51
115.52347074174401
  0
ARC
  5
3776
  8
0
 10
110.60198945075309
 20
6.3004763424651671
 30
0.0
 40
0.0614899104448313
 50
353.38372579287812
 51
66.349385122071325
  0
ARC
  5
3777
  8
0
 10
110.5982783391507
 20
6.3093190716424061
 30
0.0
 40
0.0667205063782557
 50
289.01208491157439
 51
346.18896348924198
  0
CIRCLE
  5
3778
  8
0
 10
110.5698217305001
 20
6.2378958566482181
 30
0.0
 40
0.013344801724938
  0
ARC
  5
3779
  8
0
 10
110.3282015587872
 20
6.3772764910015702
 30
0.0
 40
0.0501054059045031
 50
11.839027538334831
 51
165.80787623830659
  0
ARC
  5
377A
  8
0
 10
110.3286564221025
 20
6.3994244037804471
 30
0.0
 40
0.0500132525109495
 50
191.37414745922709
 51
346.27275631741452
  0
ARC
  5
377B
  8
0
 10
109.90557829500111
 20
6.486177290805343
 30
0.0
 40
0.4818629735866355
 50
348.19004395092549
 51
1.225227072518863
  0
ARC
  5
377C
  8
0
 10
110.7637738356101
 20
6.4722449847668129
 30
0.0
 40
0.4911581478054448
 50
176.86225090738051
 51
189.69159910943159
  0
ARC
  5
377D
  8
0
 10
110.3022406294468
 20
6.4500274071075401
 30
0.0
 40
0.0645571795445358
 50
178.20016174447491
 51
249.4935455175827
  0
ARC
  5
377E
  8
0
 10
110.3012194385506
 20
6.4410066445116447
 30
0.0
 40
0.0644580654240128
 50
113.07635863351879
 51
170.13053918677059
  0
ARC
  5
377F
  8
0
 10
110.3277434020419
 20
6.3918439015525301
 30
0.0
 40
0.1201928445460817
 50
62.154559223235943
 51
115.52347074174401
  0
ARC
  5
3780
  8
0
 10
110.35921684972701
 20
6.4417944207265982
 30
0.0
 40
0.0614899104448313
 50
353.38372579287812
 51
66.349385122071325
  0
ARC
  5
3781
  8
0
 10
110.35550573812461
 20
6.45063714990384
 30
0.0
 40
0.0667205063782557
 50
289.01208491157439
 51
346.18896348924198
  0
CIRCLE
  5
3782
  8
0
 10
110.3270491294741
 20
6.3792139349096502
 30
0.0
 40
0.013344801724938
  0
ARC
  5
3783
  8
0
 10
110.1332680175486
 20
6.5466123010228179
 30
0.0
 40
0.0501054059045031
 50
11.839027538334831
 51
165.80787623830659
  0
ARC
  5
3784
  8
0
 10
110.133722880864
 20
6.5687602138016921
 30
0.0
 40
0.0500132525109495
 50
191.37414745922709
 51
346.27275631741452
  0
ARC
  5
3785
  8
0
 10
109.71064475376249
 20
6.655513100826588
 30
0.0
 40
0.4818629735866355
 50
348.19004395092549
 51
1.225227072518863
  0
ARC
  5
3786
  8
0
 10
110.5688402943715
 20
6.6415807947880623
 30
0.0
 40
0.4911581478054448
 50
176.86225090738051
 51
189.69159910943159
  0
ARC
  5
3787
  8
0
 10
110.1073070882083
 20
6.6193632171287851
 30
0.0
 40
0.0645571795445358
 50
178.20016174447491
 51
249.4935455175827
  0
ARC
  5
3788
  8
0
 10
110.10628589731201
 20
6.6103424545328897
 30
0.0
 40
0.0644580654240128
 50
113.07635863351879
 51
170.13053918677059
  0
ARC
  5
3789
  8
0
 10
110.13280986080331
 20
6.5611797115737778
 30
0.0
 40
0.1201928445460817
 50
62.154559223235943
 51
115.52347074174401
  0
ARC
  5
378A
  8
0
 10
110.16428330848851
 20
6.6111302307478432
 30
0.0
 40
0.0614899104448313
 50
353.38372579287812
 51
66.349385122071325
  0
ARC
  5
378B
  8
0
 10
110.16057219688609
 20
6.6199729599250849
 30
0.0
 40
0.0667205063782557
 50
289.01208491157439
 51
346.18896348924198
  0
CIRCLE
  5
378C
  8
0
 10
110.13211558823549
 20
6.5485497449308951
 30
0.0
 40
0.013344801724938
  0
ARC
  5
378D
  8
0
 10
110.0054659770819
 20
6.7310908699045342
 30
0.0
 40
0.0501054059045031
 50
11.839027538334831
 51
165.80787623830659
  0
ARC
  5
378E
  8
0
 10
110.00592084039729
 20
6.7532387826834066
 30
0.0
 40
0.0500132525109495
 50
191.37414745922709
 51
346.27275631741452
  0
ARC
  5
378F
  8
0
 10
109.5828427132959
 20
6.8399916697083043
 30
0.0
 40
0.4818629735866355
 50
348.19004395092549
 51
1.225227072518863
  0
ARC
  5
3790
  8
0
 10
110.44103825390479
 20
6.8260593636697768
 30
0.0
 40
0.4911581478054448
 50
176.86225090738051
 51
189.69159910943159
  0
ARC
  5
3791
  8
0
 10
109.9795050477416
 20
6.8038417860105014
 30
0.0
 40
0.0645571795445358
 50
178.20016174447491
 51
249.4935455175827
  0
ARC
  5
3792
  8
0
 10
109.9784838568453
 20
6.794821023414606
 30
0.0
 40
0.0644580654240128
 50
113.07635863351879
 51
170.13053918677059
  0
ARC
  5
3793
  8
0
 10
110.0050078203366
 20
6.7456582804554941
 30
0.0
 40
0.1201928445460817
 50
62.154559223235943
 51
115.52347074174401
  0
ARC
  5
3794
  8
0
 10
110.0364812680218
 20
6.7956087996295578
 30
0.0
 40
0.0614899104448313
 50
353.38372579287812
 51
66.349385122071325
  0
ARC
  5
3795
  8
0
 10
110.0327701564194
 20
6.8044515288068013
 30
0.0
 40
0.0667205063782557
 50
289.01208491157439
 51
346.18896348924198
  0
CIRCLE
  5
3796
  8
0
 10
110.0043135477688
 20
6.7330283138126141
 30
0.0
 40
0.013344801724938
  0
ARC
  5
3797
  8
0
 10
109.9382389835083
 20
6.9300834061859753
 30
0.0
 40
0.0501054059045031
 50
11.839027538334831
 51
165.80787623830659
  0
ARC
  5
3798
  8
0
 10
109.9386938468236
 20
6.9522313189648521
 30
0.0
 40
0.0500132525109495
 50
191.37414745922709
 51
346.27275631741452
  0
ARC
  5
3799
  8
0
 10
109.51561571972221
 20
7.0389842059897481
 30
0.0
 40
0.4818629735866355
 50
348.19004395092549
 51
1.225227072518863
  0
ARC
  5
379A
  8
0
 10
110.3738112603311
 20
7.0250518999512179
 30
0.0
 40
0.4911581478054448
 50
176.86225090738051
 51
189.69159910943159
  0
ARC
  5
379B
  8
0
 10
109.9122780541679
 20
7.002834322291946
 30
0.0
 40
0.0645571795445358
 50
178.20016174447491
 51
249.4935455175827
  0
ARC
  5
379C
  8
0
 10
109.9112568632717
 20
6.9938135596960498
 30
0.0
 40
0.0644580654240128
 50
113.07635863351879
 51
170.13053918677059
  0
ARC
  5
379D
  8
0
 10
109.9377808267629
 20
6.9446508167369352
 30
0.0
 40
0.1201928445460817
 50
62.154559223235943
 51
115.52347074174401
  0
ARC
  5
379E
  8
0
 10
109.9692542744481
 20
6.9946013359110033
 30
0.0
 40
0.0614899104448313
 50
353.38372579287812
 51
66.349385122071325
  0
ARC
  5
379F
  8
0
 10
109.96554316284571
 20
7.003444065088245
 30
0.0
 40
0.0667205063782557
 50
289.01208491157439
 51
346.18896348924198
  0
CIRCLE
  5
37A0
  8
0
 10
109.9370865541951
 20
6.9320208500940552
 30
0.0
 40
0.013344801724938
  0
ARC
  5
37A1
  8
0
 10
109.9369083774064
 20
7.1318032227817412
 30
0.0
 40
0.0501054059045031
 50
11.839027538334831
 51
165.80787623830659
  0
ARC
  5
37A2
  8
0
 10
109.93736324072179
 20
7.1539511355606136
 30
0.0
 40
0.0500132525109495
 50
191.37414745922709
 51
346.27275631741452
  0
ARC
  5
37A3
  8
0
 10
109.5142851136203
 20
7.2407040225855113
 30
0.0
 40
0.4818629735866355
 50
348.19004395092549
 51
1.225227072518863
  0
ARC
  5
37A4
  8
0
 10
110.37248065422931
 20
7.2267717165469838
 30
0.0
 40
0.4911581478054448
 50
176.86225090738051
 51
189.69159910943159
  0
ARC
  5
37A5
  8
0
 10
109.910947448066
 20
7.2045541388877083
 30
0.0
 40
0.0645571795445358
 50
178.20016174447491
 51
249.4935455175827
  0
ARC
  5
37A6
  8
0
 10
109.9099262571698
 20
7.1955333762918121
 30
0.0
 40
0.0644580654240128
 50
113.07635863351879
 51
170.13053918677059
  0
ARC
  5
37A7
  8
0
 10
109.9364502206611
 20
7.1463706333327011
 30
0.0
 40
0.1201928445460817
 50
62.154559223235943
 51
115.52347074174401
  0
ARC
  5
37A8
  8
0
 10
109.9679236683462
 20
7.1963211525067647
 30
0.0
 40
0.0614899104448313
 50
353.38372579287812
 51
66.349385122071325
  0
ARC
  5
37A9
  8
0
 10
109.9642125567439
 20
7.2051638816840082
 30
0.0
 40
0.0667205063782557
 50
289.01208491157439
 51
346.18896348924198
  0
CIRCLE
  5
37AA
  8
0
 10
109.9357559480933
 20
7.1337406666898211
 30
0.0
 40
0.013344801724938
  0
ARC
  5
37AB
  8
0
 10
110.0077778641036
 20
7.3300051720005541
 30
0.0
 40
0.0501054059045031
 50
11.839027538334831
 51
165.80787623830659
  0
ARC
  5
37AC
  8
0
 10
110.0082327274189
 20
7.3521530847794274
 30
0.0
 40
0.0500132525109495
 50
191.37414745922709
 51
346.27275631741452
  0
ARC
  5
37AD
  8
0
 10
109.58515460031749
 20
7.4389059718043242
 30
0.0
 40
0.4818629735866355
 50
348.19004395092549
 51
1.225227072518863
  0
ARC
  5
37AE
  8
0
 10
110.4433501409264
 20
7.4249736657657968
 30
0.0
 40
0.4911581478054448
 50
176.86225090738051
 51
189.69159910943159
  0
ARC
  5
37AF
  8
0
 10
109.9818169347632
 20
7.4027560881065213
 30
0.0
 40
0.0645571795445358
 50
178.20016174447491
 51
249.4935455175827
  0
ARC
  5
37B0
  8
0
 10
109.98079574386701
 20
7.3937353255106251
 30
0.0
 40
0.0644580654240128
 50
113.07635863351879
 51
170.13053918677059
  0
ARC
  5
37B1
  8
0
 10
110.00731970735821
 20
7.344572582551514
 30
0.0
 40
0.1201928445460817
 50
62.154559223235943
 51
115.52347074174401
  0
ARC
  5
37B2
  8
0
 10
110.03879315504339
 20
7.3945231017255777
 30
0.0
 40
0.0614899104448313
 50
353.38372579287812
 51
66.349385122071325
  0
ARC
  5
37B3
  8
0
 10
110.03508204344099
 20
7.4033658309028212
 30
0.0
 40
0.0667205063782557
 50
289.01208491157439
 51
346.18896348924198
  0
CIRCLE
  5
37B4
  8
0
 10
110.00662543479039
 20
7.3319426159086296
 30
0.0
 40
0.013344801724938
  0
ARC
  5
37B5
  8
0
 10
110.136483101473
 20
7.5173141156723551
 30
0.0
 40
0.0501054059045031
 50
11.839027538334831
 51
165.80787623830659
  0
ARC
  5
37B6
  8
0
 10
110.1369379647884
 20
7.5394620284512319
 30
0.0
 40
0.0500132525109495
 50
191.37414745922709
 51
346.27275631741452
  0
ARC
  5
37B7
  8
0
 10
109.713859837687
 20
7.6262149154761287
 30
0.0
 40
0.4818629735866355
 50
348.19004395092549
 51
1.225227072518863
  0
ARC
  5
37B8
  8
0
 10
110.5720553782959
 20
7.6122826094375986
 30
0.0
 40
0.4911581478054448
 50
176.86225090738051
 51
189.69159910943159
  0
ARC
  5
37B9
  8
0
 10
110.1105221721327
 20
7.5900650317783258
 30
0.0
 40
0.0645571795445358
 50
178.20016174447491
 51
249.4935455175827
  0
ARC
  5
37BA
  8
0
 10
110.10950098123639
 20
7.5810442691824313
 30
0.0
 40
0.0644580654240128
 50
113.07635863351879
 51
170.13053918677059
  0
ARC
  5
37BB
  8
0
 10
110.13602494472769
 20
7.531881526223315
 30
0.0
 40
0.1201928445460817
 50
62.154559223235943
 51
115.52347074174401
  0
ARC
  5
37BC
  8
0
 10
110.1674983924129
 20
7.5818320453973831
 30
0.0
 40
0.0614899104448313
 50
353.38372579287812
 51
66.349385122071325
  0
ARC
  5
37BD
  8
0
 10
110.1637872808105
 20
7.5906747745746257
 30
0.0
 40
0.0667205063782557
 50
289.01208491157439
 51
346.18896348924198
  0
CIRCLE
  5
37BE
  8
0
 10
110.1353306721599
 20
7.519251559580435
 30
0.0
 40
0.013344801724938
  0
ARC
  5
37BF
  8
0
 10
110.339101228673
 20
7.6833083789723551
 30
0.0
 40
0.0501054059045031
 50
11.839027538334831
 51
165.80787623830659
  0
ARC
  5
37C0
  8
0
 10
110.3395560919884
 20
7.7054562917512319
 30
0.0
 40
0.0500132525109495
 50
191.37414745922709
 51
346.27275631741452
  0
ARC
  5
37C1
  8
0
 10
109.91647796488689
 20
7.7922091787761287
 30
0.0
 40
0.4818629735866355
 50
348.19004395092549
 51
1.225227072518863
  0
ARC
  5
37C2
  8
0
 10
110.7746735054959
 20
7.7782768727375986
 30
0.0
 40
0.4911581478054448
 50
176.86225090738051
 51
189.69159910943159
  0
ARC
  5
37C3
  8
0
 10
110.3131402993327
 20
7.7560592950783258
 30
0.0
 40
0.0645571795445358
 50
178.20016174447491
 51
249.4935455175827
  0
ARC
  5
37C4
  8
0
 10
110.31211910843651
 20
7.7470385324824313
 30
0.0
 40
0.0644580654240128
 50
113.07635863351879
 51
170.13053918677059
  0
ARC
  5
37C5
  8
0
 10
110.33864307192771
 20
7.697875789523315
 30
0.0
 40
0.1201928445460817
 50
62.154559223235943
 51
115.52347074174401
  0
ARC
  5
37C6
  8
0
 10
110.37011651961291
 20
7.7478263086973831
 30
0.0
 40
0.0614899104448313
 50
353.38372579287812
 51
66.349385122071325
  0
ARC
  5
37C7
  8
0
 10
110.36640540801049
 20
7.7566690378746257
 30
0.0
 40
0.0667205063782557
 50
289.01208491157439
 51
346.18896348924198
  0
CIRCLE
  5
37C8
  8
0
 10
110.33794879935991
 20
7.6852458228804386
 30
0.0
 40
0.013344801724938
  0
ARC
  5
37C9
  8
0
 10
110.5797283094666
 20
7.8273518565822862
 30
0.0
 40
0.0501054059045031
 50
11.839027538334831
 51
165.80787623830659
  0
ARC
  5
37CA
  8
0
 10
110.580183172782
 20
7.849499769361163
 30
0.0
 40
0.0500132525109495
 50
191.37414745922709
 51
346.27275631741452
  0
ARC
  5
37CB
  8
0
 10
110.15710504568059
 20
7.9362526563860589
 30
0.0
 40
0.4818629735866355
 50
348.19004395092549
 51
1.225227072518863
  0
ARC
  5
37CC
  8
0
 10
111.0153005862895
 20
7.9223203503475288
 30
0.0
 40
0.4911581478054448
 50
176.86225090738051
 51
189.69159910943159
  0
ARC
  5
37CD
  8
0
 10
110.5537673801263
 20
7.900102772688256
 30
0.0
 40
0.0645571795445358
 50
178.20016174447491
 51
249.4935455175827
  0
ARC
  5
37CE
  8
0
 10
110.55274618923001
 20
7.8910820100923607
 30
0.0
 40
0.0644580654240128
 50
113.07635863351879
 51
170.13053918677059
  0
ARC
  5
37CF
  8
0
 10
110.57927015272131
 20
7.8419192671332461
 30
0.0
 40
0.1201928445460817
 50
62.154559223235943
 51
115.52347074174401
  0
ARC
  5
37D0
  8
0
 10
110.61074360040649
 20
7.8918697863073142
 30
0.0
 40
0.0614899104448313
 50
353.38372579287812
 51
66.349385122071325
  0
ARC
  5
37D1
  8
0
 10
110.60703248880409
 20
7.9007125154845559
 30
0.0
 40
0.0667205063782557
 50
289.01208491157439
 51
346.18896348924198
  0
CIRCLE
  5
37D2
  8
0
 10
110.57857588015349
 20
7.8292893004903661
 30
0.0
 40
0.013344801724938
  0
ARC
  5
37D3
  8
0
 10
110.8605198963
 20
7.9419320171063239
 30
0.0
 40
0.0501054059045031
 50
11.839027538334831
 51
165.80787623830659
  0
ARC
  5
37D4
  8
0
 10
110.8609747596154
 20
7.9640799298852007
 30
0.0
 40
0.0500132525109495
 50
191.37414745922709
 51
346.27275631741452
  0
ARC
  5
37D5
  8
0
 10
110.4378966325139
 20
8.0508328169100984
 30
0.0
 40
0.4818629735866355
 50
348.19004395092549
 51
1.225227072518863
  0
ARC
  5
37D6
  8
0
 10
111.2960921731229
 20
8.0369005108715683
 30
0.0
 40
0.4911581478054448
 50
176.86225090738051
 51
189.69159910943159
  0
ARC
  5
37D7
  8
0
 10
110.8345589669597
 20
8.0146829332122955
 30
0.0
 40
0.0645571795445358
 50
178.20016174447491
 51
249.4935455175827
  0
ARC
  5
37D8
  8
0
 10
110.83353777606339
 20
8.0056621706164002
 30
0.0
 40
0.0644580654240128
 50
113.07635863351879
 51
170.13053918677059
  0
ARC
  5
37D9
  8
0
 10
110.86006173955469
 20
7.9564994276572838
 30
0.0
 40
0.1201928445460817
 50
62.154559223235943
 51
115.52347074174401
  0
ARC
  5
37DA
  8
0
 10
110.8915351872399
 20
8.0064499468313528
 30
0.0
 40
0.0614899104448313
 50
353.38372579287812
 51
66.349385122071325
  0
ARC
  5
37DB
  8
0
 10
110.8878240756375
 20
8.0152926760085954
 30
0.0
 40
0.0667205063782557
 50
289.01208491157439
 51
346.18896348924198
  0
CIRCLE
  5
37DC
  8
0
 10
110.8593674669869
 20
7.9438694610144083
 30
0.0
 40
0.013344801724938
  0
ARC
  5
37DD
  8
0
 10
111.1822519219632
 20
8.016304587237375
 30
0.0
 40
0.0501054059045031
 50
11.839027538334831
 51
165.80787623830659
  0
ARC
  5
37DE
  8
0
 10
111.1827067852785
 20
8.0384525000162483
 30
0.0
 40
0.0500132525109495
 50
191.37414745922709
 51
346.27275631741452
  0
ARC
  5
37DF
  8
0
 10
110.75962865817711
 20
8.1252053870411487
 30
0.0
 40
0.4818629735866355
 50
348.19004395092549
 51
1.225227072518863
  0
ARC
  5
37E0
  8
0
 10
111.617824198786
 20
8.1112730810026186
 30
0.0
 40
0.4911581478054448
 50
176.86225090738051
 51
189.69159910943159
  0
ARC
  5
37E1
  8
0
 10
111.1562909926228
 20
8.0890555033433458
 30
0.0
 40
0.0645571795445358
 50
178.20016174447491
 51
249.4935455175827
  0
ARC
  5
37E2
  8
0
 10
111.1552698017266
 20
8.0800347407474504
 30
0.0
 40
0.0644580654240128
 50
113.07635863351879
 51
170.13053918677059
  0
ARC
  5
37E3
  8
0
 10
111.1817937652178
 20
8.0308719977883332
 30
0.0
 40
0.1201928445460817
 50
62.154559223235943
 51
115.52347074174401
  0
ARC
  5
37E4
  8
0
 10
111.21326721290301
 20
8.0808225169623995
 30
0.0
 40
0.0614899104448313
 50
353.38372579287812
 51
66.349385122071325
  0
ARC
  5
37E5
  8
0
 10
111.20955610130061
 20
8.0896652461396457
 30
0.0
 40
0.0667205063782557
 50
289.01208491157439
 51
346.18896348924198
  0
CIRCLE
  5
37E6
  8
0
 10
111.18109949265001
 20
8.0182420311454532
 30
0.0
 40
0.013344801724938
  0
ARC
  5
37E7
  8
0
 10
111.6813370362983
 20
7.7894948625036511
 30
0.0
 40
0.0501054059045031
 50
11.839027538334831
 51
165.80787623830659
  0
ARC
  5
37E8
  8
0
 10
111.6817918996136
 20
7.8116427752825253
 30
0.0
 40
0.0500132525109495
 50
191.37414745922709
 51
346.27275631741452
  0
ARC
  5
37E9
  8
0
 10
111.2587137725121
 20
7.8983956623074221
 30
0.0
 40
0.4818629735866355
 50
348.19004395092549
 51
1.225227072518863
  0
ARC
  5
37EA
  8
0
 10
112.1169093131211
 20
7.8844633562688946
 30
0.0
 40
0.4911581478054448
 50
176.86225090738051
 51
189.69159910943159
  0
ARC
  5
37EB
  8
0
 10
111.6553761069579
 20
7.8622457786096192
 30
0.0
 40
0.0645571795445358
 50
178.20016174447491
 51
249.4935455175827
  0
ARC
  5
37EC
  8
0
 10
111.65435491606171
 20
7.8532250160137229
 30
0.0
 40
0.0644580654240128
 50
113.07635863351879
 51
170.13053918677059
  0
ARC
  5
37ED
  8
0
 10
111.68087887955291
 20
7.804062273054611
 30
0.0
 40
0.1201928445460817
 50
62.154559223235943
 51
115.52347074174401
  0
ARC
  5
37EE
  8
0
 10
111.71235232723809
 20
7.8540127922286764
 30
0.0
 40
0.0614899104448313
 50
353.38372579287812
 51
66.349385122071325
  0
ARC
  5
37EF
  8
0
 10
111.70864121563569
 20
7.862855521405919
 30
0.0
 40
0.0667205063782557
 50
289.01208491157439
 51
346.18896348924198
  0
CIRCLE
  5
37F0
  8
0
 10
111.68018460698509
 20
7.7914323064117283
 30
0.0
 40
0.013344801724938
  0
ARC
  5
37F1
  8
0
 10
112.227817502128
 20
7.7277522483292493
 30
0.0
 40
0.0501054059045031
 50
11.839027538334831
 51
165.80787623830659
  0
ARC
  5
37F2
  8
0
 10
112.2282723654434
 20
7.7499001611081217
 30
0.0
 40
0.0500132525109495
 50
191.37414745922709
 51
346.27275631741452
  0
ARC
  5
37F3
  8
0
 10
111.805194238342
 20
7.8366530481330221
 30
0.0
 40
0.4818629735866355
 50
348.19004395092549
 51
1.225227072518863
  0
ARC
  5
37F4
  8
0
 10
112.6633897789509
 20
7.822720742094492
 30
0.0
 40
0.4911581478054448
 50
176.86225090738051
 51
189.69159910943159
  0
ARC
  5
37F5
  8
0
 10
112.2018565727877
 20
7.8005031644352201
 30
0.0
 40
0.0645571795445358
 50
178.20016174447491
 51
249.4935455175827
  0
ARC
  5
37F6
  8
0
 10
112.20083538189139
 20
7.7914824018393238
 30
0.0
 40
0.0644580654240128
 50
113.07635863351879
 51
170.13053918677059
  0
ARC
  5
37F7
  8
0
 10
112.22735934538269
 20
7.7423196588802092
 30
0.0
 40
0.1201928445460817
 50
62.154559223235943
 51
115.52347074174401
  0
ARC
  5
37F8
  8
0
 10
112.2588327930679
 20
7.7922701780542729
 30
0.0
 40
0.0614899104448313
 50
353.38372579287812
 51
66.349385122071325
  0
ARC
  5
37F9
  8
0
 10
112.2551216814655
 20
7.8011129072315191
 30
0.0
 40
0.0667205063782557
 50
289.01208491157439
 51
346.18896348924198
  0
CIRCLE
  5
37FA
  8
0
 10
112.2266650728149
 20
7.7296896922373293
 30
0.0
 40
0.013344801724938
  0
ARC
  5
37FB
  8
0
 10
112.67948502562651
 20
7.5524709671261361
 30
0.0
 40
0.0501054059045031
 50
11.839027538334831
 51
165.80787623830659
  0
ARC
  5
37FC
  8
0
 10
112.6799398889418
 20
7.5746188799050129
 30
0.0
 40
0.0500132525109495
 50
191.37414745922709
 51
346.27275631741452
  0
ARC
  5
37FD
  8
0
 10
112.2568617618403
 20
7.6613717669299097
 30
0.0
 40
0.4818629735866355
 50
348.19004395092549
 51
1.225227072518863
  0
ARC
  5
37FE
  8
0
 10
113.1150573024493
 20
7.6474394608913796
 30
0.0
 40
0.4911581478054448
 50
176.86225090738051
 51
189.69159910943159
  0
ARC
  5
37FF
  8
0
 10
112.65352409628611
 20
7.6252218832321068
 30
0.0
 40
0.0645571795445358
 50
178.20016174447491
 51
249.4935455175827
  0
ARC
  5
3800
  8
0
 10
112.65250290538989
 20
7.6162011206362124
 30
0.0
 40
0.0644580654240128
 50
113.07635863351879
 51
170.13053918677059
  0
ARC
  5
3801
  8
0
 10
112.6790268688811
 20
7.567038377677096
 30
0.0
 40
0.1201928445460817
 50
62.154559223235943
 51
115.52347074174401
  0
ARC
  5
3802
  8
0
 10
112.7105003165663
 20
7.6169888968511641
 30
0.0
 40
0.0614899104448313
 50
353.38372579287812
 51
66.349385122071325
  0
ARC
  5
3803
  8
0
 10
112.7067892049639
 20
7.6258316260284067
 30
0.0
 40
0.0667205063782557
 50
289.01208491157439
 51
346.18896348924198
  0
CIRCLE
  5
3804
  8
0
 10
112.6783325963133
 20
7.554408411034216
 30
0.0
 40
0.013344801724938
  0
ARC
  5
3805
  8
0
 10
112.9747206408581
 20
7.2890902582294324
 30
0.0
 40
0.0501054059045031
 50
11.839027538334831
 51
165.80787623830659
  0
ARC
  5
3806
  8
0
 10
112.97517550417339
 20
7.3112381710083048
 30
0.0
 40
0.0500132525109495
 50
191.37414745922709
 51
346.27275631741452
  0
ARC
  5
3807
  8
0
 10
112.552097377072
 20
7.3979910580332016
 30
0.0
 40
0.4818629735866355
 50
348.19004395092549
 51
1.225227072518863
  0
ARC
  5
3808
  8
0
 10
113.41029291768091
 20
7.384058751994675
 30
0.0
 40
0.4911581478054448
 50
176.86225090738051
 51
189.69159910943159
  0
ARC
  5
3809
  8
0
 10
112.9487597115177
 20
7.3618411743353986
 30
0.0
 40
0.0645571795445358
 50
178.20016174447491
 51
249.4935455175827
  0
ARC
  5
380A
  8
0
 10
112.9477385206215
 20
7.3528204117395042
 30
0.0
 40
0.0644580654240128
 50
113.07635863351879
 51
170.13053918677059
  0
ARC
  5
380B
  8
0
 10
112.9742624841127
 20
7.3036576687803922
 30
0.0
 40
0.1201928445460817
 50
62.154559223235943
 51
115.52347074174401
  0
ARC
  5
380C
  8
0
 10
113.0057359317979
 20
7.3536081879544559
 30
0.0
 40
0.0614899104448313
 50
353.38372579287812
 51
66.349385122071325
  0
ARC
  5
380D
  8
0
 10
113.0020248201955
 20
7.3624509171316994
 30
0.0
 40
0.0667205063782557
 50
289.01208491157439
 51
346.18896348924198
  0
CIRCLE
  5
380E
  8
0
 10
112.9735682115449
 20
7.2910277021375123
 30
0.0
 40
0.013344801724938
  0
ARC
  5
380F
  8
0
 10
113.07775455959541
 20
6.9779351377193981
 30
0.0
 40
0.0501054059045031
 50
11.839027538334831
 51
165.80787623830659
  0
ARC
  5
3810
  8
0
 10
113.0782094229108
 20
7.0000830504982723
 30
0.0
 40
0.0500132525109495
 50
191.37414745922709
 51
346.27275631741452
  0
ARC
  5
3811
  8
0
 10
112.6551312958093
 20
7.0868359375231691
 30
0.0
 40
0.4818629735866355
 50
348.19004395092549
 51
1.225227072518863
  0
ARC
  5
3812
  8
0
 10
113.5133268364183
 20
7.0729036314846416
 30
0.0
 40
0.4911581478054448
 50
176.86225090738051
 51
189.69159910943159
  0
ARC
  5
3813
  8
0
 10
113.05179363025501
 20
7.0506860538253662
 30
0.0
 40
0.0645571795445358
 50
178.20016174447491
 51
249.4935455175827
  0
ARC
  5
3814
  8
0
 10
113.05077243935879
 20
7.0416652912294699
 30
0.0
 40
0.0644580654240128
 50
113.07635863351879
 51
170.13053918677059
  0
ARC
  5
3815
  8
0
 10
113.0772964028501
 20
6.992502548270358
 30
0.0
 40
0.1201928445460817
 50
62.154559223235943
 51
115.52347074174401
  0
ARC
  5
3816
  8
0
 10
113.1087698505352
 20
7.0424530674444226
 30
0.0
 40
0.0614899104448313
 50
353.38372579287812
 51
66.349385122071325
  0
ARC
  5
3817
  8
0
 10
113.1050587389329
 20
7.0512957966216661
 30
0.0
 40
0.0667205063782557
 50
289.01208491157439
 51
346.18896348924198
  0
CIRCLE
  5
3818
  8
0
 10
113.0766021302822
 20
6.9798725816274754
 30
0.0
 40
0.013344801724938
  0
ARC
  5
3819
  8
0
 10
112.9695994508707
 20
6.666610928771302
 30
0.0
 40
0.0501054059045031
 50
11.839027538334831
 51
165.80787623830659
  0
ARC
  5
381A
  8
0
 10
112.970054314186
 20
6.6887588415501753
 30
0.0
 40
0.0500132525109495
 50
191.37414745922709
 51
346.27275631741452
  0
ARC
  5
381B
  8
0
 10
112.5469761870846
 20
6.7755117285750748
 30
0.0
 40
0.4818629735866355
 50
348.19004395092549
 51
1.225227072518863
  0
ARC
  5
381C
  8
0
 10
113.4051717276935
 20
6.7615794225365446
 30
0.0
 40
0.4911581478054448
 50
176.86225090738051
 51
189.69159910943159
  0
ARC
  5
381D
  8
0
 10
112.9436385215303
 20
6.7393618448772719
 30
0.0
 40
0.0645571795445358
 50
178.20016174447491
 51
249.4935455175827
  0
ARC
  5
381E
  8
0
 10
112.94261733063411
 20
6.7303410822813774
 30
0.0
 40
0.0644580654240128
 50
113.07635863351879
 51
170.13053918677059
  0
ARC
  5
381F
  8
0
 10
112.96914129412529
 20
6.681178339322261
 30
0.0
 40
0.1201928445460817
 50
62.154559223235943
 51
115.52347074174401
  0
ARC
  5
3820
  8
0
 10
113.00061474181049
 20
6.7311288584963256
 30
0.0
 40
0.0614899104448313
 50
353.38372579287812
 51
66.349385122071325
  0
ARC
  5
3821
  8
0
 10
112.9969036302081
 20
6.7399715876735717
 30
0.0
 40
0.0667205063782557
 50
289.01208491157439
 51
346.18896348924198
  0
CIRCLE
  5
3822
  8
0
 10
112.96844702155749
 20
6.6685483726793811
 30
0.0
 40
0.013344801724938
  0
ARC
  5
3823
  8
0
 10
112.6664665779696
 20
6.4027286317069461
 30
0.0
 40
0.0501054059045031
 50
11.839027538334831
 51
165.80787623830659
  0
ARC
  5
3824
  8
0
 10
112.666921441285
 20
6.424876544485822
 30
0.0
 40
0.0500132525109495
 50
191.37414745922709
 51
346.27275631741452
  0
ARC
  5
3825
  8
0
 10
112.24384331418349
 20
6.5116294315107188
 30
0.0
 40
0.4818629735866355
 50
348.19004395092549
 51
1.225227072518863
  0
ARC
  5
3826
  8
0
 10
113.1020388547925
 20
6.4976971254721887
 30
0.0
 40
0.4911581478054448
 50
176.86225090738051
 51
189.69159910943159
  0
ARC
  5
3827
  8
0
 10
112.6405056486293
 20
6.4754795478129159
 30
0.0
 40
0.0645571795445358
 50
178.20016174447491
 51
249.4935455175827
  0
ARC
  5
3828
  8
0
 10
112.639484457733
 20
6.4664587852170214
 30
0.0
 40
0.0644580654240128
 50
113.07635863351879
 51
170.13053918677059
  0
ARC
  5
3829
  8
0
 10
112.6660084212243
 20
6.4172960422579051
 30
0.0
 40
0.1201928445460817
 50
62.154559223235943
 51
115.52347074174401
  0
ARC
  5
382A
  8
0
 10
112.69748186890951
 20
6.4672465614319741
 30
0.0
 40
0.0614899104448313
 50
353.38372579287812
 51
66.349385122071325
  0
ARC
  5
382B
  8
0
 10
112.69377075730711
 20
6.4760892906092158
 30
0.0
 40
0.0667205063782557
 50
289.01208491157439
 51
346.18896348924198
  0
CIRCLE
  5
382C
  8
0
 10
112.66531414865651
 20
6.4046660756150251
 30
0.0
 40
0.013344801724938
  0
ARC
  5
382D
  8
0
 10
112.21803406407879
 20
6.2266911829680964
 30
0.0
 40
0.0501054059045031
 50
11.839027538334831
 51
165.80787623830659
  0
ARC
  5
382E
  8
0
 10
112.2184889273942
 20
6.2488390957469733
 30
0.0
 40
0.0500132525109495
 50
191.37414745922709
 51
346.27275631741452
  0
ARC
  5
382F
  8
0
 10
111.7954108002927
 20
6.3355919827718701
 30
0.0
 40
0.4818629735866355
 50
348.19004395092549
 51
1.225227072518863
  0
ARC
  5
3830
  8
0
 10
112.6536063409017
 20
6.3216596767333391
 30
0.0
 40
0.4911581478054448
 50
176.86225090738051
 51
189.69159910943159
  0
ARC
  5
3831
  8
0
 10
112.19207313473839
 20
6.2994420990740672
 30
0.0
 40
0.0645571795445358
 50
178.20016174447491
 51
249.4935455175827
  0
ARC
  5
3832
  8
0
 10
112.1910519438422
 20
6.2904213364781709
 30
0.0
 40
0.0644580654240128
 50
113.07635863351879
 51
170.13053918677059
  0
ARC
  5
3833
  8
0
 10
112.2175759073335
 20
6.2412585935190563
 30
0.0
 40
0.1201928445460817
 50
62.154559223235943
 51
115.52347074174401
  0
ARC
  5
3834
  8
0
 10
112.2490493550187
 20
6.2912091126931244
 30
0.0
 40
0.0614899104448313
 50
353.38372579287812
 51
66.349385122071325
  0
ARC
  5
3835
  8
0
 10
112.2453382434163
 20
6.300051841870367
 30
0.0
 40
0.0667205063782557
 50
289.01208491157439
 51
346.18896348924198
  0
CIRCLE
  5
3836
  8
0
 10
112.2168816347657
 20
6.228628626876179
 30
0.0
 40
0.013344801724938
  0
ARC
  5
3837
  8
0
 10
111.681356391973
 20
6.1646215974723582
 30
0.0
 40
0.0501054059045031
 50
11.839027538334831
 51
165.80787623830659
  0
ARC
  5
3838
  8
0
 10
111.68181125528839
 20
6.1867695102512306
 30
0.0
 40
0.0500132525109495
 50
191.37414745922709
 51
346.27275631741452
  0
ARC
  5
3839
  8
0
 10
111.2587331281869
 20
6.2735223972761283
 30
0.0
 40
0.4818629735866355
 50
348.19004395092549
 51
1.225227072518863
  0
ARC
  5
383A
  8
0
 10
112.11692866879589
 20
6.2595900912376008
 30
0.0
 40
0.4911581478054448
 50
176.86225090738051
 51
189.69159910943159
  0
ARC
  5
383B
  8
0
 10
111.6553954626327
 20
6.2373725135783253
 30
0.0
 40
0.0645571795445358
 50
178.20016174447491
 51
249.4935455175827
  0
ARC
  5
383C
  8
0
 10
111.6543742717365
 20
6.2283517509824291
 30
0.0
 40
0.0644580654240128
 50
113.07635863351879
 51
170.13053918677059
  0
ARC
  5
383D
  8
0
 10
111.6808982352277
 20
6.1791890080233181
 30
0.0
 40
0.1201928445460817
 50
62.154559223235943
 51
115.52347074174401
  0
ARC
  5
383E
  8
0
 10
111.7123716829129
 20
6.2291395271973817
 30
0.0
 40
0.0614899104448313
 50
353.38372579287812
 51
66.349385122071325
  0
ARC
  5
383F
  8
0
 10
111.7086605713105
 20
6.2379822563746252
 30
0.0
 40
0.0667205063782557
 50
289.01208491157439
 51
346.18896348924198
  0
CIRCLE
  5
3840
  8
0
 10
111.6802039626599
 20
6.1665590413804381
 30
0.0
 40
0.013344801724938
  0
ARC
  5
3841
  8
0
 10
111.14531261445759
 20
6.226663152529607
 30
0.0
 40
0.0501054059045031
 50
11.839027538334831
 51
165.80787623830659
  0
ARC
  5
3842
  8
0
 10
111.14576747777301
 20
6.2488110653084803
 30
0.0
 40
0.0500132525109495
 50
191.37414745922709
 51
346.27275631741452
  0
ARC
  5
3843
  8
0
 10
110.7226893506715
 20
6.3355639523333771
 30
0.0
 40
0.4818629735866355
 50
348.19004395092549
 51
1.225227072518863
  0
ARC
  5
3844
  8
0
 10
111.5808848912805
 20
6.3216316462948496
 30
0.0
 40
0.4911581478054448
 50
176.86225090738051
 51
189.69159910943159
  0
ARC
  5
3845
  8
0
 10
111.11935168511729
 20
6.2994140686355742
 30
0.0
 40
0.0645571795445358
 50
178.20016174447491
 51
249.4935455175827
  0
ARC
  5
3846
  8
0
 10
111.118330494221
 20
6.2903933060396779
 30
0.0
 40
0.0644580654240128
 50
113.07635863351879
 51
170.13053918677059
  0
ARC
  5
3847
  8
0
 10
111.1448544577123
 20
6.241230563080566
 30
0.0
 40
0.1201928445460817
 50
62.154559223235943
 51
115.52347074174401
  0
ARC
  5
3848
  8
0
 10
111.1763279053975
 20
6.2911810822546306
 30
0.0
 40
0.0614899104448313
 50
353.38372579287812
 51
66.349385122071325
  0
ARC
  5
3849
  8
0
 10
111.1726167937951
 20
6.3000238114318741
 30
0.0
 40
0.0667205063782557
 50
289.01208491157439
 51
346.18896348924198
  0
CIRCLE
  5
384A
  8
0
 10
111.1441601851445
 20
6.228600596437686
 30
0.0
 40
0.013344801724938
  0
ARC
  5
384B
  8
0
 10
111.499192766973
 20
6.3502002674723563
 30
0.0
 40
0.0501054059045031
 50
11.839027538334831
 51
165.80787623830659
  0
ARC
  5
384C
  8
0
 10
111.49964763028839
 20
6.3723481802512332
 30
0.0
 40
0.0500132525109495
 50
191.37414745922709
 51
346.27275631741452
  0
ARC
  5
384D
  8
0
 10
111.076569503187
 20
6.4591010672761291
 30
0.0
 40
0.4818629735866355
 50
348.19004395092549
 51
1.225227072518863
  0
ARC
  5
384E
  8
0
 10
111.93476504379591
 20
6.445168761237599
 30
0.0
 40
0.4911581478054448
 50
176.86225090738051
 51
189.69159910943159
  0
ARC
  5
384F
  8
0
 10
111.4732318376327
 20
6.4229511835783271
 30
0.0
 40
0.0645571795445358
 50
178.20016174447491
 51
249.4935455175827
  0
ARC
  5
3850
  8
0
 10
111.4722106467364
 20
6.4139304209824308
 30
0.0
 40
0.0644580654240128
 50
113.07635863351879
 51
170.13053918677059
  0
ARC
  5
3851
  8
0
 10
111.4987346102277
 20
6.3647676780233162
 30
0.0
 40
0.1201928445460817
 50
62.154559223235943
 51
115.52347074174401
  0
ARC
  5
3852
  8
0
 10
111.5302080579129
 20
6.4147181971973843
 30
0.0
 40
0.0614899104448313
 50
353.38372579287812
 51
66.349385122071325
  0
ARC
  5
3853
  8
0
 10
111.5264969463105
 20
6.4235609263746261
 30
0.0
 40
0.0667205063782557
 50
289.01208491157439
 51
346.18896348924198
  0
CIRCLE
  5
3854
  8
0
 10
111.4980403376599
 20
6.3521377113804363
 30
0.0
 40
0.013344801724938
  0
ARC
  5
3855
  8
0
 10
111.109569965478
 20
6.4414832096708423
 30
0.0
 40
0.0501054059045031
 50
11.839027538334831
 51
165.80787623830659
  0
ARC
  5
3856
  8
0
 10
111.1100248287933
 20
6.4636311224497192
 30
0.0
 40
0.0500132525109495
 50
191.37414745922709
 51
346.27275631741452
  0
ARC
  5
3857
  8
0
 10
110.68694670169189
 20
6.5503840094746151
 30
0.0
 40
0.4818629735866355
 50
348.19004395092549
 51
1.225227072518863
  0
ARC
  5
3858
  8
0
 10
111.5451422423008
 20
6.5364517034360849
 30
0.0
 40
0.4911581478054448
 50
176.86225090738051
 51
189.69159910943159
  0
ARC
  5
3859
  8
0
 10
111.0836090361376
 20
6.514234125776813
 30
0.0
 40
0.0645571795445358
 50
178.20016174447491
 51
249.4935455175827
  0
ARC
  5
385A
  8
0
 10
111.08258784524141
 20
6.5052133631809168
 30
0.0
 40
0.0644580654240128
 50
113.07635863351879
 51
170.13053918677059
  0
ARC
  5
385B
  8
0
 10
111.10911180873271
 20
6.4560506202218022
 30
0.0
 40
0.1201928445460817
 50
62.154559223235943
 51
115.52347074174401
  0
ARC
  5
385C
  8
0
 10
111.14058525641779
 20
6.5060011393958703
 30
0.0
 40
0.0614899104448313
 50
353.38372579287812
 51
66.349385122071325
  0
ARC
  5
385D
  8
0
 10
111.13687414481549
 20
6.514843868573112
 30
0.0
 40
0.0667205063782557
 50
289.01208491157439
 51
346.18896348924198
  0
CIRCLE
  5
385E
  8
0
 10
111.10841753616479
 20
6.4434206535789249
 30
0.0
 40
0.013344801724938
  0
ARC
  5
385F
  8
0
 10
110.6945788962576
 20
6.4029046991725522
 30
0.0
 40
0.0501054059045031
 50
11.839027538334831
 51
165.80787623830659
  0
ARC
  5
3860
  8
0
 10
110.69503375957289
 20
6.4250526119514246
 30
0.0
 40
0.0500132525109495
 50
191.37414745922709
 51
346.27275631741452
  0
ARC
  5
3861
  8
0
 10
110.2719556324715
 20
6.5118054989763223
 30
0.0
 40
0.4818629735866355
 50
348.19004395092549
 51
1.225227072518863
  0
ARC
  5
3862
  8
0
 10
111.13015117308041
 20
6.4978731929377949
 30
0.0
 40
0.4911581478054448
 50
176.86225090738051
 51
189.69159910943159
  0
ARC
  5
3863
  8
0
 10
110.6686179669172
 20
6.4756556152785194
 30
0.0
 40
0.0645571795445358
 50
178.20016174447491
 51
249.4935455175827
  0
ARC
  5
3864
  8
0
 10
110.667596776021
 20
6.4666348526826241
 30
0.0
 40
0.0644580654240128
 50
113.07635863351879
 51
170.13053918677059
  0
ARC
  5
3865
  8
0
 10
110.6941207395123
 20
6.4174721097235121
 30
0.0
 40
0.1201928445460817
 50
62.154559223235943
 51
115.52347074174401
  0
ARC
  5
3866
  8
0
 10
110.7255941871974
 20
6.4674226288975758
 30
0.0
 40
0.0614899104448313
 50
353.38372579287812
 51
66.349385122071325
  0
ARC
  5
3867
  8
0
 10
110.721883075595
 20
6.4762653580748193
 30
0.0
 40
0.0667205063782557
 50
289.01208491157439
 51
346.18896348924198
  0
CIRCLE
  5
3868
  8
0
 10
110.6934264669444
 20
6.4048421430806322
 30
0.0
 40
0.013344801724938
  0
ARC
  5
3869
  8
0
 10
110.8428282490558
 20
6.6032999445810141
 30
0.0
 40
0.0501054059045031
 50
11.839027538334831
 51
165.80787623830659
  0
ARC
  5
386A
  8
0
 10
110.8432831123711
 20
6.6254478573598874
 30
0.0
 40
0.0500132525109495
 50
191.37414745922709
 51
346.27275631741452
  0
ARC
  5
386B
  8
0
 10
110.42020498526961
 20
6.7122007443847842
 30
0.0
 40
0.4818629735866355
 50
348.19004395092549
 51
1.225227072518863
  0
ARC
  5
386C
  8
0
 10
111.2784005258786
 20
6.6982684383462567
 30
0.0
 40
0.4911581478054448
 50
176.86225090738051
 51
189.69159910943159
  0
ARC
  5
386D
  8
0
 10
110.8168673197154
 20
6.6760508606869813
 30
0.0
 40
0.0645571795445358
 50
178.20016174447491
 51
249.4935455175827
  0
ARC
  5
386E
  8
0
 10
110.8158461288192
 20
6.667030098091085
 30
0.0
 40
0.0644580654240128
 50
113.07635863351879
 51
170.13053918677059
  0
ARC
  5
386F
  8
0
 10
110.8423700923104
 20
6.6178673551319731
 30
0.0
 40
0.1201928445460817
 50
62.154559223235943
 51
115.52347074174401
  0
ARC
  5
3870
  8
0
 10
110.8738435399956
 20
6.6678178743060377
 30
0.0
 40
0.0614899104448313
 50
353.38372579287812
 51
66.349385122071325
  0
ARC
  5
3871
  8
0
 10
110.87013242839321
 20
6.6766606034832812
 30
0.0
 40
0.0667205063782557
 50
289.01208491157439
 51
346.18896348924198
  0
CIRCLE
  5
3872
  8
0
 10
110.8416758197426
 20
6.605237388489094
 30
0.0
 40
0.013344801724938
  0
ARC
  5
3873
  8
0
 10
110.393934909005
 20
6.666498689429786
 30
0.0
 40
0.0501054059045031
 50
11.839027538334831
 51
165.80787623830659
  0
ARC
  5
3874
  8
0
 10
110.3943897723203
 20
6.6886466022086628
 30
0.0
 40
0.0500132525109495
 50
191.37414745922709
 51
346.27275631741452
  0
ARC
  5
3875
  8
0
 10
109.9713116452189
 20
6.7753994892335561
 30
0.0
 40
0.4818629735866355
 50
348.19004395092549
 51
1.225227072518863
  0
ARC
  5
3876
  8
0
 10
110.82950718582779
 20
6.7614671831950304
 30
0.0
 40
0.4911581478054448
 50
176.86225090738051
 51
189.69159910943159
  0
ARC
  5
3877
  8
0
 10
110.3679739796646
 20
6.739249605535754
 30
0.0
 40
0.0645571795445358
 50
178.20016174447491
 51
249.4935455175827
  0
ARC
  5
3878
  8
0
 10
110.3669527887684
 20
6.7302288429398578
 30
0.0
 40
0.0644580654240128
 50
113.07635863351879
 51
170.13053918677059
  0
ARC
  5
3879
  8
0
 10
110.3934767522597
 20
6.6810660999807459
 30
0.0
 40
0.1201928445460817
 50
62.154559223235943
 51
115.52347074174401
  0
ARC
  5
387A
  8
0
 10
110.4249501999448
 20
6.731016619154814
 30
0.0
 40
0.0614899104448313
 50
353.38372579287812
 51
66.349385122071325
  0
ARC
  5
387B
  8
0
 10
110.4212390883424
 20
6.739859348332053
 30
0.0
 40
0.0667205063782557
 50
289.01208491157439
 51
346.18896348924198
  0
CIRCLE
  5
387C
  8
0
 10
110.3927824796919
 20
6.6684361333378659
 30
0.0
 40
0.013344801724938
  0
ARC
  5
387D
  8
0
 10
110.6881993721388
 20
6.8179202850015912
 30
0.0
 40
0.0501054059045031
 50
11.839027538334831
 51
165.80787623830659
  0
ARC
  5
387E
  8
0
 10
110.68865423545419
 20
6.8400681977804636
 30
0.0
 40
0.0500132525109495
 50
191.37414745922709
 51
346.27275631741452
  0
ARC
  5
387F
  8
0
 10
110.2655761083527
 20
6.9268210848053613
 30
0.0
 40
0.4818629735866355
 50
348.19004395092549
 51
1.225227072518863
  0
ARC
  5
3880
  8
0
 10
111.12377164896169
 20
6.9128887787668338
 30
0.0
 40
0.4911581478054448
 50
176.86225090738051
 51
189.69159910943159
  0
ARC
  5
3881
  8
0
 10
110.6622384427984
 20
6.8906712011075584
 30
0.0
 40
0.0645571795445358
 50
178.20016174447491
 51
249.4935455175827
  0
ARC
  5
3882
  8
0
 10
110.6612172519022
 20
6.881650438511663
 30
0.0
 40
0.0644580654240128
 50
113.07635863351879
 51
170.13053918677059
  0
ARC
  5
3883
  8
0
 10
110.6877412153935
 20
6.8324876955525511
 30
0.0
 40
0.1201928445460817
 50
62.154559223235943
 51
115.52347074174401
  0
ARC
  5
3884
  8
0
 10
110.7192146630787
 20
6.8824382147266148
 30
0.0
 40
0.0614899104448313
 50
353.38372579287812
 51
66.349385122071325
  0
ARC
  5
3885
  8
0
 10
110.7155035514763
 20
6.8912809439038583
 30
0.0
 40
0.0667205063782557
 50
289.01208491157439
 51
346.18896348924198
  0
CIRCLE
  5
3886
  8
0
 10
110.6870469428257
 20
6.8198577289096711
 30
0.0
 40
0.013344801724938
  0
ARC
  5
3887
  8
0
 10
110.3058779799687
 20
6.9738386213802883
 30
0.0
 40
0.0501054059045031
 50
11.839027538334831
 51
165.80787623830659
  0
ARC
  5
3888
  8
0
 10
110.306332843284
 20
6.9959865341591652
 30
0.0
 40
0.0500132525109495
 50
191.37414745922709
 51
346.27275631741452
  0
ARC
  5
3889
  8
0
 10
109.88325471618261
 20
7.0827394211840611
 30
0.0
 40
0.4818629735866355
 50
348.19004395092549
 51
1.225227072518863
  0
ARC
  5
388A
  8
0
 10
110.7414502567915
 20
7.068807115145531
 30
0.0
 40
0.4911581478054448
 50
176.86225090738051
 51
189.69159910943159
  0
ARC
  5
388B
  8
0
 10
110.2799170506283
 20
7.046589537486259
 30
0.0
 40
0.0645571795445358
 50
178.20016174447491
 51
249.4935455175827
  0
ARC
  5
388C
  8
0
 10
110.2788958597321
 20
7.0375687748903628
 30
0.0
 40
0.0644580654240128
 50
113.07635863351879
 51
170.13053918677059
  0
ARC
  5
388D
  8
0
 10
110.3054198232233
 20
6.9884060319312482
 30
0.0
 40
0.1201928445460817
 50
62.154559223235943
 51
115.52347074174401
  0
ARC
  5
388E
  8
0
 10
110.3368932709085
 20
7.0383565511053163
 30
0.0
 40
0.0614899104448313
 50
353.38372579287812
 51
66.349385122071325
  0
ARC
  5
388F
  8
0
 10
110.33318215930611
 20
7.047199280282558
 30
0.0
 40
0.0667205063782557
 50
289.01208491157439
 51
346.18896348924198
  0
CIRCLE
  5
3890
  8
0
 10
110.3047255506555
 20
6.9757760652883682
 30
0.0
 40
0.013344801724938
  0
ARC
  5
3891
  8
0
 10
110.685953140008
 20
7.0498500964523769
 30
0.0
 40
0.0501054059045031
 50
11.839027538334831
 51
165.80787623830659
  0
ARC
  5
3892
  8
0
 10
110.68640800332339
 20
7.0719980092312511
 30
0.0
 40
0.0500132525109495
 50
191.37414745922709
 51
346.27275631741452
  0
ARC
  5
3893
  8
0
 10
110.263329876222
 20
7.1587508962561506
 30
0.0
 40
0.4818629735866355
 50
348.19004395092549
 51
1.225227072518863
  0
ARC
  5
3894
  8
0
 10
111.12152541683091
 20
7.1448185902176213
 30
0.0
 40
0.4911581478054448
 50
176.86225090738051
 51
189.69159910943159
  0
ARC
  5
3895
  8
0
 10
110.6599922106677
 20
7.1226010125583477
 30
0.0
 40
0.0645571795445358
 50
178.20016174447491
 51
249.4935455175827
  0
ARC
  5
3896
  8
0
 10
110.6589710197715
 20
7.1135802499624532
 30
0.0
 40
0.0644580654240128
 50
113.07635863351879
 51
170.13053918677059
  0
ARC
  5
3897
  8
0
 10
110.6854949832627
 20
7.0644175070033368
 30
0.0
 40
0.1201928445460817
 50
62.154559223235943
 51
115.52347074174401
  0
ARC
  5
3898
  8
0
 10
110.7169684309479
 20
7.1143680261774023
 30
0.0
 40
0.0614899104448313
 50
353.38372579287812
 51
66.349385122071325
  0
ARC
  5
3899
  8
0
 10
110.7132573193455
 20
7.1232107553546484
 30
0.0
 40
0.0667205063782557
 50
289.01208491157439
 51
346.18896348924198
  0
CIRCLE
  5
389A
  8
0
 10
110.6848007106949
 20
7.0517875403604569
 30
0.0
 40
0.013344801724938
  0
ARC
  5
389B
  8
0
 10
111.0475277456604
 20
6.902226154023281
 30
0.0
 40
0.0501054059045031
 50
11.839027538334831
 51
165.80787623830659
  0
ARC
  5
389C
  8
0
 10
111.0479826089758
 20
6.9243740668021552
 30
0.0
 40
0.0500132525109495
 50
191.37414745922709
 51
346.27275631741452
  0
ARC
  5
389D
  8
0
 10
110.6249044818743
 20
7.0111269538270511
 30
0.0
 40
0.4818629735866355
 50
348.19004395092549
 51
1.225227072518863
  0
ARC
  5
389E
  8
0
 10
111.4831000224833
 20
6.9971946477885254
 30
0.0
 40
0.4911581478054448
 50
176.86225090738051
 51
189.69159910943159
  0
ARC
  5
389F
  8
0
 10
111.02156681632
 20
6.9749770701292491
 30
0.0
 40
0.0645571795445358
 50
178.20016174447491
 51
249.4935455175827
  0
ARC
  5
38A0
  8
0
 10
111.02054562542379
 20
6.9659563075333528
 30
0.0
 40
0.0644580654240128
 50
113.07635863351879
 51
170.13053918677059
  0
ARC
  5
38A1
  8
0
 10
111.04706958891509
 20
6.9167935645742409
 30
0.0
 40
0.1201928445460817
 50
62.154559223235943
 51
115.52347074174401
  0
ARC
  5
38A2
  8
0
 10
111.07854303660029
 20
6.9667440837483063
 30
0.0
 40
0.0614899104448313
 50
353.38372579287812
 51
66.349385122071325
  0
ARC
  5
38A3
  8
0
 10
111.07483192499789
 20
6.9755868129255481
 30
0.0
 40
0.0667205063782557
 50
289.01208491157439
 51
346.18896348924198
  0
CIRCLE
  5
38A4
  8
0
 10
111.04637531634729
 20
6.9041635979313609
 30
0.0
 40
0.013344801724938
  0
ARC
  5
38A5
  8
0
 10
110.41781283841939
 20
7.2832988897614683
 30
0.0
 40
0.0501054059045031
 50
11.839027538334831
 51
165.80787623830659
  0
ARC
  5
38A6
  8
0
 10
110.41826770173471
 20
7.3054468025403452
 30
0.0
 40
0.0500132525109495
 50
191.37414745922709
 51
346.27275631741452
  0
ARC
  5
38A7
  8
0
 10
109.9951895746333
 20
7.3921996895652384
 30
0.0
 40
0.4818629735866355
 50
348.19004395092549
 51
1.225227072518863
  0
ARC
  5
38A8
  8
0
 10
110.8533851152422
 20
7.378267383526711
 30
0.0
 40
0.4911581478054448
 50
176.86225090738051
 51
189.69159910943159
  0
ARC
  5
38A9
  8
0
 10
110.39185190907899
 20
7.3560498058674346
 30
0.0
 40
0.0645571795445358
 50
178.20016174447491
 51
249.4935455175827
  0
ARC
  5
38AA
  8
0
 10
110.3908307181828
 20
7.3470290432715402
 30
0.0
 40
0.0644580654240128
 50
113.07635863351879
 51
170.13053918677059
  0
ARC
  5
38AB
  8
0
 10
110.417354681674
 20
7.2978663003124282
 30
0.0
 40
0.1201928445460817
 50
62.154559223235943
 51
115.52347074174401
  0
ARC
  5
38AC
  8
0
 10
110.4488281293592
 20
7.3478168194864963
 30
0.0
 40
0.0614899104448313
 50
353.38372579287812
 51
66.349385122071325
  0
ARC
  5
38AD
  8
0
 10
110.4451170177568
 20
7.3566595486637354
 30
0.0
 40
0.0667205063782557
 50
289.01208491157439
 51
346.18896348924198
  0
CIRCLE
  5
38AE
  8
0
 10
110.4166604091062
 20
7.2852363336695483
 30
0.0
 40
0.013344801724938
  0
ARC
  5
38AF
  8
0
 10
110.85206828091221
 20
7.2609667954826733
 30
0.0
 40
0.0501054059045031
 50
11.839027538334831
 51
165.80787623830659
  0
ARC
  5
38B0
  8
0
 10
110.8525231442276
 20
7.2831147082615502
 30
0.0
 40
0.0500132525109495
 50
191.37414745922709
 51
346.27275631741452
  0
ARC
  5
38B1
  8
0
 10
110.4294450171262
 20
7.3698675952864434
 30
0.0
 40
0.4818629735866355
 50
348.19004395092549
 51
1.225227072518863
  0
ARC
  5
38B2
  8
0
 10
111.2876405577351
 20
7.355935289247916
 30
0.0
 40
0.4911581478054448
 50
176.86225090738051
 51
189.69159910943159
  0
ARC
  5
38B3
  8
0
 10
110.82610735157191
 20
7.3337177115886396
 30
0.0
 40
0.0645571795445358
 50
178.20016174447491
 51
249.4935455175827
  0
ARC
  5
38B4
  8
0
 10
110.8250861606757
 20
7.3246969489927451
 30
0.0
 40
0.0644580654240128
 50
113.07635863351879
 51
170.13053918677059
  0
ARC
  5
38B5
  8
0
 10
110.8516101241669
 20
7.2755342060336332
 30
0.0
 40
0.1201928445460817
 50
62.154559223235943
 51
115.52347074174401
  0
ARC
  5
38B6
  8
0
 10
110.8830835718521
 20
7.3254847252077013
 30
0.0
 40
0.0614899104448313
 50
353.38372579287812
 51
66.349385122071325
  0
ARC
  5
38B7
  8
0
 10
110.8793724602497
 20
7.3343274543849404
 30
0.0
 40
0.0667205063782557
 50
289.01208491157439
 51
346.18896348924198
  0
CIRCLE
  5
38B8
  8
0
 10
110.8509158515991
 20
7.2629042393907532
 30
0.0
 40
0.013344801724938
  0
ARC
  5
38B9
  8
0
 10
110.71203752934061
 20
7.5493711785682152
 30
0.0
 40
0.0501054059045031
 50
11.839027538334831
 51
165.80787623830659
  0
ARC
  5
38BA
  8
0
 10
110.7124923926559
 20
7.571519091347092
 30
0.0
 40
0.0500132525109495
 50
191.37414745922709
 51
346.27275631741452
  0
ARC
  5
38BB
  8
0
 10
110.2894142655545
 20
7.6582719783719879
 30
0.0
 40
0.4818629735866355
 50
348.19004395092549
 51
1.225227072518863
  0
ARC
  5
38BC
  8
0
 10
111.1476098061635
 20
7.6443396723334578
 30
0.0
 40
0.4911581478054448
 50
176.86225090738051
 51
189.69159910943159
  0
ARC
  5
38BD
  8
0
 10
110.68607660000021
 20
7.622122094674185
 30
0.0
 40
0.0645571795445358
 50
178.20016174447491
 51
249.4935455175827
  0
ARC
  5
38BE
  8
0
 10
110.685055409104
 20
7.6131013320782897
 30
0.0
 40
0.0644580654240128
 50
113.07635863351879
 51
170.13053918677059
  0
ARC
  5
38BF
  8
0
 10
110.7115793725953
 20
7.563938589119175
 30
0.0
 40
0.1201928445460817
 50
62.154559223235943
 51
115.52347074174401
  0
ARC
  5
38C0
  8
0
 10
110.7430528202804
 20
7.6138891082932432
 30
0.0
 40
0.0614899104448313
 50
353.38372579287812
 51
66.349385122071325
  0
ARC
  5
38C1
  8
0
 10
110.7393417086781
 20
7.6227318374704849
 30
0.0
 40
0.0667205063782557
 50
289.01208491157439
 51
346.18896348924198
  0
CIRCLE
  5
38C2
  8
0
 10
110.7108851000275
 20
7.5513086224762977
 30
0.0
 40
0.013344801724938
  0
ARC
  5
38C3
  8
0
 10
111.1545520363571
 20
7.7272827455235946
 30
0.0
 40
0.0501054059045031
 50
11.839027538334831
 51
165.80787623830659
  0
ARC
  5
38C4
  8
0
 10
111.1550068996724
 20
7.7494306583024724
 30
0.0
 40
0.0500132525109495
 50
191.37414745922709
 51
346.27275631741452
  0
ARC
  5
38C5
  8
0
 10
110.731928772571
 20
7.8361835453273692
 30
0.0
 40
0.4818629735866355
 50
348.19004395092549
 51
1.225227072518863
  0
ARC
  5
38C6
  8
0
 10
111.59012431318
 20
7.822251239288839
 30
0.0
 40
0.4911581478054448
 50
176.86225090738051
 51
189.69159910943159
  0
ARC
  5
38C7
  8
0
 10
111.1285911070167
 20
7.8000336616295662
 30
0.0
 40
0.0645571795445358
 50
178.20016174447491
 51
249.4935455175827
  0
ARC
  5
38C8
  8
0
 10
111.12756991612051
 20
7.79101289903367
 30
0.0
 40
0.0644580654240128
 50
113.07635863351879
 51
170.13053918677059
  0
ARC
  5
38C9
  8
0
 10
111.15409387961169
 20
7.7418501560745554
 30
0.0
 40
0.1201928445460817
 50
62.154559223235943
 51
115.52347074174401
  0
ARC
  5
38CA
  8
0
 10
111.18556732729689
 20
7.7918006752486226
 30
0.0
 40
0.0614899104448313
 50
353.38372579287812
 51
66.349385122071325
  0
ARC
  5
38CB
  8
0
 10
111.18185621569449
 20
7.8006434044258661
 30
0.0
 40
0.0667205063782557
 50
289.01208491157439
 51
346.18896348924198
  0
CIRCLE
  5
38CC
  8
0
 10
111.15339960704399
 20
7.7292201894316754
 30
0.0
 40
0.013344801724938
  0
ARC
  5
38CD
  8
0
 10
111.1249124634662
 20
7.426967727454179
 30
0.0
 40
0.0501054059045031
 50
11.839027538334831
 51
165.80787623830659
  0
ARC
  5
38CE
  8
0
 10
111.1253673267815
 20
7.4491156402330558
 30
0.0
 40
0.0500132525109495
 50
191.37414745922709
 51
346.27275631741452
  0
ARC
  5
38CF
  8
0
 10
110.7022891996801
 20
7.5358685272579526
 30
0.0
 40
0.4818629735866355
 50
348.19004395092549
 51
1.225227072518863
  0
ARC
  5
38D0
  8
0
 10
111.560484740289
 20
7.5219362212194234
 30
0.0
 40
0.4911581478054448
 50
176.86225090738051
 51
189.69159910943159
  0
ARC
  5
38D1
  8
0
 10
111.0989515341258
 20
7.4997186435601497
 30
0.0
 40
0.0645571795445358
 50
178.20016174447491
 51
249.4935455175827
  0
ARC
  5
38D2
  8
0
 10
111.09793034322961
 20
7.4906978809642553
 30
0.0
 40
0.0644580654240128
 50
113.07635863351879
 51
170.13053918677059
  0
ARC
  5
38D3
  8
0
 10
111.12445430672081
 20
7.4415351380051389
 30
0.0
 40
0.1201928445460817
 50
62.154559223235943
 51
115.52347074174401
  0
ARC
  5
38D4
  8
0
 10
111.15592775440599
 20
7.491485657179207
 30
0.0
 40
0.0614899104448313
 50
353.38372579287812
 51
66.349385122071325
  0
ARC
  5
38D5
  8
0
 10
111.15221664280359
 20
7.5003283863564496
 30
0.0
 40
0.0667205063782557
 50
289.01208491157439
 51
346.18896348924198
  0
CIRCLE
  5
38D6
  8
0
 10
111.12376003415299
 20
7.4289051713622589
 30
0.0
 40
0.013344801724938
  0
ARC
  5
38D7
  8
0
 10
111.49518706141581
 20
7.51449163338751
 30
0.0
 40
0.0501054059045031
 50
11.839027538334831
 51
165.80787623830659
  0
ARC
  5
38D8
  8
0
 10
111.4956419247311
 20
7.5366395461663842
 30
0.0
 40
0.0500132525109495
 50
191.37414745922709
 51
346.27275631741452
  0
ARC
  5
38D9
  8
0
 10
111.0725637976297
 20
7.623392433191281
 30
0.0
 40
0.4818629735866355
 50
348.19004395092549
 51
1.225227072518863
  0
ARC
  5
38DA
  8
0
 10
111.9307593382386
 20
7.6094601271527544
 30
0.0
 40
0.4911581478054448
 50
176.86225090738051
 51
189.69159910943159
  0
ARC
  5
38DB
  8
0
 10
111.46922613207541
 20
7.5872425494934781
 30
0.0
 40
0.0645571795445358
 50
178.20016174447491
 51
249.4935455175827
  0
ARC
  5
38DC
  8
0
 10
111.4682049411792
 20
7.5782217868975819
 30
0.0
 40
0.0644580654240128
 50
113.07635863351879
 51
170.13053918677059
  0
ARC
  5
38DD
  8
0
 10
111.4947289046704
 20
7.5290590439384699
 30
0.0
 40
0.1201928445460817
 50
62.154559223235943
 51
115.52347074174401
  0
ARC
  5
38DE
  8
0
 10
111.5262023523556
 20
7.5790095631125354
 30
0.0
 40
0.0614899104448313
 50
353.38372579287812
 51
66.349385122071325
  0
ARC
  5
38DF
  8
0
 10
111.5224912407532
 20
7.5878522922897771
 30
0.0
 40
0.0667205063782557
 50
289.01208491157439
 51
346.18896348924198
  0
CIRCLE
  5
38E0
  8
0
 10
111.4940346321026
 20
7.51642907729559
 30
0.0
 40
0.013344801724938
  0
ARC
  5
38E1
  8
0
 10
111.89886751587299
 20
7.5150511857723572
 30
0.0
 40
0.0501054059045031
 50
11.839027538334831
 51
165.80787623830659
  0
ARC
  5
38E2
  8
0
 10
111.8993223791884
 20
7.537199098551234
 30
0.0
 40
0.0500132525109495
 50
191.37414745922709
 51
346.27275631741452
  0
ARC
  5
38E3
  8
0
 10
111.4762442520869
 20
7.6239519855761273
 30
0.0
 40
0.4818629735866355
 50
348.19004395092549
 51
1.225227072518863
  0
ARC
  5
38E4
  8
0
 10
112.3344397926959
 20
7.6100196795375998
 30
0.0
 40
0.4911581478054448
 50
176.86225090738051
 51
189.69159910943159
  0
ARC
  5
38E5
  8
0
 10
111.87290658653269
 20
7.5878021018783244
 30
0.0
 40
0.0645571795445358
 50
178.20016174447491
 51
249.4935455175827
  0
ARC
  5
38E6
  8
0
 10
111.8718853956364
 20
7.578781339282429
 30
0.0
 40
0.0644580654240128
 50
113.07635863351879
 51
170.13053918677059
  0
ARC
  5
38E7
  8
0
 10
111.8984093591277
 20
7.5296185963233171
 30
0.0
 40
0.1201928445460817
 50
62.154559223235943
 51
115.52347074174401
  0
ARC
  5
38E8
  8
0
 10
111.9298828068129
 20
7.5795691154973852
 30
0.0
 40
0.0614899104448313
 50
353.38372579287812
 51
66.349385122071325
  0
ARC
  5
38E9
  8
0
 10
111.9261716952105
 20
7.5884118446746243
 30
0.0
 40
0.0667205063782557
 50
289.01208491157439
 51
346.18896348924198
  0
CIRCLE
  5
38EA
  8
0
 10
111.8977150865599
 20
7.5169886296804371
 30
0.0
 40
0.013344801724938
  0
ARC
  5
38EB
  8
0
 10
111.681356391973
 20
7.282030479772355
 30
0.0
 40
0.0501054059045031
 50
11.839027538334831
 51
165.80787623830659
  0
ARC
  5
38EC
  8
0
 10
111.68181125528839
 20
7.3041783925512318
 30
0.0
 40
0.0500132525109495
 50
191.37414745922709
 51
346.27275631741452
  0
ARC
  5
38ED
  8
0
 10
111.2587331281869
 20
7.3909312795761286
 30
0.0
 40
0.4818629735866355
 50
348.19004395092549
 51
1.225227072518863
  0
ARC
  5
38EE
  8
0
 10
112.11692866879589
 20
7.3769989735375994
 30
0.0
 40
0.4911581478054448
 50
176.86225090738051
 51
189.69159910943159
  0
ARC
  5
38EF
  8
0
 10
111.6553954626327
 20
7.3547813958783257
 30
0.0
 40
0.0645571795445358
 50
178.20016174447491
 51
249.4935455175827
  0
ARC
  5
38F0
  8
0
 10
111.6543742717365
 20
7.3457606332824312
 30
0.0
 40
0.0644580654240128
 50
113.07635863351879
 51
170.13053918677059
  0
ARC
  5
38F1
  8
0
 10
111.6808982352277
 20
7.2965978903233149
 30
0.0
 40
0.1201928445460817
 50
62.154559223235943
 51
115.52347074174401
  0
ARC
  5
38F2
  8
0
 10
111.7123716829129
 20
7.346548409497383
 30
0.0
 40
0.0614899104448313
 50
353.38372579287812
 51
66.349385122071325
  0
ARC
  5
38F3
  8
0
 10
111.7086605713105
 20
7.3553911386746256
 30
0.0
 40
0.0667205063782557
 50
289.01208491157439
 51
346.18896348924198
  0
CIRCLE
  5
38F4
  8
0
 10
111.6802039626599
 20
7.2839679236804349
 30
0.0
 40
0.013344801724938
  0
ARC
  5
38F5
  8
0
 10
112.1642214326488
 20
7.1704014920131911
 30
0.0
 40
0.0501054059045031
 50
11.839027538334831
 51
165.80787623830659
  0
ARC
  5
38F6
  8
0
 10
112.1646762959642
 20
7.1925494047920671
 30
0.0
 40
0.0500132525109495
 50
191.37414745922709
 51
346.27275631741452
  0
ARC
  5
38F7
  8
0
 10
111.74159816886269
 20
7.2793022918169639
 30
0.0
 40
0.4818629735866355
 50
348.19004395092549
 51
1.225227072518863
  0
ARC
  5
38F8
  8
0
 10
112.5997937094717
 20
7.2653699857784337
 30
0.0
 40
0.4911581478054448
 50
176.86225090738051
 51
189.69159910943159
  0
ARC
  5
38F9
  8
0
 10
112.1382605033085
 20
7.2431524081191609
 30
0.0
 40
0.0645571795445358
 50
178.20016174447491
 51
249.4935455175827
  0
ARC
  5
38FA
  8
0
 10
112.13723931241221
 20
7.2341316455232656
 30
0.0
 40
0.0644580654240128
 50
113.07635863351879
 51
170.13053918677059
  0
ARC
  5
38FB
  8
0
 10
112.16376327590351
 20
7.1849689025641501
 30
0.0
 40
0.1201928445460817
 50
62.154559223235943
 51
115.52347074174401
  0
ARC
  5
38FC
  8
0
 10
112.19523672358871
 20
7.2349194217382191
 30
0.0
 40
0.0614899104448313
 50
353.38372579287812
 51
66.349385122071325
  0
ARC
  5
38FD
  8
0
 10
112.19152561198629
 20
7.2437621509154608
 30
0.0
 40
0.0667205063782557
 50
289.01208491157439
 51
346.18896348924198
  0
CIRCLE
  5
38FE
  8
0
 10
112.16306900333571
 20
7.1723389359212737
 30
0.0
 40
0.013344801724938
  0
ARC
  5
38FF
  8
0
 10
112.2444286043695
 20
7.427274649681503
 30
0.0
 40
0.0501054059045031
 50
11.839027538334831
 51
165.80787623830659
  0
ARC
  5
3900
  8
0
 10
112.2448834676849
 20
7.4494225624603772
 30
0.0
 40
0.0500132525109495
 50
191.37414745922709
 51
346.27275631741452
  0
ARC
  5
3901
  8
0
 10
111.8218053405834
 20
7.5361754494852731
 30
0.0
 40
0.4818629735866355
 50
348.19004395092549
 51
1.225227072518863
  0
ARC
  5
3902
  8
0
 10
112.6800008811924
 20
7.5222431434467474
 30
0.0
 40
0.4911581478054448
 50
176.86225090738051
 51
189.69159910943159
  0
ARC
  5
3903
  8
0
 10
112.2184676750291
 20
7.500025565787471
 30
0.0
 40
0.0645571795445358
 50
178.20016174447491
 51
249.4935455175827
  0
ARC
  5
3904
  8
0
 10
112.21744648413291
 20
7.4910048031915748
 30
0.0
 40
0.0644580654240128
 50
113.07635863351879
 51
170.13053918677059
  0
ARC
  5
3905
  8
0
 10
112.24397044762421
 20
7.4418420602324629
 30
0.0
 40
0.1201928445460817
 50
62.154559223235943
 51
115.52347074174401
  0
ARC
  5
3906
  8
0
 10
112.27544389530939
 20
7.4917925794065283
 30
0.0
 40
0.0614899104448313
 50
353.38372579287812
 51
66.349385122071325
  0
ARC
  5
3907
  8
0
 10
112.27173278370699
 20
7.50063530858377
 30
0.0
 40
0.0667205063782557
 50
289.01208491157439
 51
346.18896348924198
  0
CIRCLE
  5
3908
  8
0
 10
112.24327617505639
 20
7.4292120935895829
 30
0.0
 40
0.013344801724938
  0
ARC
  5
3909
  8
0
 10
112.5287813666192
 20
7.2632897368463674
 30
0.0
 40
0.0501054059045031
 50
11.839027538334831
 51
165.80787623830659
  0
ARC
  5
390A
  8
0
 10
112.5292362299346
 20
7.2854376496252398
 30
0.0
 40
0.0500132525109495
 50
191.37414745922709
 51
346.27275631741452
  0
ARC
  5
390B
  8
0
 10
112.10615810283311
 20
7.3721905366501366
 30
0.0
 40
0.4818629735866355
 50
348.19004395092549
 51
1.225227072518863
  0
ARC
  5
390C
  8
0
 10
112.9643536434421
 20
7.35825823061161
 30
0.0
 40
0.4911581478054448
 50
176.86225090738051
 51
189.69159910943159
  0
ARC
  5
390D
  8
0
 10
112.5028204372788
 20
7.3360406529523337
 30
0.0
 40
0.0645571795445358
 50
178.20016174447491
 51
249.4935455175827
  0
ARC
  5
390E
  8
0
 10
112.5017992463826
 20
7.3270198903564392
 30
0.0
 40
0.0644580654240128
 50
113.07635863351879
 51
170.13053918677059
  0
ARC
  5
390F
  8
0
 10
112.5283232098739
 20
7.2778571473973273
 30
0.0
 40
0.1201928445460817
 50
62.154559223235943
 51
115.52347074174401
  0
ARC
  5
3910
  8
0
 10
112.5597966575591
 20
7.3278076665713909
 30
0.0
 40
0.0614899104448313
 50
353.38372579287812
 51
66.349385122071325
  0
ARC
  5
3911
  8
0
 10
112.55608554595671
 20
7.3366503957486344
 30
0.0
 40
0.0667205063782557
 50
289.01208491157439
 51
346.18896348924198
  0
CIRCLE
  5
3912
  8
0
 10
112.5276289373061
 20
7.2652271807544428
 30
0.0
 40
0.013344801724938
  0
ARC
  5
3913
  8
0
 10
112.6841591876224
 20
7.0511170583437126
 30
0.0
 40
0.0501054059045031
 50
11.839027538334831
 51
165.80787623830659
  0
ARC
  5
3914
  8
0
 10
112.6846140509377
 20
7.0732649711225859
 30
0.0
 40
0.0500132525109495
 50
191.37414745922709
 51
346.27275631741452
  0
ARC
  5
3915
  8
0
 10
112.26153592383631
 20
7.1600178581474827
 30
0.0
 40
0.4818629735866355
 50
348.19004395092549
 51
1.225227072518863
  0
ARC
  5
3916
  8
0
 10
113.1197314644452
 20
7.146085552108957
 30
0.0
 40
0.4911581478054448
 50
176.86225090738051
 51
189.69159910943159
  0
ARC
  5
3917
  8
0
 10
112.658198258282
 20
7.1238679744496798
 30
0.0
 40
0.0645571795445358
 50
178.20016174447491
 51
249.4935455175827
  0
ARC
  5
3918
  8
0
 10
112.6571770673858
 20
7.1148472118537853
 30
0.0
 40
0.0644580654240128
 50
113.07635863351879
 51
170.13053918677059
  0
ARC
  5
3919
  8
0
 10
112.683701030877
 20
7.0656844688946734
 30
0.0
 40
0.1201928445460817
 50
62.154559223235943
 51
115.52347074174401
  0
ARC
  5
391A
  8
0
 10
112.7151744785622
 20
7.1156349880687371
 30
0.0
 40
0.0614899104448313
 50
353.38372579287812
 51
66.349385122071325
  0
ARC
  5
391B
  8
0
 10
112.7114633669598
 20
7.1244777172459797
 30
0.0
 40
0.0667205063782557
 50
289.01208491157439
 51
346.18896348924198
  0
CIRCLE
  5
391C
  8
0
 10
112.6830067583092
 20
7.0530545022517934
 30
0.0
 40
0.013344801724938
  0
ARC
  5
391D
  8
0
 10
112.3270383399128
 20
6.903715887216304
 30
0.0
 40
0.0501054059045031
 50
11.839027538334831
 51
165.80787623830659
  0
ARC
  5
391E
  8
0
 10
112.3274932032281
 20
6.9258637999951773
 30
0.0
 40
0.0500132525109495
 50
191.37414745922709
 51
346.27275631741452
  0
ARC
  5
391F
  8
0
 10
111.9044150761267
 20
7.0126166870200768
 30
0.0
 40
0.4818629735866355
 50
348.19004395092549
 51
1.225227072518863
  0
ARC
  5
3920
  8
0
 10
112.7626106167357
 20
6.9986843809815467
 30
0.0
 40
0.4911581478054448
 50
176.86225090738051
 51
189.69159910943159
  0
ARC
  5
3921
  8
0
 10
112.3010774105724
 20
6.9764668033222739
 30
0.0
 40
0.0645571795445358
 50
178.20016174447491
 51
249.4935455175827
  0
ARC
  5
3922
  8
0
 10
112.30005621967619
 20
6.9674460407263794
 30
0.0
 40
0.0644580654240128
 50
113.07635863351879
 51
170.13053918677059
  0
ARC
  5
3923
  8
0
 10
112.32658018316749
 20
6.918283297767263
 30
0.0
 40
0.1201928445460817
 50
62.154559223235943
 51
115.52347074174401
  0
ARC
  5
3924
  8
0
 10
112.3580536308526
 20
6.9682338169413276
 30
0.0
 40
0.0614899104448313
 50
353.38372579287812
 51
66.349385122071325
  0
ARC
  5
3925
  8
0
 10
112.3543425192503
 20
6.9770765461185738
 30
0.0
 40
0.0667205063782557
 50
289.01208491157439
 51
346.18896348924198
  0
CIRCLE
  5
3926
  8
0
 10
112.32588591059969
 20
6.9056533311243831
 30
0.0
 40
0.013344801724938
  0
ARC
  5
3927
  8
0
 10
112.67927488782691
 20
6.8174203876790891
 30
0.0
 40
0.0501054059045031
 50
11.839027538334831
 51
165.80787623830659
  0
ARC
  5
3928
  8
0
 10
112.6797297511423
 20
6.8395683004579624
 30
0.0
 40
0.0500132525109495
 50
191.37414745922709
 51
346.27275631741452
  0
ARC
  5
3929
  8
0
 10
112.2566516240408
 20
6.9263211874828619
 30
0.0
 40
0.4818629735866355
 50
348.19004395092549
 51
1.225227072518863
  0
ARC
  5
392A
  8
0
 10
113.1148471646498
 20
6.9123888814443317
 30
0.0
 40
0.4911581478054448
 50
176.86225090738051
 51
189.69159910943159
  0
ARC
  5
392B
  8
0
 10
112.65331395848651
 20
6.8901713037850589
 30
0.0
 40
0.0645571795445358
 50
178.20016174447491
 51
249.4935455175827
  0
ARC
  5
392C
  8
0
 10
112.6522927675903
 20
6.8811505411891636
 30
0.0
 40
0.0644580654240128
 50
113.07635863351879
 51
170.13053918677059
  0
ARC
  5
392D
  8
0
 10
112.6788167310816
 20
6.8319877982300481
 30
0.0
 40
0.1201928445460817
 50
62.154559223235943
 51
115.52347074174401
  0
ARC
  5
392E
  8
0
 10
112.7102901787667
 20
6.8819383174041127
 30
0.0
 40
0.0614899104448313
 50
353.38372579287812
 51
66.349385122071325
  0
ARC
  5
392F
  8
0
 10
112.7065790671644
 20
6.8907810465813588
 30
0.0
 40
0.0667205063782557
 50
289.01208491157439
 51
346.18896348924198
  0
CIRCLE
  5
3930
  8
0
 10
112.6781224585138
 20
6.819357831587169
 30
0.0
 40
0.013344801724938
  0
ARC
  5
3931
  8
0
 10
112.5323920512201
 20
6.6059194440776698
 30
0.0
 40
0.0501054059045031
 50
11.839027538334831
 51
165.80787623830659
  0
ARC
  5
3932
  8
0
 10
112.5328469145354
 20
6.628067356856544
 30
0.0
 40
0.0500132525109495
 50
191.37414745922709
 51
346.27275631741452
  0
ARC
  5
3933
  8
0
 10
112.10976878743401
 20
6.7148202438814399
 30
0.0
 40
0.4818629735866355
 50
348.19004395092549
 51
1.225227072518863
  0
ARC
  5
3934
  8
0
 10
112.967964328043
 20
6.7008879378429143
 30
0.0
 40
0.4911581478054448
 50
176.86225090738051
 51
189.69159910943159
  0
ARC
  5
3935
  8
0
 10
112.5064311218797
 20
6.678670360183637
 30
0.0
 40
0.0645571795445358
 50
178.20016174447491
 51
249.4935455175827
  0
ARC
  5
3936
  8
0
 10
112.5054099309835
 20
6.6696495975877417
 30
0.0
 40
0.0644580654240128
 50
113.07635863351879
 51
170.13053918677059
  0
ARC
  5
3937
  8
0
 10
112.5319338944748
 20
6.6204868546286297
 30
0.0
 40
0.1201928445460817
 50
62.154559223235943
 51
115.52347074174401
  0
ARC
  5
3938
  8
0
 10
112.56340734215991
 20
6.6704373738026952
 30
0.0
 40
0.0614899104448313
 50
353.38372579287812
 51
66.349385122071325
  0
ARC
  5
3939
  8
0
 10
112.55969623055751
 20
6.6792801029799369
 30
0.0
 40
0.0667205063782557
 50
289.01208491157439
 51
346.18896348924198
  0
CIRCLE
  5
393A
  8
0
 10
112.53123962190701
 20
6.6078568879857471
 30
0.0
 40
0.013344801724938
  0
ARC
  5
393B
  8
0
 10
112.14854458930191
 20
6.6367010299530271
 30
0.0
 40
0.0501054059045031
 50
11.839027538334831
 51
165.80787623830659
  0
ARC
  5
393C
  8
0
 10
112.1489994526172
 20
6.6588489427319004
 30
0.0
 40
0.0500132525109495
 50
191.37414745922709
 51
346.27275631741452
  0
ARC
  5
393D
  8
0
 10
111.7259213255158
 20
6.7456018297567999
 30
0.0
 40
0.4818629735866355
 50
348.19004395092549
 51
1.225227072518863
  0
ARC
  5
393E
  8
0
 10
112.5841168661248
 20
6.7316695237182698
 30
0.0
 40
0.4911581478054448
 50
176.86225090738051
 51
189.69159910943159
  0
ARC
  5
393F
  8
0
 10
112.12258365996151
 20
6.709451946058997
 30
0.0
 40
0.0645571795445358
 50
178.20016174447491
 51
249.4935455175827
  0
ARC
  5
3940
  8
0
 10
112.1215624690653
 20
6.7004311834631016
 30
0.0
 40
0.0644580654240128
 50
113.07635863351879
 51
170.13053918677059
  0
ARC
  5
3941
  8
0
 10
112.1480864325566
 20
6.651268440503987
 30
0.0
 40
0.1201928445460817
 50
62.154559223235943
 51
115.52347074174401
  0
ARC
  5
3942
  8
0
 10
112.1795598802417
 20
6.7012189596780507
 30
0.0
 40
0.0614899104448313
 50
353.38372579287812
 51
66.349385122071325
  0
ARC
  5
3943
  8
0
 10
112.1758487686394
 20
6.7100616888552969
 30
0.0
 40
0.0667205063782557
 50
289.01208491157439
 51
346.18896348924198
  0
CIRCLE
  5
3944
  8
0
 10
112.1473921599888
 20
6.6386384738611071
 30
0.0
 40
0.013344801724938
  0
ARC
  5
3945
  8
0
 10
112.244748308911
 20
6.4395922694986361
 30
0.0
 40
0.0501054059045031
 50
11.839027538334831
 51
165.80787623830659
  0
ARC
  5
3946
  8
0
 10
112.2452031722264
 20
6.4617401822775093
 30
0.0
 40
0.0500132525109495
 50
191.37414745922709
 51
346.27275631741452
  0
ARC
  5
3947
  8
0
 10
111.82212504512491
 20
6.5484930693024062
 30
0.0
 40
0.4818629735866355
 50
348.19004395092549
 51
1.225227072518863
  0
ARC
  5
3948
  8
0
 10
112.6803205857339
 20
6.5345607632638787
 30
0.0
 40
0.4911581478054448
 50
176.86225090738051
 51
189.69159910943159
  0
ARC
  5
3949
  8
0
 10
112.2187873795706
 20
6.5123431856046032
 30
0.0
 40
0.0645571795445358
 50
178.20016174447491
 51
249.4935455175827
  0
ARC
  5
394A
  8
0
 10
112.2177661886744
 20
6.503322423008707
 30
0.0
 40
0.0644580654240128
 50
113.07635863351879
 51
170.13053918677059
  0
ARC
  5
394B
  8
0
 10
112.2442901521657
 20
6.4541596800495951
 30
0.0
 40
0.1201928445460817
 50
62.154559223235943
 51
115.52347074174401
  0
ARC
  5
394C
  8
0
 10
112.27576359985081
 20
6.5041101992236596
 30
0.0
 40
0.0614899104448313
 50
353.38372579287812
 51
66.349385122071325
  0
ARC
  5
394D
  8
0
 10
112.27205248824851
 20
6.5129529284009031
 30
0.0
 40
0.0667205063782557
 50
289.01208491157439
 51
346.18896348924198
  0
CIRCLE
  5
394E
  8
0
 10
112.2435958795979
 20
6.4415297134067151
 30
0.0
 40
0.013344801724938
  0
ARC
  5
394F
  8
0
 10
111.88969490117
 20
6.3529630175728862
 30
0.0
 40
0.0501054059045031
 50
11.839027538334831
 51
165.80787623830659
  0
ARC
  5
3950
  8
0
 10
111.8901497644854
 20
6.3751109303517586
 30
0.0
 40
0.0500132525109495
 50
191.37414745922709
 51
346.27275631741452
  0
ARC
  5
3951
  8
0
 10
111.467071637384
 20
6.4618638173766589
 30
0.0
 40
0.4818629735866355
 50
348.19004395092549
 51
1.225227072518863
  0
ARC
  5
3952
  8
0
 10
112.3252671779929
 20
6.4479315113381288
 30
0.0
 40
0.4911581478054448
 50
176.86225090738051
 51
189.69159910943159
  0
ARC
  5
3953
  8
0
 10
111.8637339718297
 20
6.425713933678856
 30
0.0
 40
0.0645571795445358
 50
178.20016174447491
 51
249.4935455175827
  0
ARC
  5
3954
  8
0
 10
111.86271278093341
 20
6.4166931710829607
 30
0.0
 40
0.0644580654240128
 50
113.07635863351879
 51
170.13053918677059
  0
ARC
  5
3955
  8
0
 10
111.88923674442469
 20
6.3675304281238461
 30
0.0
 40
0.1201928445460817
 50
62.154559223235943
 51
115.52347074174401
  0
ARC
  5
3956
  8
0
 10
111.92071019210989
 20
6.4174809472979097
 30
0.0
 40
0.0614899104448313
 50
353.38372579287812
 51
66.349385122071325
  0
ARC
  5
3957
  8
0
 10
111.91699908050749
 20
6.4263236764751559
 30
0.0
 40
0.0667205063782557
 50
289.01208491157439
 51
346.18896348924198
  0
CIRCLE
  5
3958
  8
0
 10
111.88854247185689
 20
6.3549004614809661
 30
0.0
 40
0.013344801724938
  0
ARC
  5
3959
  8
0
 10
111.6813370362983
 20
6.5256978538024439
 30
0.0
 40
0.0501054059045031
 50
11.839027538334831
 51
165.80787623830659
  0
ARC
  5
395A
  8
0
 10
111.6817918996136
 20
6.5478457665813181
 30
0.0
 40
0.0500132525109495
 50
191.37414745922709
 51
346.27275631741452
  0
ARC
  5
395B
  8
0
 10
111.2587137725121
 20
6.6345986536062176
 30
0.0
 40
0.4818629735866355
 50
348.19004395092549
 51
1.225227072518863
  0
ARC
  5
395C
  8
0
 10
112.1169093131211
 20
6.6206663475676883
 30
0.0
 40
0.4911581478054448
 50
176.86225090738051
 51
189.69159910943159
  0
ARC
  5
395D
  8
0
 10
111.6553761069579
 20
6.5984487699084147
 30
0.0
 40
0.0645571795445358
 50
178.20016174447491
 51
249.4935455175827
  0
ARC
  5
395E
  8
0
 10
111.65435491606171
 20
6.5894280073125202
 30
0.0
 40
0.0644580654240128
 50
113.07635863351879
 51
170.13053918677059
  0
ARC
  5
395F
  8
0
 10
111.68087887955291
 20
6.5402652643534038
 30
0.0
 40
0.1201928445460817
 50
62.154559223235943
 51
115.52347074174401
  0
ARC
  5
3960
  8
0
 10
111.71235232723809
 20
6.5902157835274693
 30
0.0
 40
0.0614899104448313
 50
353.38372579287812
 51
66.349385122071325
  0
ARC
  5
3961
  8
0
 10
111.70864121563569
 20
6.5990585127047154
 30
0.0
 40
0.0667205063782557
 50
289.01208491157439
 51
346.18896348924198
  0
CIRCLE
  5
3962
  8
0
 10
111.68018460698509
 20
6.5276352977105239
 30
0.0
 40
0.013344801724938
  0
ARC
  5
3963
  8
0
 10
111.2166167301236
 20
6.6366849482287371
 30
0.0
 40
0.0501054059045031
 50
11.839027538334831
 51
165.80787623830659
  0
ARC
  5
3964
  8
0
 10
111.217071593439
 20
6.6588328610076104
 30
0.0
 40
0.0500132525109495
 50
191.37414745922709
 51
346.27275631741452
  0
ARC
  5
3965
  8
0
 10
110.7939934663375
 20
6.7455857480325099
 30
0.0
 40
0.4818629735866355
 50
348.19004395092549
 51
1.225227072518863
  0
ARC
  5
3966
  8
0
 10
111.6521890069465
 20
6.7316534419939797
 30
0.0
 40
0.4911581478054448
 50
176.86225090738051
 51
189.69159910943159
  0
ARC
  5
3967
  8
0
 10
111.1906558007832
 20
6.709435864334707
 30
0.0
 40
0.0645571795445358
 50
178.20016174447491
 51
249.4935455175827
  0
ARC
  5
3968
  8
0
 10
111.18963460988699
 20
6.7004151017388116
 30
0.0
 40
0.0644580654240128
 50
113.07635863351879
 51
170.13053918677059
  0
ARC
  5
3969
  8
0
 10
111.21615857337829
 20
6.651252358779697
 30
0.0
 40
0.1201928445460817
 50
62.154559223235943
 51
115.52347074174401
  0
ARC
  5
396A
  8
0
 10
111.2476320210635
 20
6.7012028779537607
 30
0.0
 40
0.0614899104448313
 50
353.38372579287812
 51
66.349385122071325
  0
ARC
  5
396B
  8
0
 10
111.2439209094611
 20
6.7100456071310068
 30
0.0
 40
0.0667205063782557
 50
289.01208491157439
 51
346.18896348924198
  0
CIRCLE
  5
396C
  8
0
 10
111.2154643008105
 20
6.638622392136817
 30
0.0
 40
0.013344801724938
  0
ARC
  5
396D
  8
0
 10
111.2362535885194
 20
7.1700455586008864
 30
0.0
 40
0.0501054059045031
 50
11.839027538334831
 51
165.80787623830659
  0
ARC
  5
396E
  8
0
 10
111.2367084518348
 20
7.1921934713797588
 30
0.0
 40
0.0500132525109495
 50
191.37414745922709
 51
346.27275631741452
  0
ARC
  5
396F
  8
0
 10
110.8136303247334
 20
7.2789463584046601
 30
0.0
 40
0.4818629735866355
 50
348.19004395092549
 51
1.225227072518863
  0
ARC
  5
3970
  8
0
 10
111.6718258653423
 20
7.2650140523661291
 30
0.0
 40
0.4911581478054448
 50
176.86225090738051
 51
189.69159910943159
  0
ARC
  5
3971
  8
0
 10
111.2102926591791
 20
7.2427964747068572
 30
0.0
 40
0.0645571795445358
 50
178.20016174447491
 51
249.4935455175827
  0
ARC
  5
3972
  8
0
 10
111.20927146828291
 20
7.2337757121109609
 30
0.0
 40
0.0644580654240128
 50
113.07635863351879
 51
170.13053918677059
  0
ARC
  5
3973
  8
0
 10
111.23579543177409
 20
7.1846129691518463
 30
0.0
 40
0.1201928445460817
 50
62.154559223235943
 51
115.52347074174401
  0
ARC
  5
3974
  8
0
 10
111.26726887945929
 20
7.23456348832591
 30
0.0
 40
0.0614899104448313
 50
353.38372579287812
 51
66.349385122071325
  0
ARC
  5
3975
  8
0
 10
111.26355776785689
 20
7.2434062175031571
 30
0.0
 40
0.0667205063782557
 50
289.01208491157439
 51
346.18896348924198
  0
CIRCLE
  5
3976
  8
0
 10
111.23510115920629
 20
7.1719830025089664
 30
0.0
 40
0.013344801724938
  0
ARC
  5
3977
  8
0
 10
111.35256917373439
 20
10.36213918280586
 30
0.0
 40
0.2901882887562263
 50
120.3085806444397
 51
175.35608955258891
  0
ARC
  5
3978
  8
0
 10
111.60400913233541
 20
10.007021146866119
 30
0.0
 40
0.7246494115290184
 50
102.21782099701829
 51
123.30344583800171
  0
ARC
  5
3979
  8
0
 10
111.6811866795432
 20
9.7060364809654942
 30
0.0
 40
1.035216287746398
 50
89.881180528304768
 51
102.8671876677659
  0
ARC
  5
397A
  8
0
 10
111.6850666870215
 20
9.6999766264164151
 30
0.0
 40
1.041275358698351
 50
78.06197769539655
 51
90.095367986741067
  0
ARC
  5
397B
  8
0
 10
111.77428378606589
 20
10.044638007193029
 30
0.0
 40
0.6857999776383189
 50
51.775288859771862
 51
79.39825642046894
  0
ARC
  5
397C
  8
0
 10
112.0354827042139
 20
10.370412687799631
 30
0.0
 40
0.2682829595486825
 50
3.2524057523214802
 51
52.549076939433519
  0
ARC
  5
397D
  8
0
 10
111.30792220731669
 20
9.7329953219933323
 30
0.0
 40
0.244682596941915
 50
181.58761623297411
 51
226.30779386502221
  0
ARC
  5
397E
  8
0
 10
111.37442635069419
 20
9.6920448851183423
 30
0.0
 40
0.312963928311409
 50
115.7122277111302
 51
173.73159054378971
  0
ARC
  5
397F
  8
0
 10
111.62629122422599
 20
9.2884066826944434
 30
0.0
 40
0.787613324584712
 50
99.757480934993893
 51
119.4837318599098
  0
ARC
  5
3980
  8
0
 10
111.6833335375139
 20
11.93023852203704
 30
0.0
 40
1.8753156520764711
 50
264.1688860116688
 51
275.8311139883312
  0
ARC
  5
3981
  8
0
 10
111.755150114621
 20
9.3372979008618273
 30
0.0
 40
0.7369521661391594
 50
55.447525566928888
 51
80.730351553463734
  0
ARC
  5
3982
  8
0
 10
112.01298925188659
 20
9.7007254714919924
 30
0.0
 40
0.291461118951183
 50
5.0174178993884109
 51
56.673554720425798
  0
ARC
  5
3983
  8
0
 10
112.0551235225642
 20
9.7345766937541924
 30
0.0
 40
0.2483507772931508
 50
314.03548584289871
 51
358.07083831603558
  0
ARC
  5
3984
  8
0
 10
111.6833335375139
 20
9.2928606159977605
 30
0.0
 40
1.063388956948911
 50
79.678680766757736
 51
100.32131923324221
  0
ARC
  5
3985
  8
0
 10
111.6833335375146
 20
11.06532256509519
 30
0.0
 40
0.750854881271197
 50
255.3007733183353
 51
284.69922668155527
  0
ARC
  5
3986
  8
0
 10
111.3311171499514
 20
9.6364033729530618
 30
0.0
 40
0.1828149333235583
 50
150.16610755870619
 51
205.00332725459651
  0
ARC
  5
3987
  8
0
 10
111.5162012135666
 20
9.5014430826625471
 30
0.0
 40
0.4112714397400909
 50
107.5051464038867
 51
146.6815009578076
  0
ARC
  5
3988
  8
0
 10
111.67669917124481
 20
9.0996446478255351
 30
0.0
 40
0.843354211536598
 50
89.550584950229563
 51
109.69380791878039
  0
ARC
  5
3989
  8
0
 10
111.6899561126519
 20
9.1034852167179672
 30
0.0
 40
0.8395139738805214
 50
69.0353507300469
 51
90.45330820619364
  0
ARC
  5
398A
  8
0
 10
111.89700483283249
 20
9.5669526719792781
 30
0.0
 40
0.3337833062272839
 50
17.2178828527558
 51
73.764248857642187
  0
ARC
  5
398B
  8
0
 10
112.0365467164381
 20
9.635990496938966
 30
0.0
 40
0.1817371469915574
 50
334.9629807413823
 51
9.4261108361533328
  0
ARC
  5
398C
  8
0
 10
111.3611697074324
 20
9.6375696671567894
 30
0.0
 40
0.1918577441041321
 50
129.42400924597891
 51
203.4239763403246
  0
ARC
  5
398D
  8
0
 10
111.59034941660219
 20
9.3902398893522232
 30
0.0
 40
0.5288305623236325
 50
102.2956712219453
 51
131.5877316674447
  0
ARC
  5
398E
  8
0
 10
111.6811785032513
 20
9.076719784403096
 30
0.0
 40
0.8547843196234415
 50
89.855548942674574
 51
103.769105728181
  0
ARC
  5
398F
  8
0
 10
111.6869837498311
 20
9.0947578267294631
 30
0.0
 40
0.8367515225270752
 50
73.340090925638506
 51
90.249945674209869
  0
ARC
  5
3990
  8
0
 10
111.8305809367901
 20
9.4945818308546386
 30
0.0
 40
0.4131804097175256
 50
32.732872052689039
 51
76.523349963599628
  0
ARC
  5
3991
  8
0
 10
112.0226206016645
 20
9.6362390855135711
 30
0.0
 40
0.1757084866413869
 50
334.731409912929
 51
27.73028345879737
  0
LINE
  5
3992
  8
0
 10
111.2283337794055
 20
9.5657538991709217
 30
0.0
 11
111.2285028139755
 21
9.776165804740895
 31
0.0
  0
LINE
  5
3993
  8
0
 10
112.1383334097812
 20
9.5656676859759848
 30
0.0
 11
112.1382122621759
 21
9.7704097094596847
 31
0.0
  0
ARC
  5
3994
  8
0
 10
111.68322438662319
 20
8.4129961468334784
 30
0.0
 40
1.23926425757745
 50
68.454418305098443
 51
111.534725312045
  0
ENDSEC
  0
EOF
