  0
SECTION
  2
HEADER
  9
$ACADVER
  1
AC1009
  9
$INSBASE
 10
303.7591535613949
 20
20.09662636542572
 30
0.0
  9
$EXTMIN
 10
298.78783544359482
 20
16.906626365425709
 30
0.0
  9
$EXTMAX
 10
303.77428643402152
 20
23.286626365425711
 30
0.0
  9
$LIMMIN
 10
0.0
 20
0.0
  9
$LIMMAX
 10
11.692913385800001
 20
8.2677165353999982
  9
$ORTHOMODE
 70
     1
  9
$REGENMODE
 70
     1
  9
$FILLMODE
 70
     1
  9
$QTEXTMODE
 70
     0
  9
$MIRRTEXT
 70
     0
  9
$DRAGMODE
 70
     2
  9
$LTSCALE
 40
0.6431102362
  9
$OSMODE
 70
  3071
  9
$ATTMODE
 70
     1
  9
$TEXTSIZE
 40
0.2
  9
$TRACEWID
 40
0.05
  9
$TEXTSTYLE
  7
STANDARD
  9
$CLAYER
  8
0
  9
$CELTYPE
  6
BYLAYER
  9
$CECOLOR
 62
   256
  9
$DIMSCALE
 40
1.0
  9
$DIMASZ
 40
0.1875
  9
$DIMEXO
 40
0.0625
  9
$DIMDLI
 40
0.4443307087
  9
$DIMRND
 40
0.0
  9
$DIMDLE
 40
0.0
  9
$DIMEXE
 40
0.125
  9
$DIMTP
 40
0.01
  9
$DIMTM
 40
0.01
  9
$DIMTXT
 40
1.0
  9
$DIMCEN
 40
0.1052362205
  9
$DIMTSZ
 40
0.0
  9
$DIMTOL
 70
     1
  9
$DIMLIM
 70
     0
  9
$DIMTIH
 70
     1
  9
$DIMTOH
 70
     1
  9
$DIMSE1
 70
     0
  9
$DIMSE2
 70
     0
  9
$DIMTAD
 70
     0
  9
$DIMZIN
 70
     0
  9
$DIMBLK
  1

  9
$DIMASO
 70
     1
  9
$DIMSHO
 70
     1
  9
$DIMPOST
  1
\X
  9
$DIMAPOST
  1

  9
$DIMALT
 70
     1
  9
$DIMALTD
 70
     2
  9
$DIMALTF
 40
25.399999999999999
  9
$DIMLFAC
 40
1.0
  9
$DIMTOFL
 70
     0
  9
$DIMTVP
 40
0.0
  9
$DIMTIX
 70
     0
  9
$DIMSOXD
 70
     0
  9
$DIMSAH
 70
     0
  9
$DIMBLK1
  1

  9
$DIMBLK2
  1

  9
$DIMSTYLE
  2
STANDARD
  9
$DIMCLRD
 70
     0
  9
$DIMCLRE
 70
     0
  9
$DIMCLRT
 70
     0
  9
$DIMTFAC
 40
1.0
  9
$DIMGAP
 40
0.09
  9
$LUNITS
 70
     2
  9
$LUPREC
 70
     4
  9
$SKETCHINC
 40
0.1
  9
$FILLETRAD
 40
0.0
  9
$AUNITS
 70
     0
  9
$AUPREC
 70
     0
  9
$MENU
  1
.
  9
$ELEVATION
 40
0.0
  9
$PELEVATION
 40
0.0
  9
$THICKNESS
 40
0.0
  9
$LIMCHECK
 70
     0
  9
$BLIPMODE
 70
     0
  9
$CHAMFERA
 40
0.0
  9
$CHAMFERB
 40
0.0
  9
$SKPOLY
 70
     0
  9
$TDCREATE
 40
2458172.4620311921
  9
$TDUPDATE
 40
2458355.5973282871
  9
$TDINDWG
 40
0.0893765278
  9
$TDUSRTIMER
 40
0.0893765278
  9
$USRTIMER
 70
     1
  9
$ANGBASE
 50
0.0
  9
$ANGDIR
 70
     0
  9
$PDMODE
 70
     0
  9
$PDSIZE
 40
0.3125
  9
$PLINEWID
 40
0.0
  9
$COORDS
 70
     1
  9
$SPLFRAME
 70
     0
  9
$SPLINETYPE
 70
     6
  9
$SPLINESEGS
 70
     8
  9
$ATTDIA
 70
     1
  9
$ATTREQ
 70
     1
  9
$HANDLING
 70
     1
  9
$HANDSEED
  5
2AE5
  9
$SURFTAB1
 70
     6
  9
$SURFTAB2
 70
     6
  9
$SURFTYPE
 70
     6
  9
$SURFU
 70
     6
  9
$SURFV
 70
     6
  9
$UCSNAME
  2

  9
$UCSORG
 10
0.0
 20
0.0
 30
0.0
  9
$UCSXDIR
 10
1.0
 20
0.0
 30
0.0
  9
$UCSYDIR
 10
0.0
 20
1.0
 30
0.0
  9
$PUCSNAME
  2

  9
$PUCSORG
 10
0.0
 20
0.0
 30
0.0
  9
$PUCSXDIR
 10
1.0
 20
0.0
 30
0.0
  9
$PUCSYDIR
 10
0.0
 20
1.0
 30
0.0
  9
$USERI1
 70
     0
  9
$USERI2
 70
     0
  9
$USERI3
 70
     0
  9
$USERI4
 70
     0
  9
$USERI5
 70
     0
  9
$USERR1
 40
0.0
  9
$USERR2
 40
0.0
  9
$USERR3
 40
0.0
  9
$USERR4
 40
0.0
  9
$USERR5
 40
0.0
  9
$WORLDVIEW
 70
     1
  9
$SHADEDGE
 70
     3
  9
$SHADEDIF
 70
    70
  9
$TILEMODE
 70
     1
  9
$MAXACTVP
 70
    64
  9
$PLIMCHECK
 70
     0
  9
$PEXTMIN
 10
1.0000000000000000E+020
 20
1.0000000000000000E+020
 30
1.0000000000000000E+020
  9
$PEXTMAX
 10
-1.0000000000000000E+020
 20
-1.0000000000000000E+020
 30
-1.0000000000000000E+020
  9
$PLIMMIN
 10
0.0
 20
0.0
  9
$PLIMMAX
 10
12.0
 20
9.0
  9
$UNITMODE
 70
     0
  9
$VISRETAIN
 70
     1
  9
$PLINEGEN
 70
     0
  9
$PSLTSCALE
 70
     1
  0
ENDSEC
  0
SECTION
  2
TABLES
  0
TABLE
  2
VPORT
 70
     1
  0
VPORT
  2
*ACTIVE
 70
     0
 10
0.0
 20
0.0
 11
1.0
 21
1.0
 12
0.0
 22
0.0
 13
0.0
 23
0.0
 14
1.0
 24
1.0
 15
0.0
 25
0.0
 16
0.0
 26
0.0
 36
22.77092135634846
 17
301.28106093880808
 27
20.09662636542571
 37
0.0
 40
8.0974745124592342
 41
2.0984340044742731
 42
50.0
 43
0.0
 44
0.0
 50
0.0
 51
0.0
 71
     0
 72
   100
 73
     1
 74
     1
 75
     0
 76
     0
 77
     0
 78
     0
  0
ENDTAB
  0
TABLE
  2
LTYPE
 70
     2
  0
LTYPE
  2
CONTINUOUS
 70
     0
  3
Solid line
 72
    65
 73
     0
 40
0.0
  0
LTYPE
  2
PHANTOM2
 70
     0
  3
___ _ _ ___ _ _ ___ _ _ ___ _ _
 72
    65
 73
     6
 40
1.25
 49
0.625
 49
-0.125
 49
0.125
 49
-0.125
 49
0.125
 49
-0.125
  0
ENDTAB
  0
TABLE
  2
LAYER
 70
     2
  0
LAYER
  2
0
 70
     0
 62
   255
  6
CONTINUOUS
  0
LAYER
  2
DEFPOINTS
 70
     0
 62
     7
  6
CONTINUOUS
  0
ENDTAB
  0
TABLE
  2
STYLE
 70
     1
  0
STYLE
  2
STANDARD
 70
     0
 40
0.0
 41
0.8
 50
0.0
 71
     0
 42
0.2
  3
txt
  4

  0
ENDTAB
  0
TABLE
  2
VIEW
 70
     0
  0
ENDTAB
  0
TABLE
  2
UCS
 70
     0
  0
ENDTAB
  0
TABLE
  2
APPID
 70
     9
  0
APPID
  2
ACAD
 70
     0
  0
APPID
  2
ACAD_MLEADERVER
 70
     0
  0
APPID
  2
ACAD_EXEMPT_FROM_CAD_STANDARDS
 70
     0
  0
APPID
  2
ACAD_DSTYLE_DIMJAG
 70
     0
  0
APPID
  2
ACAD_DSTYLE_DIMTALN
 70
     0
  0
APPID
  2
ACAD_NAV_VCDISPLAY
 70
     0
  0
APPID
  2
ACAECLAYERSTANDARD
 70
     0
  0
APPID
  2
ACCMTRANSPARENCY
 70
     0
  0
APPID
  2
ACDBATTR
 70
     0
  0
ENDTAB
  0
TABLE
  2
DIMSTYLE
 70
     1
  0
DIMSTYLE
  2
STANDARD
 70
     0
  3

  4

  5

  6

  7

 40
1.0
 41
0.1875
 42
0.0625
 43
0.38
 44
0.125
 45
0.0
 46
0.0
 47
0.01
 48
0.01
140
0.15625
141
0.09
142
0.0
143
25.399999999999999
144
1.0
145
0.0
146
1.0
147
0.09
 71
     1
 72
     0
 73
     1
 74
     1
 75
     0
 76
     0
 77
     0
 78
     4
170
     0
171
     2
172
     0
173
     0
174
     0
175
     0
176
     0
177
     0
178
     0
  0
ENDTAB
  0
ENDSEC
  0
SECTION
  2
BLOCKS
  0
BLOCK
  8
0
  2
$MODEL_SPACE
 70
     0
 10
0.0
 20
0.0
 30
0.0
  3
$MODEL_SPACE
  1

  0
ENDBLK
  5
21
  8
0
  0
BLOCK
 67
     1
  8
0
  2
$PAPER_SPACE
 70
     0
 10
0.0
 20
0.0
 30
0.0
  3
$PAPER_SPACE
  1

  0
ENDBLK
  5
1D
 67
     1
  8
0
  0
ENDSEC
  0
SECTION
  2
ENTITIES
  0
ATTDEF
  5
157D
  8
DEFPOINTS
 10
303.76361976735478
 20
20.098293032092378
 30
0.0
 40
0.001
  1
K-TS78015-4
  3

  2
MODELNUMBER
 70
     0
1001
ACDBATTR
1070
     0
1070
     1
  0
ATTDEF
  5
157E
  8
DEFPOINTS
 10
303.76361976735478
 20
20.09662636542572
 30
0.0
 40
0.001
  1
COMPONENTS
  3

  2
TRADENAME
 70
     0
1001
ACDBATTR
1070
     0
1070
     1
  0
ATTDEF
  5
157F
  8
DEFPOINTS
 10
303.76361976735478
 20
20.094959698759052
 30
0.0
 40
0.001
  1
VALVE TRIM
  3

  2
PRODUCT
 70
     0
1001
ACDBATTR
1070
     0
1070
     1
  0
ATTDEF
  5
1580
  8
DEFPOINTS
 10
303.76361976735478
 20
20.093293032092379
 30
0.0
 40
0.001
  1
PREMIUM MATERIALS
  3

  2
MATERIAL
 70
     0
1001
ACDBATTR
1070
     0
1070
     1
  0
LINE
  5
2971
  8
0
 10
302.9087495473949
 20
23.271778630625711
 30
0.0
 11
303.7591535613949
 21
23.286626365425711
 31
0.0
  0
LINE
  5
2972
  8
0
 10
298.78783544359482
 20
20.586843194925709
 30
0.0
 11
298.78783544359482
 21
17.619500622411021
 31
0.0
  0
LINE
  5
2973
  8
0
 10
302.71053053929478
 20
21.146622487925711
 30
0.0
 11
300.82816493779478
 21
21.146622487925711
 31
0.0
  0
LINE
  5
2974
  8
0
 10
300.01819395369478
 20
19.675789412507299
 30
0.0
 11
300.06884910979483
 21
19.09103339992571
 31
0.0
  0
LINE
  5
2975
  8
0
 10
300.01819395369478
 20
17.570778644425712
 30
0.0
 11
300.01819395369478
 21
20.642189375425708
 31
0.0
  0
LINE
  5
2976
  8
0
 10
300.09873717809478
 20
21.129622487925712
 30
0.0
 11
300.09873717809478
 21
19.063622487925709
 31
0.0
  0
LINE
  5
2977
  8
0
 10
300.01819395369478
 20
20.51745556324413
 30
0.0
 11
300.06884910979483
 21
21.10221157582572
 31
0.0
  0
LINE
  5
2978
  8
0
 10
300.71622361129482
 20
21.129622487925712
 30
0.0
 11
300.09873717809478
 21
21.129622487925712
 31
0.0
  0
LINE
  5
2979
  8
0
 10
298.83244274949482
 20
20.63184148142571
 30
0.0
 11
300.01819395369478
 21
20.642189375425708
 31
0.0
  0
LINE
  5
297A
  8
0
 10
300.75942653049481
 20
19.355810427525711
 30
0.0
 11
300.76820148819479
 21
19.104528518125711
 31
0.0
  0
LINE
  5
297B
  8
0
 10
300.74622361129479
 20
21.099622487925711
 30
0.0
 11
300.74622361129479
 21
19.09362248792571
 31
0.0
  0
LINE
  5
297C
  8
0
 10
300.75942653049481
 20
20.83743454832571
 30
0.0
 11
300.76820148819479
 21
21.08871645772571
 31
0.0
  0
LINE
  5
297D
  8
0
 10
298.83244274968001
 20
19.64875556262572
 30
0.0
 11
300.01819395369478
 21
19.63840766862733
 31
0.0
  0
LINE
  5
297E
  8
0
 10
300.71622361129482
 20
19.063622487925709
 30
0.0
 11
300.09873717809478
 21
19.063622487925709
 31
0.0
  0
LINE
  5
297F
  8
0
 10
302.71053053929478
 20
19.04662248792571
 30
0.0
 11
300.82816493779478
 21
19.04662248792571
 31
0.0
  0
LINE
  5
2980
  8
0
 10
302.84788347369482
 20
16.981109345925709
 30
0.0
 11
302.79755986559479
 21
18.987001694625711
 31
0.0
  0
LINE
  5
2981
  8
0
 10
302.79755986559479
 20
18.987001694625711
 30
0.0
 11
302.79755986559479
 21
21.20624328122571
 31
0.0
  0
LINE
  5
2982
  8
0
 10
302.9087495473949
 20
23.271778630625711
 30
0.0
 11
302.9087495473949
 21
16.921466345125712
 31
0.0
  0
LINE
  5
2983
  8
0
 10
303.7591535613949
 20
16.906626365425709
 30
0.0
 11
303.7591535613949
 21
23.286626365425711
 31
0.0
  0
LINE
  5
2984
  8
0
 10
302.9087495473949
 20
16.921466345125712
 30
0.0
 11
303.7591535613949
 21
16.906626365425709
 31
0.0
  0
ARC
  5
2985
  8
0
 10
300.63949963129483
 20
20.841622487925711
 30
0.0
 40
0.12
 50
332.79374920413312
 51
357.9999999999996
  0
ARC
  5
2986
  8
0
 10
302.90982597199741
 20
23.209801518040759
 30
0.0
 40
0.0619864596041268
 50
90.995018706081538
 51
177.84200638324671
  0
ARC
  5
2987
  8
0
 10
300.82816493779478
 20
21.086622487925709
 30
0.0
 40
0.06
 50
90.0
 51
177.9999999999003
  0
ARC
  5
2988
  8
0
 10
298.83283544359477
 20
20.586843194925709
 30
0.0
 40
0.045
 50
90.500000000001322
 51
180.0
  0
ARC
  5
2989
  8
0
 10
300.71622361129482
 20
21.099622487925711
 30
0.0
 40
0.03
 50
0.0
 51
90.0
  0
ARC
  5
298A
  8
0
 10
300.09873717809478
 20
21.099622487925711
 30
0.0
 40
0.03
 50
90.0
 51
175.04904723610011
  0
ARC
  5
298B
  8
0
 10
302.71053053929478
 20
20.09662248792571
 30
0.0
 40
1.05
 50
85.245580759067835
 51
90.0
  0
ARC
  5
298C
  8
0
 10
302.71053053929478
 20
20.09662248792571
 30
0.0
 40
1.05
 50
270.0
 51
274.75441924093218
  0
ARC
  5
298D
  8
0
 10
300.63949963129483
 20
19.351622487925709
 30
0.0
 40
0.12
 50
1.999999999999543
 51
27.20625079597756
  0
ARC
  5
298E
  8
0
 10
302.90982597199451
 20
16.983443457703839
 30
0.0
 40
0.0619864595972437
 50
182.15799351817631
 51
269.00498129645268
  0
ARC
  5
298F
  8
0
 10
300.82816493779478
 20
19.106622487925708
 30
0.0
 40
0.06
 50
182.0000000000997
 51
270.0
  0
ARC
  5
2990
  8
0
 10
298.83283544391429
 20
19.693753849543981
 30
0.0
 40
0.045000000319428
 50
180.00000040523139
 51
269.49999983257521
  0
ARC
  5
2991
  8
0
 10
300.71622361129482
 20
19.09362248792571
 30
0.0
 40
0.03
 50
270.0
 51
0.0
  0
ARC
  5
2992
  8
0
 10
300.09873717809478
 20
19.09362248792571
 30
0.0
 40
0.03
 50
184.95095276389989
 51
270.0
  0
LINE
  5
2993
  8
0
 10
302.84788347369482
 20
23.212135629925712
 30
0.0
 11
302.79755986559479
 21
21.20624328122571
 31
0.0
  0
LINE
  5
2994
  8
0
 10
298.83281375769479
 20
17.570778644425712
 30
0.0
 11
300.01819395369478
 21
17.570778644425712
 31
0.0
  0
ARC
  5
2995
  8
0
 10
298.8373371226412
 20
17.620076586908869
 30
0.0
 40
0.049505029678917
 50
180.6666207379599
 51
264.75746786898048
  0
ENDSEC
  0
EOF
