  0
SECTION
  2
HEADER
  9
$ACADVER
  1
AC1009
  9
$INSBASE
 10
304.401634760614
 20
20.900366322151999
 30
0.0
  9
$EXTMIN
 10
301.211634760614
 20
15.929048204351989
 30
0.0
  9
$EXTMAX
 10
307.591634760614
 20
20.907107232585211
 30
0.0
  9
$LIMMIN
 10
0.0
 20
0.0
  9
$LIMMAX
 10
11.692913385800001
 20
8.2677165353999982
  9
$ORTHOMODE
 70
     1
  9
$REGENMODE
 70
     1
  9
$FILLMODE
 70
     1
  9
$QTEXTMODE
 70
     0
  9
$MIRRTEXT
 70
     0
  9
$DRAGMODE
 70
     2
  9
$LTSCALE
 40
0.6431102362
  9
$OSMODE
 70
  3071
  9
$ATTMODE
 70
     1
  9
$TEXTSIZE
 40
0.2
  9
$TRACEWID
 40
0.05
  9
$TEXTSTYLE
  7
STANDARD
  9
$CLAYER
  8
0
  9
$CELTYPE
  6
BYLAYER
  9
$CECOLOR
 62
   256
  9
$DIMSCALE
 40
1.0
  9
$DIMASZ
 40
0.1875
  9
$DIMEXO
 40
0.0625
  9
$DIMDLI
 40
0.4443307087
  9
$DIMRND
 40
0.0
  9
$DIMDLE
 40
0.0
  9
$DIMEXE
 40
0.125
  9
$DIMTP
 40
0.01
  9
$DIMTM
 40
0.01
  9
$DIMTXT
 40
1.0
  9
$DIMCEN
 40
0.1052362205
  9
$DIMTSZ
 40
0.0
  9
$DIMTOL
 70
     1
  9
$DIMLIM
 70
     0
  9
$DIMTIH
 70
     1
  9
$DIMTOH
 70
     1
  9
$DIMSE1
 70
     0
  9
$DIMSE2
 70
     0
  9
$DIMTAD
 70
     0
  9
$DIMZIN
 70
     0
  9
$DIMBLK
  1

  9
$DIMASO
 70
     1
  9
$DIMSHO
 70
     1
  9
$DIMPOST
  1
\X
  9
$DIMAPOST
  1

  9
$DIMALT
 70
     1
  9
$DIMALTD
 70
     2
  9
$DIMALTF
 40
25.399999999999999
  9
$DIMLFAC
 40
1.0
  9
$DIMTOFL
 70
     0
  9
$DIMTVP
 40
0.0
  9
$DIMTIX
 70
     0
  9
$DIMSOXD
 70
     0
  9
$DIMSAH
 70
     0
  9
$DIMBLK1
  1

  9
$DIMBLK2
  1

  9
$DIMSTYLE
  2
STANDARD
  9
$DIMCLRD
 70
     0
  9
$DIMCLRE
 70
     0
  9
$DIMCLRT
 70
     0
  9
$DIMTFAC
 40
1.0
  9
$DIMGAP
 40
0.09
  9
$LUNITS
 70
     2
  9
$LUPREC
 70
     4
  9
$SKETCHINC
 40
0.1
  9
$FILLETRAD
 40
0.0
  9
$AUNITS
 70
     0
  9
$AUPREC
 70
     0
  9
$MENU
  1
.
  9
$ELEVATION
 40
0.0
  9
$PELEVATION
 40
0.0
  9
$THICKNESS
 40
0.0
  9
$LIMCHECK
 70
     0
  9
$BLIPMODE
 70
     0
  9
$CHAMFERA
 40
0.0
  9
$CHAMFERB
 40
0.0
  9
$SKPOLY
 70
     0
  9
$TDCREATE
 40
2458172.4620311921
  9
$TDUPDATE
 40
2458355.5974240969
  9
$TDINDWG
 40
0.0892450694
  9
$TDUSRTIMER
 40
0.0892450694
  9
$USRTIMER
 70
     1
  9
$ANGBASE
 50
0.0
  9
$ANGDIR
 70
     0
  9
$PDMODE
 70
     0
  9
$PDSIZE
 40
0.3125
  9
$PLINEWID
 40
0.0
  9
$COORDS
 70
     1
  9
$SPLFRAME
 70
     0
  9
$SPLINETYPE
 70
     6
  9
$SPLINESEGS
 70
     8
  9
$ATTDIA
 70
     1
  9
$ATTREQ
 70
     1
  9
$HANDLING
 70
     1
  9
$HANDSEED
  5
2BA4
  9
$SURFTAB1
 70
     6
  9
$SURFTAB2
 70
     6
  9
$SURFTYPE
 70
     6
  9
$SURFU
 70
     6
  9
$SURFV
 70
     6
  9
$UCSNAME
  2

  9
$UCSORG
 10
0.0
 20
0.0
 30
0.0
  9
$UCSXDIR
 10
1.0
 20
0.0
 30
0.0
  9
$UCSYDIR
 10
0.0
 20
1.0
 30
0.0
  9
$PUCSNAME
  2

  9
$PUCSORG
 10
0.0
 20
0.0
 30
0.0
  9
$PUCSXDIR
 10
1.0
 20
0.0
 30
0.0
  9
$PUCSYDIR
 10
0.0
 20
1.0
 30
0.0
  9
$USERI1
 70
     0
  9
$USERI2
 70
     0
  9
$USERI3
 70
     0
  9
$USERI4
 70
     0
  9
$USERI5
 70
     0
  9
$USERR1
 40
0.0
  9
$USERR2
 40
0.0
  9
$USERR3
 40
0.0
  9
$USERR4
 40
0.0
  9
$USERR5
 40
0.0
  9
$WORLDVIEW
 70
     1
  9
$SHADEDGE
 70
     3
  9
$SHADEDIF
 70
    70
  9
$TILEMODE
 70
     1
  9
$MAXACTVP
 70
    64
  9
$PLIMCHECK
 70
     0
  9
$PEXTMIN
 10
1.0000000000000000E+020
 20
1.0000000000000000E+020
 30
1.0000000000000000E+020
  9
$PEXTMAX
 10
-1.0000000000000000E+020
 20
-1.0000000000000000E+020
 30
-1.0000000000000000E+020
  9
$PLIMMIN
 10
0.0
 20
0.0
  9
$PLIMMAX
 10
12.0
 20
9.0
  9
$UNITMODE
 70
     0
  9
$VISRETAIN
 70
     1
  9
$PLINEGEN
 70
     0
  9
$PSLTSCALE
 70
     1
  0
ENDSEC
  0
SECTION
  2
TABLES
  0
TABLE
  2
VPORT
 70
     1
  0
VPORT
  2
*ACTIVE
 70
     0
 10
0.0
 20
0.0
 11
1.0
 21
1.0
 12
0.0
 22
0.0
 13
0.0
 23
0.0
 14
1.0
 24
1.0
 15
0.0
 25
0.0
 16
0.0
 26
0.0
 36
22.756396580870401
 17
304.401634760614
 27
18.418077718468599
 37
0.0
 40
8.0923094162651843
 41
2.0984340044742731
 42
50.0
 43
0.0
 44
0.0
 50
0.0
 51
0.0
 71
     0
 72
   100
 73
     1
 74
     1
 75
     0
 76
     0
 77
     0
 78
     0
  0
ENDTAB
  0
TABLE
  2
LTYPE
 70
     2
  0
LTYPE
  2
CONTINUOUS
 70
     0
  3
Solid line
 72
    65
 73
     0
 40
0.0
  0
LTYPE
  2
PHANTOM2
 70
     0
  3
___ _ _ ___ _ _ ___ _ _ ___ _ _
 72
    65
 73
     6
 40
1.25
 49
0.625
 49
-0.125
 49
0.125
 49
-0.125
 49
0.125
 49
-0.125
  0
ENDTAB
  0
TABLE
  2
LAYER
 70
     2
  0
LAYER
  2
0
 70
     0
 62
   255
  6
CONTINUOUS
  0
LAYER
  2
DEFPOINTS
 70
     0
 62
     7
  6
CONTINUOUS
  0
ENDTAB
  0
TABLE
  2
STYLE
 70
     1
  0
STYLE
  2
STANDARD
 70
     0
 40
0.0
 41
0.8
 50
0.0
 71
     0
 42
0.2
  3
txt
  4

  0
ENDTAB
  0
TABLE
  2
VIEW
 70
     0
  0
ENDTAB
  0
TABLE
  2
UCS
 70
     0
  0
ENDTAB
  0
TABLE
  2
APPID
 70
     9
  0
APPID
  2
ACAD
 70
     0
  0
APPID
  2
ACAD_MLEADERVER
 70
     0
  0
APPID
  2
ACAD_EXEMPT_FROM_CAD_STANDARDS
 70
     0
  0
APPID
  2
ACAD_DSTYLE_DIMJAG
 70
     0
  0
APPID
  2
ACAD_DSTYLE_DIMTALN
 70
     0
  0
APPID
  2
ACAD_NAV_VCDISPLAY
 70
     0
  0
APPID
  2
ACAECLAYERSTANDARD
 70
     0
  0
APPID
  2
ACCMTRANSPARENCY
 70
     0
  0
APPID
  2
ACDBATTR
 70
     0
  0
ENDTAB
  0
TABLE
  2
DIMSTYLE
 70
     1
  0
DIMSTYLE
  2
STANDARD
 70
     0
  3

  4

  5

  6

  7

 40
1.0
 41
0.1875
 42
0.0625
 43
0.38
 44
0.125
 45
0.0
 46
0.0
 47
0.01
 48
0.01
140
0.15625
141
0.09
142
0.0
143
25.399999999999999
144
1.0
145
0.0
146
1.0
147
0.09
 71
     1
 72
     0
 73
     1
 74
     1
 75
     0
 76
     0
 77
     0
 78
     4
170
     0
171
     2
172
     0
173
     0
174
     0
175
     0
176
     0
177
     0
178
     0
  0
ENDTAB
  0
ENDSEC
  0
SECTION
  2
BLOCKS
  0
BLOCK
  8
0
  2
$MODEL_SPACE
 70
     0
 10
0.0
 20
0.0
 30
0.0
  3
$MODEL_SPACE
  1

  0
ENDBLK
  5
21
  8
0
  0
BLOCK
 67
     1
  8
0
  2
$PAPER_SPACE
 70
     0
 10
0.0
 20
0.0
 30
0.0
  3
$PAPER_SPACE
  1

  0
ENDBLK
  5
1D
 67
     1
  8
0
  0
ENDSEC
  0
SECTION
  2
ENTITIES
  0
ATTDEF
  5
157D
  8
DEFPOINTS
 10
304.39834927961942
 20
20.90610723258521
 30
0.0
 40
0.001
  1
K-TS78015-4
  3

  2
MODELNUMBER
 70
     0
1001
ACDBATTR
1070
     0
1070
     1
  0
ATTDEF
  5
157E
  8
DEFPOINTS
 10
304.39834927961942
 20
20.904440565918541
 30
0.0
 40
0.001
  1
COMPONENTS
  3

  2
TRADENAME
 70
     0
1001
ACDBATTR
1070
     0
1070
     1
  0
ATTDEF
  5
157F
  8
DEFPOINTS
 10
304.39834927961942
 20
20.90277389925188
 30
0.0
 40
0.001
  1
VALVE TRIM
  3

  2
PRODUCT
 70
     0
1001
ACDBATTR
1070
     0
1070
     1
  0
ATTDEF
  5
1580
  8
DEFPOINTS
 10
304.39834927961942
 20
20.901107232585218
 30
0.0
 40
0.001
  1
PREMIUM MATERIALS
  3

  2
MATERIAL
 70
     0
1001
ACDBATTR
1070
     0
1070
     1
  0
LINE
  5
296F
  8
0
 10
301.22648249541402
 20
20.049962308152001
 30
0.0
 11
301.211634760614
 21
20.900366322151999
 31
0.0
  0
LINE
  5
2970
  8
0
 10
303.91141793111399
 20
15.929048204351989
 30
0.0
 11
304.89185159011402
 21
15.929048204351989
 31
0.0
  0
LINE
  5
2971
  8
0
 10
303.35163863811403
 20
19.851743300052
 30
0.0
 11
303.35163863811403
 21
17.969377698551991
 31
0.0
  0
LINE
  5
2972
  8
0
 10
304.82247171353242
 20
17.15940671445199
 30
0.0
 11
305.407227726114
 21
17.210061870551989
 31
0.0
  0
LINE
  5
2973
  8
0
 10
304.94719777071401
 20
17.15940671445199
 30
0.0
 11
303.85607175061398
 21
17.15940671445199
 31
0.0
  0
LINE
  5
2974
  8
0
 10
303.36863863811402
 20
17.239949938852
 30
0.0
 11
305.434638638114
 21
17.239949938852
 31
0.0
  0
LINE
  5
2975
  8
0
 10
303.98080556279558
 20
17.15940671445199
 30
0.0
 11
303.396049550214
 21
17.210061870551989
 31
0.0
  0
LINE
  5
2976
  8
0
 10
303.36863863811402
 20
17.857436372051989
 30
0.0
 11
303.36863863811402
 21
17.239949938852
 31
0.0
  0
LINE
  5
2977
  8
0
 10
303.86641964461398
 20
15.973655510252
 30
0.0
 11
303.85607175061398
 21
17.15940671445199
 31
0.0
  0
LINE
  5
2978
  8
0
 10
305.14245069851398
 20
17.900639291251998
 30
0.0
 11
305.39373260791399
 21
17.909414248952
 31
0.0
  0
LINE
  5
2979
  8
0
 10
303.39863863811399
 20
17.88743637205199
 30
0.0
 11
305.40463863811402
 21
17.88743637205199
 31
0.0
  0
LINE
  5
297A
  8
0
 10
303.66082657771398
 20
17.900639291251998
 30
0.0
 11
303.40954466831403
 21
17.909414248952
 31
0.0
  0
LINE
  5
297B
  8
0
 10
304.93684987671389
 20
15.973655510252
 30
0.0
 11
304.94719777071401
 21
17.15940671445199
 31
0.0
  0
LINE
  5
297C
  8
0
 10
305.434638638114
 20
17.857436372051989
 30
0.0
 11
305.434638638114
 21
17.239949938852
 31
0.0
  0
LINE
  5
297D
  8
0
 10
305.45163863811399
 20
19.851743300052
 30
0.0
 11
305.45163863811399
 21
17.969377698551991
 31
0.0
  0
LINE
  5
297E
  8
0
 10
307.51715178011398
 20
19.989096234451988
 30
0.0
 11
305.51125943141398
 21
19.938772626352002
 31
0.0
  0
LINE
  5
297F
  8
0
 10
305.51125943141398
 20
19.938772626352002
 30
0.0
 11
303.29201784481398
 21
19.938772626352002
 31
0.0
  0
LINE
  5
2980
  8
0
 10
301.22648249541402
 20
20.049962308152001
 30
0.0
 11
307.57679478091399
 21
20.049962308152001
 31
0.0
  0
LINE
  5
2981
  8
0
 10
307.591634760614
 20
20.900366322151999
 30
0.0
 11
301.211634760614
 21
20.900366322151999
 31
0.0
  0
LINE
  5
2982
  8
0
 10
307.57679478091399
 20
20.049962308152001
 30
0.0
 11
307.591634760614
 21
20.900366322151999
 31
0.0
  0
ARC
  5
2983
  8
0
 10
303.65663863811398
 20
17.780712392051989
 30
0.0
 40
0.12
 50
62.793749204131892
 51
87.999999999999616
  0
ARC
  5
2984
  8
0
 10
301.2884596079989
 20
20.051038732754549
 30
0.0
 40
0.0619864596041268
 50
180.99501870608231
 51
267.84200638324762
  0
ARC
  5
2985
  8
0
 10
303.41163863811403
 20
17.969377698551991
 30
0.0
 40
0.06
 50
180.0
 51
267.99999999989859
  0
ARC
  5
2986
  8
0
 10
303.91141793111399
 20
15.974048204352
 30
0.0
 40
0.045
 50
180.49999999999989
 51
270.0
  0
ARC
  5
2987
  8
0
 10
303.39863863811399
 20
17.857436372051989
 30
0.0
 40
0.03
 50
90.0
 51
180.0
  0
ARC
  5
2988
  8
0
 10
303.39863863811399
 20
17.239949938852
 30
0.0
 40
0.03
 50
180.0
 51
265.04904723609837
  0
ARC
  5
2989
  8
0
 10
304.40163863811398
 20
19.851743300052
 30
0.0
 40
1.05
 50
175.2455807590683
 51
180.0
  0
ARC
  5
298A
  8
0
 10
304.40163863811398
 20
19.851743300052
 30
0.0
 40
1.05
 50
0.0
 51
4.7544192409316581
  0
ARC
  5
298B
  8
0
 10
305.14663863811398
 20
17.780712392051989
 30
0.0
 40
0.12
 50
92.000000000000398
 51
117.20625079597799
  0
ARC
  5
298C
  8
0
 10
307.51481766833592
 20
20.051038732751689
 30
0.0
 40
0.0619864595972437
 50
272.15799351817788
 51
359.00498129645132
  0
ARC
  5
298D
  8
0
 10
305.39163863811399
 20
17.969377698551991
 30
0.0
 40
0.06
 50
272.00000000009823
 51
0.0
  0
ARC
  5
298E
  8
0
 10
304.89185159011402
 20
15.974048204352
 30
0.0
 40
0.045
 50
270.0
 51
359.49999999999989
  0
ARC
  5
298F
  8
0
 10
305.40463863811402
 20
17.857436372051989
 30
0.0
 40
0.03
 50
0.0
 51
90.0
  0
ARC
  5
2990
  8
0
 10
305.40463863811402
 20
17.239949938852
 30
0.0
 40
0.03
 50
274.95095276389839
 51
0.0
  0
LINE
  5
2991
  8
0
 10
301.28612549611398
 20
19.989096234451988
 30
0.0
 11
303.29201784481398
 21
19.938772626352002
 31
0.0
  0
ENDSEC
  0
EOF
