  0
SECTION
  2
HEADER
  9
$ACADVER
  1
AC1009
  9
$INSBASE
 10
24.6398071559992502
 20
3.7500752198923091
 30
0.0
  9
$EXTMIN
 10
20.4914640566825987
 20
0.4986951015972274
 30
0.0
  9
$EXTMAX
 10
24.6526168028793116
 20
6.938166868192309
 30
0.0
  9
$LIMMIN
 10
0.0
 20
0.0
  9
$LIMMAX
 10
11.6929133858000007
 20
8.2677165353999982
  9
$ORTHOMODE
 70
     0
  9
$REGENMODE
 70
     1
  9
$FILLMODE
 70
     1
  9
$QTEXTMODE
 70
     0
  9
$MIRRTEXT
 70
     0
  9
$DRAGMODE
 70
     2
  9
$LTSCALE
 40
0.6431102362
  9
$OSMODE
 70
  4095
  9
$ATTMODE
 70
     1
  9
$TEXTSIZE
 40
0.2
  9
$TRACEWID
 40
0.05
  9
$TEXTSTYLE
  7
STANDARD
  9
$CLAYER
  8
0
  9
$CELTYPE
  6
BYLAYER
  9
$CECOLOR
 62
   256
  9
$DIMSCALE
 40
1.0
  9
$DIMASZ
 40
0.1875
  9
$DIMEXO
 40
0.0625
  9
$DIMDLI
 40
0.4443307087
  9
$DIMRND
 40
0.0
  9
$DIMDLE
 40
0.0
  9
$DIMEXE
 40
0.125
  9
$DIMTP
 40
0.0
  9
$DIMTM
 40
0.0
  9
$DIMTXT
 40
1.0
  9
$DIMCEN
 40
0.1052362205
  9
$DIMTSZ
 40
0.0
  9
$DIMTOL
 70
     0
  9
$DIMLIM
 70
     0
  9
$DIMTIH
 70
     1
  9
$DIMTOH
 70
     1
  9
$DIMSE1
 70
     0
  9
$DIMSE2
 70
     0
  9
$DIMTAD
 70
     0
  9
$DIMZIN
 70
     0
  9
$DIMBLK
  1

  9
$DIMASO
 70
     1
  9
$DIMSHO
 70
     1
  9
$DIMPOST
  1
\X
  9
$DIMAPOST
  1

  9
$DIMALT
 70
     1
  9
$DIMALTD
 70
     2
  9
$DIMALTF
 40
25.3999999999999986
  9
$DIMLFAC
 40
1.0
  9
$DIMTOFL
 70
     0
  9
$DIMTVP
 40
0.0
  9
$DIMTIX
 70
     0
  9
$DIMSOXD
 70
     0
  9
$DIMSAH
 70
     0
  9
$DIMBLK1
  1

  9
$DIMBLK2
  1

  9
$DIMSTYLE
  2
STANDARD
  9
$DIMCLRD
 70
     0
  9
$DIMCLRE
 70
     0
  9
$DIMCLRT
 70
     0
  9
$DIMTFAC
 40
1.0
  9
$DIMGAP
 40
0.09
  9
$LUNITS
 70
     2
  9
$LUPREC
 70
     4
  9
$SKETCHINC
 40
0.1
  9
$FILLETRAD
 40
0.0
  9
$AUNITS
 70
     0
  9
$AUPREC
 70
     0
  9
$MENU
  1
.
  9
$ELEVATION
 40
0.0
  9
$PELEVATION
 40
0.0
  9
$THICKNESS
 40
0.0
  9
$LIMCHECK
 70
     0
  9
$BLIPMODE
 70
     0
  9
$CHAMFERA
 40
0.0
  9
$CHAMFERB
 40
0.0
  9
$SKPOLY
 70
     0
  9
$TDCREATE
 40
2457675.7675000000745058
  9
$TDUPDATE
 40
2459599.8578703701496124
  9
$TDINDWG
 40
0.7635640278
  9
$TDUSRTIMER
 40
0.7635640278
  9
$USRTIMER
 70
     1
  9
$ANGBASE
 50
0.0
  9
$ANGDIR
 70
     0
  9
$PDMODE
 70
     0
  9
$PDSIZE
 40
0.3125
  9
$PLINEWID
 40
0.0
  9
$COORDS
 70
     1
  9
$SPLFRAME
 70
     0
  9
$SPLINETYPE
 70
     6
  9
$SPLINESEGS
 70
     8
  9
$ATTDIA
 70
     1
  9
$ATTREQ
 70
     1
  9
$HANDLING
 70
     1
  9
$HANDSEED
  5
12DF
  9
$SURFTAB1
 70
     6
  9
$SURFTAB2
 70
     6
  9
$SURFTYPE
 70
     6
  9
$SURFU
 70
     6
  9
$SURFV
 70
     6
  9
$UCSNAME
  2

  9
$UCSORG
 10
0.0
 20
0.0
 30
0.0
  9
$UCSXDIR
 10
1.0
 20
0.0
 30
0.0
  9
$UCSYDIR
 10
0.0
 20
1.0
 30
0.0
  9
$PUCSNAME
  2

  9
$PUCSORG
 10
0.0
 20
0.0
 30
0.0
  9
$PUCSXDIR
 10
1.0
 20
0.0
 30
0.0
  9
$PUCSYDIR
 10
0.0
 20
1.0
 30
0.0
  9
$USERI1
 70
     0
  9
$USERI2
 70
     0
  9
$USERI3
 70
     0
  9
$USERI4
 70
     0
  9
$USERI5
 70
     0
  9
$USERR1
 40
0.0
  9
$USERR2
 40
0.0
  9
$USERR3
 40
0.0
  9
$USERR4
 40
0.0
  9
$USERR5
 40
0.0
  9
$WORLDVIEW
 70
     1
  9
$SHADEDGE
 70
     3
  9
$SHADEDIF
 70
    70
  9
$TILEMODE
 70
     1
  9
$MAXACTVP
 70
    48
  9
$PLIMCHECK
 70
     0
  9
$PEXTMIN
 10
1.0000000000000000E+20
 20
1.0000000000000000E+20
 30
1.0000000000000000E+20
  9
$PEXTMAX
 10
-1.0000000000000000E+20
 20
-1.0000000000000000E+20
 30
-1.0000000000000000E+20
  9
$PLIMMIN
 10
0.0
 20
0.0
  9
$PLIMMAX
 10
12.0
 20
9.0
  9
$UNITMODE
 70
     0
  9
$VISRETAIN
 70
     1
  9
$PLINEGEN
 70
     0
  9
$PSLTSCALE
 70
     1
  0
ENDSEC
  0
SECTION
  2
TABLES
  0
TABLE
  2
VPORT
 70
     1
  0
VPORT
  2
*ACTIVE
 70
     0
 10
0.0
 20
0.0
 11
1.0
 21
1.0
 12
22.5720404297809516
 22
3.7184309848947681
 13
0.0
 23
0.0
 14
1.0
 24
1.0
 15
0.0
 25
0.0
 16
0.0
 26
0.0
 36
1.0
 17
0.0
 27
0.0
 37
0.0
 40
6.4905111729353342
 41
1.67063492063492
 42
50.0
 43
0.0
 44
0.0
 50
0.0
 51
0.0
 71
     0
 72
   100
 73
     1
 74
     1
 75
     0
 76
     0
 77
     0
 78
     0
  0
ENDTAB
  0
TABLE
  2
LTYPE
 70
     1
  0
LTYPE
  2
CONTINUOUS
 70
     0
  3
Solid line
 72
    65
 73
     0
 40
0.0
  0
ENDTAB
  0
TABLE
  2
LAYER
 70
     2
  0
LAYER
  2
0
 70
     0
 62
     7
  6
CONTINUOUS
  0
LAYER
  2
DEFPOINTS
 70
     0
 62
     7
  6
CONTINUOUS
  0
ENDTAB
  0
TABLE
  2
STYLE
 70
     1
  0
STYLE
  2
STANDARD
 70
     0
 40
0.0
 41
0.8
 50
0.0
 71
     0
 42
0.2
  3
txt
  4

  0
ENDTAB
  0
TABLE
  2
VIEW
 70
     0
  0
ENDTAB
  0
TABLE
  2
UCS
 70
     0
  0
ENDTAB
  0
TABLE
  2
APPID
 70
     9
  0
APPID
  2
ACAD
 70
     0
  0
APPID
  2
ACAD_MLEADERVER
 70
     0
  0
APPID
  2
ACAD_NAV_VCDISPLAY
 70
     0
  0
APPID
  2
ACAD_EXEMPT_FROM_CAD_STANDARDS
 70
     0
  0
APPID
  2
ACAD_DSTYLE_DIMJAG
 70
     0
  0
APPID
  2
ACAD_DSTYLE_DIMTALN
 70
     0
  0
APPID
  2
ACAD_DSTYLE_DIMRADIAL_EXTENSION
 70
     0
  0
APPID
  2
ACDBATTR
 70
     0
  0
APPID
  2
ACADANNOTATIVE
 70
     0
  0
ENDTAB
  0
TABLE
  2
DIMSTYLE
 70
     3
  0
DIMSTYLE
  2
STANDARD
 70
     0
  3

  4

  5

  6

  7

 40
1.0
 41
0.1875
 42
0.0625
 43
0.38
 44
0.125
 45
0.0
 46
0.0
 47
1.5
 48
1.5
140
0.15625
141
0.09
142
0.0
143
25.3999999999999986
144
1.0
145
0.0
146
1.0
147
0.09
 71
     0
 72
     0
 73
     1
 74
     1
 75
     0
 76
     0
 77
     0
 78
     4
170
     0
171
     2
172
     0
173
     0
174
     0
175
     0
176
     0
177
     0
178
     0
  0
ENDTAB
  0
ENDSEC
  0
SECTION
  2
BLOCKS
  0
BLOCK
  8
0
  2
$MODEL_SPACE
 70
     0
 10
0.0
 20
0.0
 30
0.0
  3
$MODEL_SPACE
  1

  0
ENDBLK
  5
21
  8
0
  0
BLOCK
 67
     1
  8
0
  2
$PAPER_SPACE
 70
     0
 10
0.0
 20
0.0
 30
0.0
  3
$PAPER_SPACE
  1

  0
ENDBLK
  5
1D
 67
     1
  8
0
  0
BLOCK
  8
0
  2
*U3
 70
     1
 10
0.0
 20
0.0
 30
0.0
  3
*U3
  1

  0
TEXT
  5
12D8
  8
0
 62
     0
 10
2.8416102714015321
 20
4.2730423917923073
 30
0.0
 40
1.0
  1
4.1502
 41
0.8
  0
ENDBLK
  5
12DA
  8
0
  0
BLOCK
  8
0
  2
*U4
 70
     1
 10
0.0
 20
0.0
 30
0.0
  3
*U4
  1

  0
TEXT
  5
12DC
  8
0
 62
     0
 10
2.4416102714015322
 20
3.0930423917923071
 30
0.0
 40
1.0
  1
[105.41]
 41
0.8
  0
ENDBLK
  5
12DE
  8
0
  0
ENDSEC
  0
SECTION
  2
ENTITIES
  0
ATTDEF
  5
8EE
  8
DEFPOINTS
 10
24.641950136212639
 20
3.7464270250861631
 30
0.0
 40
0.001
  1
VALVE TRIM 
  3

  2
PRODUCT
 70
     0
1001
ACDBATTR
1070
     0
1070
     1
  0
ATTDEF
  5
8EF
  8
DEFPOINTS
 10
24.641950136212639
 20
3.7480936917528278
 30
0.0
 40
0.001
  1
COMPOSED
  3

  2
TRADENAME
 70
     0
1001
ACDBATTR
1070
     0
1070
     1
  0
ATTDEF
  5
8F0
  8
DEFPOINTS
 10
24.641950136212639
 20
3.749760358419493
 30
0.0
 40
0.001
  1
K-TS73115-4
  3

  2
MODELNUMBER
 70
     0
1001
ACDBATTR
1070
     0
1070
     1
  0
LINE
  5
122A
  8
0
 10
23.7894031419992515
 20
0.5730107255923098
 30
0.0
 11
24.5948071559992485
 21
0.5589523461923096
 31
0.0
  0
LINE
  5
122B
  8
0
 10
20.8528071559992512
 20
4.2581668681923102
 30
0.0
 11
20.8528071559992512
 21
3.2381668681923088
 31
0.0
  0
LINE
  5
122C
  8
0
 10
20.5191273181992493
 20
0.5037965381423093
 30
0.0
 11
20.8111273207992511
 21
0.4986996590923094
 31
0.0
  0
LINE
  5
122D
  8
0
 10
22.5528071559992505
 20
2.6981668681923092
 30
0.0
 11
23.678032837363439
 21
2.6981668681923092
 31
0.0
  0
LINE
  5
122E
  8
0
 10
20.8928071559992503
 20
3.1981668681923092
 30
0.0
 11
22.4728071559992486
 21
3.1981668681923092
 31
0.0
  0
LINE
  5
122F
  8
0
 10
22.5128071559992513
 20
4.75816077989231
 30
0.0
 11
22.5128071559992513
 21
2.7381699123923089
 31
0.0
  0
LINE
  5
1230
  8
0
 10
20.8928071559992503
 20
4.2981668681923093
 30
0.0
 11
22.4728071559992486
 21
4.2981668681923093
 31
0.0
  0
LINE
  5
1231
  8
0
 10
23.678032837363439
 20
2.639306149597596
 30
0.0
 11
23.678032837363439
 21
4.8585477361975959
 31
0.0
  0
LINE
  5
1232
  8
0
 10
23.7285379112992487
 20
6.86370225639231
 30
0.0
 11
23.7285379112992487
 21
0.632631480092309
 31
0.0
  0
LINE
  5
1233
  8
0
 10
22.5528071559992505
 20
4.7981668681923093
 30
0.0
 11
23.5909670547992505
 21
4.7981668681923093
 31
0.0
  0
LINE
  5
1234
  8
0
 10
20.8131273246377013
 20
4.297668618084967
 30
0.0
 11
20.5191273181992493
 21
4.2925371983423091
 31
0.0
  0
LINE
  5
1235
  8
0
 10
24.5948071559992485
 20
0.5589523461923096
 30
0.0
 11
24.5948071559992485
 21
0.5614423323923097
 31
0.0
  0
LINE
  5
1236
  8
0
 10
24.6398071559992502
 20
0.5619835715923092
 30
0.0
 11
24.6398071559992502
 21
6.938166868192309
 31
0.0
  0
LINE
  5
1237
  8
0
 10
23.7979031419992495
 20
6.9233230108923092
 30
0.0
 11
24.6398071559992502
 21
6.938166868192309
 31
0.0
  0
ARC
  5
1238
  8
0
 10
20.5217832117366292
 20
0.533811634296947
 30
0.0
 40
0.030132370760595
 50
180.1037735160431055
 51
264.9433379883379871
  0
ARC
  5
1239
  8
0
 10
20.8116502308735498
 20
0.5286957611304346
 30
0.0
 40
0.0300006595332073
 50
269.0012867045624034
 51
359.9987182487773225
  0
ARC
  5
123A
  8
0
 10
20.8928071559992503
 20
3.2381668681923088
 30
0.0
 40
0.04
 50
180.0
 51
270.0
  0
ARC
  5
123B
  8
0
 10
23.7904303517297286
 20
0.6349375951462481
 30
0.0
 40
0.0619353884719513
 50
182.1338561241333878
 51
269.0496953691874182
  0
ARC
  5
123C
  8
0
 10
22.5528071560811512
 20
2.7381668683900382
 30
0.0
 40
0.0400000001977296
 50
179.9956397879429062
 51
269.999999882680811
  0
ARC
  5
123D
  8
0
 10
22.4728071559992486
 20
3.1581668681923092
 30
0.0
 40
0.04
 50
0.0
 51
90.0
  0
ARC
  5
123E
  8
0
 10
20.5182791425865716
 20
4.2657355299209812
 30
0.0
 40
0.0268150859039605
 50
88.187401294382525
 51
186.7674981385056014
  0
ARC
  5
123F
  8
0
 10
20.8928071559992503
 20
4.2581668681923102
 30
0.0
 40
0.04
 50
90.0
 51
180.0
  0
ARC
  5
1240
  8
0
 10
20.8115260077424189
 20
4.2675862818773771
 30
0.0
 40
0.0301249260165991
 50
0.0972116141370231
 51
86.9529564501510208
  0
ARC
  5
1241
  8
0
 10
23.5909670547992896
 20
3.748166868192794
 30
0.0
 40
1.049999999999514
 50
85.2336943128169082
 51
90.0000000000018332
  0
ARC
  5
1242
  8
0
 10
22.5528071563268
 20
4.7581668674015374
 30
0.0
 40
0.0400000007907722
 50
90.0000004691801649
 51
180.0087197145234086
  0
ARC
  5
1243
  8
0
 10
22.4728071559992486
 20
4.3381668681923102
 30
0.0
 40
0.04
 50
270.0
 51
0.0
  0
ARC
  5
1244
  8
0
 10
23.7911074224592483
 20
6.8610678755139309
 30
0.0
 40
0.0626249445909452
 50
83.7703053222561067
 51
177.5890851447769876
  0
ARC
  5
1245
  8
0
 10
103.1041563271760992
 20
3.8612058790135309
 30
0.0
 40
79.4323849786663629
 50
177.8337379288826128
 51
179.2805833450497914
  0
ARC
  5
1246
  8
0
 10
212.0665268038978013
 20
7.2537120215183331
 30
0.0
 40
188.4543434358780871
 50
181.4032893290909954
 51
182.0134217577567881
  0
ARC
  5
1247
  8
0
 10
24.6012600567008199
 20
0.5337873286160675
 30
0.0
 40
0.0283978724789071
 50
87.2181704002526175
 51
103.1341529422658994
  0
ARC
  5
1248
  8
0
 10
24.6181942138039282
 20
-0.107312812666577
 30
0.0
 40
0.6696452562755577
 50
88.1504454000616136
 51
91.3311061282625474
  0
LINE
  5
1249
  8
0
 10
20.4916508903992494
 20
0.5337570588923098
 30
0.0
 11
20.4916508903992494
 21
4.2625756220923101
 31
0.0
  0
LINE
  5
124A
  8
0
 10
20.8416508903992508
 20
0.5286950899923096
 30
0.0
 11
20.8416508903992508
 21
4.2676373936923087
 31
0.0
  0
ARC
  5
124B
  8
0
 10
20.8716508903992484
 20
3.2777334982923101
 30
0.0
 40
0.03
 50
129.250880677999902
 51
180.0
  0
ARC
  5
124C
  8
0
 10
20.8716508903992484
 20
4.218600238192308
 30
0.0
 40
0.03
 50
180.0
 51
230.7491193220000127
  0
ENDSEC
  0
EOF
