  0
SECTION
  2
HEADER
  9
$ACADVER
  1
AC1009
  9
$INSBASE
 10
11.3909359322929706
 20
11.2326718403394707
 30
0.0
  9
$EXTMIN
 10
8.2007046563932278
 20
7.0839469108074304
 30
-0.0015258207003583
  9
$EXTMAX
 10
14.5809930821574891
 20
11.2404382530413702
 30
0.0000000349246037
  9
$LIMMIN
 10
0.0
 20
0.0
  9
$LIMMAX
 10
11.6929133858000007
 20
8.2677165353999982
  9
$ORTHOMODE
 70
     0
  9
$REGENMODE
 70
     1
  9
$FILLMODE
 70
     1
  9
$QTEXTMODE
 70
     0
  9
$MIRRTEXT
 70
     0
  9
$DRAGMODE
 70
     2
  9
$LTSCALE
 40
0.6431102362
  9
$OSMODE
 70
  4095
  9
$ATTMODE
 70
     1
  9
$TEXTSIZE
 40
0.2
  9
$TRACEWID
 40
0.05
  9
$TEXTSTYLE
  7
STANDARD
  9
$CLAYER
  8
0
  9
$CELTYPE
  6
BYLAYER
  9
$CECOLOR
 62
   256
  9
$DIMSCALE
 40
1.0
  9
$DIMASZ
 40
0.1875
  9
$DIMEXO
 40
0.0625
  9
$DIMDLI
 40
0.4443307087
  9
$DIMRND
 40
0.0
  9
$DIMDLE
 40
0.0
  9
$DIMEXE
 40
0.125
  9
$DIMTP
 40
0.0
  9
$DIMTM
 40
0.0
  9
$DIMTXT
 40
1.0
  9
$DIMCEN
 40
0.1052362205
  9
$DIMTSZ
 40
0.0
  9
$DIMTOL
 70
     0
  9
$DIMLIM
 70
     0
  9
$DIMTIH
 70
     1
  9
$DIMTOH
 70
     1
  9
$DIMSE1
 70
     0
  9
$DIMSE2
 70
     0
  9
$DIMTAD
 70
     0
  9
$DIMZIN
 70
     0
  9
$DIMBLK
  1

  9
$DIMASO
 70
     1
  9
$DIMSHO
 70
     1
  9
$DIMPOST
  1
\X
  9
$DIMAPOST
  1

  9
$DIMALT
 70
     1
  9
$DIMALTD
 70
     2
  9
$DIMALTF
 40
25.3999999999999986
  9
$DIMLFAC
 40
1.0
  9
$DIMTOFL
 70
     0
  9
$DIMTVP
 40
0.0
  9
$DIMTIX
 70
     0
  9
$DIMSOXD
 70
     0
  9
$DIMSAH
 70
     0
  9
$DIMBLK1
  1

  9
$DIMBLK2
  1

  9
$DIMSTYLE
  2
STANDARD
  9
$DIMCLRD
 70
     0
  9
$DIMCLRE
 70
     0
  9
$DIMCLRT
 70
     0
  9
$DIMTFAC
 40
1.0
  9
$DIMGAP
 40
0.09
  9
$LUNITS
 70
     2
  9
$LUPREC
 70
     4
  9
$SKETCHINC
 40
0.1
  9
$FILLETRAD
 40
0.0
  9
$AUNITS
 70
     0
  9
$AUPREC
 70
     0
  9
$MENU
  1
.
  9
$ELEVATION
 40
0.0
  9
$PELEVATION
 40
0.0
  9
$THICKNESS
 40
0.0
  9
$LIMCHECK
 70
     0
  9
$BLIPMODE
 70
     0
  9
$CHAMFERA
 40
0.0
  9
$CHAMFERB
 40
0.0
  9
$SKPOLY
 70
     0
  9
$TDCREATE
 40
2457675.7675000000745058
  9
$TDUPDATE
 40
2459599.8578009260818362
  9
$TDINDWG
 40
0.7632167593
  9
$TDUSRTIMER
 40
0.7632167593
  9
$USRTIMER
 70
     1
  9
$ANGBASE
 50
0.0
  9
$ANGDIR
 70
     0
  9
$PDMODE
 70
     0
  9
$PDSIZE
 40
0.3125
  9
$PLINEWID
 40
0.0
  9
$COORDS
 70
     1
  9
$SPLFRAME
 70
     0
  9
$SPLINETYPE
 70
     6
  9
$SPLINESEGS
 70
     8
  9
$ATTDIA
 70
     1
  9
$ATTREQ
 70
     1
  9
$HANDLING
 70
     1
  9
$HANDSEED
  5
F85
  9
$SURFTAB1
 70
     6
  9
$SURFTAB2
 70
     6
  9
$SURFTYPE
 70
     6
  9
$SURFU
 70
     6
  9
$SURFV
 70
     6
  9
$UCSNAME
  2

  9
$UCSORG
 10
0.0
 20
0.0
 30
0.0
  9
$UCSXDIR
 10
1.0
 20
0.0
 30
0.0
  9
$UCSYDIR
 10
0.0
 20
1.0
 30
0.0
  9
$PUCSNAME
  2

  9
$PUCSORG
 10
0.0
 20
0.0
 30
0.0
  9
$PUCSXDIR
 10
1.0
 20
0.0
 30
0.0
  9
$PUCSYDIR
 10
0.0
 20
1.0
 30
0.0
  9
$USERI1
 70
     0
  9
$USERI2
 70
     0
  9
$USERI3
 70
     0
  9
$USERI4
 70
     0
  9
$USERI5
 70
     0
  9
$USERR1
 40
0.0
  9
$USERR2
 40
0.0
  9
$USERR3
 40
0.0
  9
$USERR4
 40
0.0
  9
$USERR5
 40
0.0
  9
$WORLDVIEW
 70
     1
  9
$SHADEDGE
 70
     3
  9
$SHADEDIF
 70
    70
  9
$TILEMODE
 70
     1
  9
$MAXACTVP
 70
    48
  9
$PLIMCHECK
 70
     0
  9
$PEXTMIN
 10
1.0000000000000000E+20
 20
1.0000000000000000E+20
 30
1.0000000000000000E+20
  9
$PEXTMAX
 10
-1.0000000000000000E+20
 20
-1.0000000000000000E+20
 30
-1.0000000000000000E+20
  9
$PLIMMIN
 10
0.0
 20
0.0
  9
$PLIMMAX
 10
12.0
 20
9.0
  9
$UNITMODE
 70
     0
  9
$VISRETAIN
 70
     1
  9
$PLINEGEN
 70
     0
  9
$PSLTSCALE
 70
     1
  0
ENDSEC
  0
SECTION
  2
TABLES
  0
TABLE
  2
VPORT
 70
     1
  0
VPORT
  2
*ACTIVE
 70
     0
 10
0.0
 20
0.0
 11
1.0
 21
1.0
 12
11.3908488692753593
 22
9.162192581924403
 13
0.0
 23
0.0
 14
1.0
 24
1.0
 15
0.0
 25
0.0
 16
0.0
 26
0.0
 36
1.0
 17
0.0
 27
0.0
 37
0.0
 40
4.1894357914458382
 41
1.67063492063492
 42
50.0
 43
0.0
 44
0.0
 50
0.0
 51
0.0
 71
     0
 72
   100
 73
     1
 74
     1
 75
     0
 76
     0
 77
     0
 78
     0
  0
ENDTAB
  0
TABLE
  2
LTYPE
 70
     1
  0
LTYPE
  2
CONTINUOUS
 70
     0
  3
Solid line
 72
    65
 73
     0
 40
0.0
  0
ENDTAB
  0
TABLE
  2
LAYER
 70
     2
  0
LAYER
  2
0
 70
     0
 62
     7
  6
CONTINUOUS
  0
LAYER
  2
DEFPOINTS
 70
     0
 62
     7
  6
CONTINUOUS
  0
ENDTAB
  0
TABLE
  2
STYLE
 70
     1
  0
STYLE
  2
STANDARD
 70
     0
 40
0.0
 41
0.8
 50
0.0
 71
     0
 42
0.2
  3
txt
  4

  0
ENDTAB
  0
TABLE
  2
VIEW
 70
     0
  0
ENDTAB
  0
TABLE
  2
UCS
 70
     0
  0
ENDTAB
  0
TABLE
  2
APPID
 70
     9
  0
APPID
  2
ACAD
 70
     0
  0
APPID
  2
ACAD_MLEADERVER
 70
     0
  0
APPID
  2
ACAD_NAV_VCDISPLAY
 70
     0
  0
APPID
  2
ACAD_EXEMPT_FROM_CAD_STANDARDS
 70
     0
  0
APPID
  2
ACAD_DSTYLE_DIMJAG
 70
     0
  0
APPID
  2
ACAD_DSTYLE_DIMTALN
 70
     0
  0
APPID
  2
ACAD_DSTYLE_DIMRADIAL_EXTENSION
 70
     0
  0
APPID
  2
ACDBATTR
 70
     0
  0
APPID
  2
ACADANNOTATIVE
 70
     0
  0
ENDTAB
  0
TABLE
  2
DIMSTYLE
 70
     2
  0
DIMSTYLE
  2
STANDARD
 70
     0
  3

  4

  5

  6

  7

 40
1.0
 41
0.1875
 42
0.0625
 43
0.38
 44
0.125
 45
0.0
 46
0.0
 47
1.5
 48
1.5
140
0.15625
141
0.09
142
0.0
143
25.3999999999999986
144
1.0
145
0.0
146
1.0
147
0.09
 71
     0
 72
     0
 73
     1
 74
     1
 75
     0
 76
     0
 77
     0
 78
     4
170
     0
171
     2
172
     0
173
     0
174
     0
175
     0
176
     0
177
     0
178
     0
  0
ENDTAB
  0
ENDSEC
  0
SECTION
  2
BLOCKS
  0
BLOCK
  8
0
  2
$MODEL_SPACE
 70
     0
 10
0.0
 20
0.0
 30
0.0
  3
$MODEL_SPACE
  1

  0
ENDBLK
  5
21
  8
0
  0
BLOCK
 67
     1
  8
0
  2
$PAPER_SPACE
 70
     0
 10
0.0
 20
0.0
 30
0.0
  3
$PAPER_SPACE
  1

  0
ENDBLK
  5
1D
 67
     1
  8
0
  0
ENDSEC
  0
SECTION
  2
ENTITIES
  0
ATTDEF
  5
912
  8
DEFPOINTS
 10
11.3882345232341393
 20
11.2355005583918892
 30
0.0
 40
0.001
  1
VALVE TRIM 
  3

  2
PRODUCT
 70
     0
1001
ACDBATTR
1070
     0
1070
     1
  0
ATTDEF
  5
913
  8
DEFPOINTS
 10
11.3882345232341393
 20
11.2371672250585508
 30
0.0
 40
0.001
  1
COMPOSED
  3

  2
TRADENAME
 70
     0
1001
ACDBATTR
1070
     0
1070
     1
  0
ATTDEF
  5
914
  8
DEFPOINTS
 10
11.3882345232341393
 20
11.2388338917252195
 30
0.0
 40
0.001
  1
K-TS73115-4
  3

  2
MODELNUMBER
 70
     0
1001
ACDBATTR
1070
     0
1070
     1
  0
LINE
  5
ED9
  8
0
 10
8.2157889269932731
 20
10.3822678262402501
 30
0.0
 11
8.2009450696929687
 21
11.2326718403394707
 31
0.0
  0
LINE
  5
EDA
  8
0
 10
10.8809450696929702
 20
7.4456718403394699
 30
0.0
 11
11.9009450696929697
 21
7.4456718403394699
 31
0.0
  0
LINE
  5
EDB
  8
0
 10
10.3409450696929692
 20
9.145671840339471
 30
0.0
 11
10.3409450696929692
 21
10.1838317391394693
 31
0.0
  0
LINE
  5
EDC
  8
0
 10
10.8409450696929692
 20
7.48567184033947
 30
0.0
 11
10.8409450696929692
 21
9.0656718403394692
 31
0.0
  0
LINE
  5
EDD
  8
0
 10
10.3809450696929702
 20
9.1056718403394701
 30
0.0
 11
12.4009320679929704
 21
9.1056718403394701
 31
0.0
  0
LINE
  5
EDE
  8
0
 10
11.9409450696929706
 20
7.48567184033947
 30
0.0
 11
11.9409450696929706
 21
9.0656718403394692
 31
0.0
  0
LINE
  5
EDF
  8
0
 10
12.4409450696929706
 20
9.145671840339471
 30
0.0
 11
12.4409450696929706
 21
10.1838317391394693
 31
0.0
  0
LINE
  5
EE0
  8
0
 10
14.5064804578929696
 20
10.3214025956394693
 30
0.0
 11
12.5010179537158894
 21
10.2710849185394704
 31
0.0
  0
LINE
  5
EE1
  8
0
 10
12.5010179537158894
 20
10.2710849185394704
 30
0.0
 11
10.2817763671158797
 21
10.2710849185394704
 31
0.0
  0
LINE
  5
EE2
  8
0
 10
8.2754094010249428
 20
10.3213951927572793
 30
0.0
 11
14.50648045789295
 21
10.3214025956394693
 31
0.0
  0
LINE
  5
EE3
  8
0
 10
12.4363002599158907
 20
10.2710916925394695
 30
0.0
 11
12.4413971601158906
 21
10.1753385131394705
 31
0.0
  0
LINE
  5
EE4
  8
0
 10
11.3909359322929706
 20
11.23267182816606
 30
0.0
 11
8.2009450696929687
 21
11.2326718403394707
 31
0.0
  0
LINE
  5
EE5
  8
0
 10
14.5661012123929705
 20
10.3822678262394703
 30
0.0
 11
14.58092676419251
 21
11.2326718403394707
 31
0.0
  0
ARC
  5
EE6
  8
0
 10
8.2777657575155814
 20
10.3833368473345597
 30
0.0
 40
0.0619864580991745
 50
180.9950181521907098
 51
267.8214303008249999
  0
ARC
  5
EE7
  8
0
 10
10.3809450696929702
 20
9.145671840339471
 30
0.0
 40
0.04
 50
180.0
 51
270.0
  0
ARC
  5
EE8
  8
0
 10
10.8809450696929702
 20
7.48567184033947
 30
0.0
 40
0.04
 50
180.0
 51
270.0
  0
ARC
  5
EE9
  8
0
 10
10.9205116997929697
 20
7.4645155747394707
 30
0.0
 40
0.03
 50
270.0
 51
321.0881147767697144
  0
ARC
  5
EEA
  8
0
 10
10.8009450696929701
 20
9.0656718403394692
 30
0.0
 40
0.04
 50
0.0
 51
90.0
  0
ARC
  5
EEB
  8
0
 10
11.9009450696929697
 20
7.48567184033947
 30
0.0
 40
0.04
 50
270.0
 51
0.0
  0
ARC
  5
EEC
  8
0
 10
11.8613784395929702
 20
7.4645155747394707
 30
0.0
 40
0.03
 50
218.9118852232303141
 51
270.0
  0
ARC
  5
EED
  8
0
 10
11.9809450696929698
 20
9.0656718403394692
 30
0.0
 40
0.04
 50
90.0
 51
180.0
  0
ARC
  5
EEE
  8
0
 10
12.4009450696929697
 20
9.145671840339471
 30
0.0
 40
0.04
 50
270.0
 51
0.0
  0
ARC
  5
EEF
  8
0
 10
14.5041241012952007
 20
10.3833442502198494
 30
0.0
 40
0.0619864581063555
 50
272.1785697980303098
 51
359.0049818450522139
  0
ARC
  5
EF0
  8
0
 10
11.2448405869991195
 20
88.6791777815496403
 30
0.0
 40
78.4140268944318848
 50
267.8297688447922269
 51
269.295957296986785
  0
ARC
  5
EF1
  8
0
 10
10.8374186816093996
 20
10.1957554973648801
 30
0.0
 40
0.4966167768427463
 50
171.2754002859450964
 51
181.3758026532157999
  0
LINE
  5
EF2
  8
0
 10
10.8765378014929706
 20
7.084515574739469
 30
0.0
 11
11.90535487909297
 21
7.084515574739469
 31
0.0
  0
LINE
  5
EF3
  8
0
 10
11.9104053073929705
 20
7.4345155747394713
 30
0.0
 11
10.8714732914929701
 21
7.4345155747394713
 31
0.0
  0
LINE
  5
EF4
  8
0
 10
10.8465398294929702
 20
7.1139920025394723
 30
0.0
 11
10.8414778606929705
 21
7.4039920025394714
 31
0.0
  0
LINE
  5
EF5
  8
0
 10
11.9404122787929694
 20
7.4039920025394714
 30
0.0
 11
11.9353503099929696
 21
7.1139920025394723
 31
0.0
  0
ARC
  5
EF6
  8
0
 10
11.9104168441268392
 20
7.4045155731740877
 30
0.0
 40
0.0300000037836518
 50
359.0000031031058256
 51
90.0220335364482764
  0
ARC
  5
EF7
  8
0
 10
10.8714732914929701
 20
7.4045155747394702
 30
0.0
 40
0.03
 50
90.0
 51
180.9999999998998987
  0
ARC
  5
EF8
  8
0
 10
10.8765352604792405
 20
7.1145155748195004
 30
0.0
 40
0.0300000001876433
 50
181.0000001466117112
 51
270.0048529787142115
  0
ARC
  5
EF9
  8
0
 10
11.90535487909297
 20
7.114515574739471
 30
0.0
 40
0.03
 50
270.0
 51
359.0000000001999183
  0
LINE
  5
EFB
  8
0
 10
11.3909359015925098
 20
11.23267182816606
 30
0.0
 11
14.58092676419251
 21
11.2326718403394707
 31
0.0
  0
ENDSEC
  0
EOF
