  0
SECTION
  2
HEADER
  9
$ACADVER
  1
AC1009
  9
$INSBASE
 10
372.0572963172264735
 20
34.4156788344631366
 30
0.0
  9
$EXTMIN
 10
368.8486005974992281
 20
30.2534997430851895
 30
-0.0000000000000058
  9
$EXTMAX
 10
375.2657464283236095
 20
34.4161393056095903
 30
0.0000000000000104
  9
$LIMMIN
 10
0.0
 20
0.0
  9
$LIMMAX
 10
22.0
 20
17.0
  9
$ORTHOMODE
 70
     1
  9
$REGENMODE
 70
     1
  9
$FILLMODE
 70
     1
  9
$QTEXTMODE
 70
     0
  9
$MIRRTEXT
 70
     0
  9
$DRAGMODE
 70
     2
  9
$LTSCALE
 40
1.2099999999999991
  9
$OSMODE
 70
  4095
  9
$ATTMODE
 70
     1
  9
$TEXTSIZE
 40
0.2
  9
$TRACEWID
 40
0.05
  9
$TEXTSTYLE
  7
STANDARD
  9
$CLAYER
  8
0
  9
$CELTYPE
  6
BYLAYER
  9
$CECOLOR
 62
   256
  9
$DIMSCALE
 40
1.0
  9
$DIMASZ
 40
0.1875
  9
$DIMEXO
 40
0.0625
  9
$DIMDLI
 40
0.38
  9
$DIMRND
 40
0.0
  9
$DIMDLE
 40
0.0
  9
$DIMEXE
 40
0.125
  9
$DIMTP
 40
1.5
  9
$DIMTM
 40
1.5
  9
$DIMTXT
 40
1.5
  9
$DIMCEN
 40
0.09
  9
$DIMTSZ
 40
0.0
  9
$DIMTOL
 70
     0
  9
$DIMLIM
 70
     0
  9
$DIMTIH
 70
     1
  9
$DIMTOH
 70
     1
  9
$DIMSE1
 70
     0
  9
$DIMSE2
 70
     0
  9
$DIMTAD
 70
     0
  9
$DIMZIN
 70
     4
  9
$DIMBLK
  1

  9
$DIMASO
 70
     1
  9
$DIMSHO
 70
     1
  9
$DIMPOST
  1

  9
$DIMAPOST
  1

  9
$DIMALT
 70
     0
  9
$DIMALTD
 70
     2
  9
$DIMALTF
 40
25.3999999999999986
  9
$DIMLFAC
 40
1.0
  9
$DIMTOFL
 70
     0
  9
$DIMTVP
 40
0.0
  9
$DIMTIX
 70
     0
  9
$DIMSOXD
 70
     0
  9
$DIMSAH
 70
     0
  9
$DIMBLK1
  1

  9
$DIMBLK2
  1

  9
$DIMSTYLE
  2
STANDARD
  9
$DIMCLRD
 70
     0
  9
$DIMCLRE
 70
     0
  9
$DIMCLRT
 70
     0
  9
$DIMTFAC
 40
1.0
  9
$DIMGAP
 40
0.09
  9
$LUNITS
 70
     2
  9
$LUPREC
 70
     4
  9
$SKETCHINC
 40
0.1
  9
$FILLETRAD
 40
0.0
  9
$AUNITS
 70
     0
  9
$AUPREC
 70
     0
  9
$MENU
  1
.
  9
$ELEVATION
 40
0.0
  9
$PELEVATION
 40
0.0
  9
$THICKNESS
 40
0.0
  9
$LIMCHECK
 70
     0
  9
$BLIPMODE
 70
     0
  9
$CHAMFERA
 40
0.0
  9
$CHAMFERB
 40
0.0
  9
$SKPOLY
 70
     0
  9
$TDCREATE
 40
2457827.4934837957844138
  9
$TDUPDATE
 40
2459648.7716666669584811
  9
$TDINDWG
 40
0.4106501157
  9
$TDUSRTIMER
 40
0.4106501157
  9
$USRTIMER
 70
     1
  9
$ANGBASE
 50
0.0
  9
$ANGDIR
 70
     0
  9
$PDMODE
 70
     0
  9
$PDSIZE
 40
0.3125
  9
$PLINEWID
 40
0.0
  9
$COORDS
 70
     1
  9
$SPLFRAME
 70
     0
  9
$SPLINETYPE
 70
     6
  9
$SPLINESEGS
 70
     8
  9
$ATTDIA
 70
     1
  9
$ATTREQ
 70
     1
  9
$HANDLING
 70
     1
  9
$HANDSEED
  5
91C1
  9
$SURFTAB1
 70
     6
  9
$SURFTAB2
 70
     6
  9
$SURFTYPE
 70
     6
  9
$SURFU
 70
     6
  9
$SURFV
 70
     6
  9
$UCSNAME
  2

  9
$UCSORG
 10
0.0
 20
0.0
 30
0.0
  9
$UCSXDIR
 10
1.0
 20
0.0
 30
0.0
  9
$UCSYDIR
 10
0.0
 20
1.0
 30
0.0
  9
$PUCSNAME
  2

  9
$PUCSORG
 10
0.0
 20
0.0
 30
0.0
  9
$PUCSXDIR
 10
1.0
 20
0.0
 30
0.0
  9
$PUCSYDIR
 10
0.0
 20
1.0
 30
0.0
  9
$USERI1
 70
     0
  9
$USERI2
 70
     0
  9
$USERI3
 70
     0
  9
$USERI4
 70
     0
  9
$USERI5
 70
     0
  9
$USERR1
 40
0.0
  9
$USERR2
 40
0.0
  9
$USERR3
 40
0.0
  9
$USERR4
 40
0.0
  9
$USERR5
 40
0.0
  9
$WORLDVIEW
 70
     1
  9
$SHADEDGE
 70
     3
  9
$SHADEDIF
 70
    70
  9
$TILEMODE
 70
     1
  9
$MAXACTVP
 70
    48
  9
$PLIMCHECK
 70
     0
  9
$PEXTMIN
 10
1.0000000000000000E+20
 20
1.0000000000000000E+20
 30
1.0000000000000000E+20
  9
$PEXTMAX
 10
-1.0000000000000000E+20
 20
-1.0000000000000000E+20
 30
-1.0000000000000000E+20
  9
$PLIMMIN
 10
0.0
 20
0.0
  9
$PLIMMAX
 10
12.0
 20
9.0
  9
$UNITMODE
 70
     0
  9
$VISRETAIN
 70
     1
  9
$PLINEGEN
 70
     0
  9
$PSLTSCALE
 70
     1
  0
ENDSEC
  0
SECTION
  2
TABLES
  0
TABLE
  2
VPORT
 70
     1
  0
VPORT
  2
*ACTIVE
 70
     0
 10
0.0
 20
0.0
 11
1.0
 21
1.0
 12
161.0782459006067029
 22
25.1323703387868314
 13
0.0
 23
0.0
 14
1.0
 24
1.0
 15
0.0
 25
0.0
 16
-0.0000000000000284
 26
0.0
 36
157.2215818301446859
 17
210.9789276123046875
 27
7.2024491855605604
 37
0.0
 40
4.1887103739807179
 41
2.005224660397074
 42
50.0
 43
0.0
 44
0.0
 50
0.0
 51
0.0
 71
     0
 72
   100
 73
     1
 74
     1
 75
     0
 76
     0
 77
     0
 78
     0
  0
ENDTAB
  0
TABLE
  2
LTYPE
 70
     3
  0
LTYPE
  2
CONTINUOUS
 70
     0
  3
Solid line
 72
    65
 73
     0
 40
0.0
  0
LTYPE
  2
PHANTOM2
 70
     0
  3
___ _ _ ___ _ _ ___ _ _ ___ _ _
 72
    65
 73
     6
 40
1.25
 49
0.625
 49
-0.125
 49
0.125
 49
-0.125
 49
0.125
 49
-0.125
  0
ENDTAB
  0
TABLE
  2
LAYER
 70
     2
  0
LAYER
  2
0
 70
     0
 62
     7
  6
CONTINUOUS
  0
LAYER
  2
DEFPOINTS
 70
     0
 62
     7
  6
CONTINUOUS
  0
ENDTAB
  0
TABLE
  2
STYLE
 70
     1
  0
STYLE
  2
STANDARD
 70
     0
 40
0.0
 41
0.8
 50
0.0
 71
     0
 42
0.2
  3
txt
  4

  0
ENDTAB
  0
TABLE
  2
VIEW
 70
     0
  0
ENDTAB
  0
TABLE
  2
UCS
 70
     0
  0
ENDTAB
  0
TABLE
  2
APPID
 70
     9
  0
APPID
  2
ACAD
 70
     0
  0
APPID
  2
ACAD_MLEADERVER
 70
     0
  0
APPID
  2
ACAD_EXEMPT_FROM_CAD_STANDARDS
 70
     0
  0
APPID
  2
ACAD_NAV_VCDISPLAY
 70
     0
  0
APPID
  2
ACADANNOMONITORALERTICONDI
 70
     0
  0
APPID
  2
ACAD_DSTYLE_DIMJAG
 70
     0
  0
APPID
  2
ACAD_DSTYLE_DIMTALN
 70
     0
  0
APPID
  2
ACDBATTR
 70
     0
  0
APPID
  2
DCO15
 70
     0
  0
ENDTAB
  0
TABLE
  2
DIMSTYLE
 70
     2
  0
DIMSTYLE
  2
STANDARD
 70
     0
  3

  4

  5

  6

  7

 40
1.0
 41
0.1875
 42
0.0625
 43
0.38
 44
0.125
 45
0.0
 46
0.0
 47
1.5
 48
1.5
140
1.5
141
0.09
142
0.0
143
25.3999999999999986
144
1.0
145
0.0
146
1.0
147
0.09
 71
     0
 72
     0
 73
     1
 74
     1
 75
     0
 76
     0
 77
     0
 78
     4
170
     0
171
     2
172
     0
173
     0
174
     0
175
     0
176
     0
177
     0
178
     0
  0
ENDTAB
  0
ENDSEC
  0
SECTION
  2
BLOCKS
  0
BLOCK
  8
0
  2
$MODEL_SPACE
 70
     0
 10
0.0
 20
0.0
 30
0.0
  3
$MODEL_SPACE
  1

  0
ENDBLK
  5
21
  8
0
  0
BLOCK
 67
     1
  8
0
  2
$PAPER_SPACE
 70
     0
 10
0.0
 20
0.0
 30
0.0
  3
$PAPER_SPACE
  1

  0
ENDBLK
  5
1D
 67
     1
  8
0
  0
ENDSEC
  0
SECTION
  2
ENTITIES
  0
ATTDEF
  5
4EF9
  8
DEFPOINTS
 10
372.0536620944948254
 20
34.4130683976134932
 30
0.0
 40
0.001
  1
K-TS73115-3
  3

  2
MODELNUMBER
 70
     0
1001
ACDBATTR
1070
     0
1070
     1
  0
ATTDEF
  5
4EFA
  8
DEFPOINTS
 10
372.0536620944948254
 20
34.4114017309468068
 30
0.0
 40
0.001
  1
COMPOSED
  3

  2
TRADENAME
 70
     0
1001
ACDBATTR
1070
     0
1070
     1
  0
ATTDEF
  5
4EFB
  8
DEFPOINTS
 10
372.0536620944948254
 20
34.4097350642801274
 30
0.0
 40
0.001
  1
VALVE TRIM
  3

  2
PRODUCT
 70
     0
1001
ACDBATTR
1070
     0
1070
     1
  0
LINE
  5
9090
  8
0
 10
370.5929563280461139
 20
30.25502256886314
 30
0.0
 11
373.5216363064067764
 21
30.25502256886314
 31
0.0
  0
LINE
  5
9091
  8
0
 10
370.5878245389949939
 20
30.6090225688631392
 30
0.0
 11
373.5267680954580101
 21
30.6090225688631392
 31
0.0
  0
LINE
  5
9092
  8
0
 10
370.562960897191374
 20
30.2844989966738787
 30
0.0
 11
370.5578291081403108
 21
30.5784989966738792
 31
0.0
  0
ARC
  5
9093
  8
0
 10
370.5929563280461139
 20
30.2850225688631411
 30
0.0
 40
0.03
 50
180.9999999926411078
 51
270.0
  0
ARC
  5
9094
  8
0
 10
370.5878245389949939
 20
30.5790225688631416
 30
0.0
 40
0.03
 50
90.0
 51
180.999999992637612
  0
LINE
  5
9095
  8
0
 10
371.5070009674298035
 20
30.6090225688631392
 30
0.0
 11
371.4927630361262914
 21
32.2405278958834316
 31
0.0
  0
LINE
  5
9096
  8
0
 10
371.0563563290492084
 20
32.2801788344631504
 30
0.0
 11
373.0582363054037955
 21
32.2801788344631504
 31
0.0
  0
LINE
  5
9097
  8
0
 10
371.016357852126589
 20
32.3198297730452495
 30
0.0
 11
371.0072963296191801
 21
33.3581774113618224
 31
0.0
  0
ARC
  5
9098
  8
0
 10
371.0563563290492084
 20
32.3201788344631424
 30
0.0
 40
0.04
 50
180.4999999970721944
 51
270.0
  0
ARC
  5
9099
  8
0
 10
371.452764559203672
 20
32.240178834463137
 30
0.0
 40
0.04
 50
0.5000000005175425
 51
90.0
  0
LINE
  5
909A
  8
0
 10
370.9475892283901999
 20
33.4540861991368601
 30
0.0
 11
373.1670034060626904
 21
33.4540861991368601
 31
0.0
  0
ARC
  5
909B
  8
0
 10
371.9120721130295806
 20
111.9088247480361957
 30
0.0
 40
78.460666757369097
 50
267.8304324993138721
 51
269.295670138960304
  0
LINE
  5
909C
  8
0
 10
368.8821401744262971
 20
33.5652748203739222
 30
0.0
 11
368.8672963172264758
 21
34.4156788344631366
 31
0.0
  0
ARC
  5
909D
  8
0
 10
368.9441307315261156
 20
33.5663568695670875
 30
0.0
 40
0.062
 50
180.9999999945142974
 51
267.8304330113053879
  0
LINE
  5
909E
  8
0
 10
368.8672963172264758
 20
34.4156788344631366
 30
0.0
 11
375.2472963172265281
 21
34.4156788344631366
 31
0.0
  0
ARC
  5
909F
  8
0
 10
372.057296317226303
 20
33.3583387332631531
 30
0.0
 40
1.0499999999998431
 50
174.768040854327694
 51
180.0088029182149967
  0
LINE
  5
90A0
  8
0
 10
371.6728291081403199
 20
30.5784989966742309
 30
0.0
 11
371.6779608971878019
 21
30.2844989966742304
 31
0.0
  0
ARC
  5
90A1
  8
0
 10
371.702824538995003
 20
30.5790225688631416
 30
0.0
 40
0.03
 50
89.9999999999967457
 51
180.9999999919625111
  0
ARC
  5
90A2
  8
0
 10
371.7079563280427124
 20
30.2850225688631411
 30
0.0
 40
0.03
 50
180.9999999919591005
 51
270.0000000000032969
  0
LINE
  5
90A3
  8
0
 10
373.5516317372615731
 20
30.2844989966738787
 30
0.0
 11
373.5567635263126931
 21
30.5784989966738792
 31
0.0
  0
ARC
  5
90A4
  8
0
 10
373.5216363064067764
 20
30.2850225688631411
 30
0.0
 40
0.03
 50
270.0
 51
359.0000000073587216
  0
ARC
  5
90A5
  8
0
 10
373.5267680954580101
 20
30.5790225688631416
 30
0.0
 40
0.03
 50
359.0000000073620754
 51
90.0
  0
LINE
  5
90A6
  8
0
 10
372.6075916670230868
 20
30.6090225688631392
 30
0.0
 11
372.6218295983267126
 21
32.2405278958834316
 31
0.0
  0
LINE
  5
90A7
  8
0
 10
373.0982347823263012
 20
32.3198297730452495
 30
0.0
 11
373.1072963048337101
 21
33.3581774113618224
 31
0.0
  0
ARC
  5
90A8
  8
0
 10
373.0582363054037955
 20
32.3201788344631424
 30
0.0
 40
0.04
 50
270.0
 51
359.5000000029277771
  0
ARC
  5
90A9
  8
0
 10
372.6618280752492183
 20
32.240178834463137
 30
0.0
 40
0.04
 50
90.0
 51
179.4999999994822133
  0
ARC
  5
90AA
  8
0
 10
372.2025205214233097
 20
111.9088247480361957
 30
0.0
 40
78.460666757369097
 50
270.704329861039696
 51
272.1695675006861279
  0
LINE
  5
90AB
  8
0
 10
375.2324524600265931
 20
33.5652748203739222
 30
0.0
 11
375.2472963172265281
 21
34.4156788344631366
 31
0.0
  0
ARC
  5
90AC
  8
0
 10
375.1704619029268883
 20
33.5663568695670875
 30
0.0
 40
0.062
 50
272.1695669886946121
 51
359.0000000054855036
  0
ARC
  5
90AD
  8
0
 10
372.0572963172267009
 20
33.3583387332631531
 30
0.0
 40
1.0499999999998431
 50
359.9911970817847759
 51
5.2319591456721071
  0
LINE
  5
90AE
  8
0
 10
372.441763526312684
 20
30.5784989966742309
 30
0.0
 11
372.4366317372650883
 21
30.2844989966742304
 31
0.0
  0
ARC
  5
90AF
  8
0
 10
372.4117680954578873
 20
30.5790225688631416
 30
0.0
 40
0.03
 50
359.0000000080373752
 51
90.0000000000032543
  0
ARC
  5
90B0
  8
0
 10
372.4066363064102916
 20
30.2850225688631411
 30
0.0
 40
0.03
 50
269.9999999999968168
 51
359.0000000080406721
  0
LINE
  5
90B8
  8
0
 10
368.9417835951107918
 20
33.5044013133138634
 30
0.0
 11
375.1728090393419279
 21
33.5044013133138634
 31
0.0
  0
ENDSEC
  0
EOF
