  0
SECTION
  2
HEADER
  9
$ACADVER
  1
AC1009
  9
$INSBASE
 10
14.837367041704461
 20
32.059631728867252
 30
0.0
  9
$EXTMIN
 10
11.63100437750446
 20
23.995173281892011
 30
0.0
  9
$EXTMAX
 10
18.043729705904461
 20
32.071946480418482
 30
0.0
  9
$LIMMIN
 10
0.0
 20
0.0
  9
$LIMMAX
 10
11.692913385800001
 20
8.2677165353999982
  9
$ORTHOMODE
 70
     0
  9
$REGENMODE
 70
     1
  9
$FILLMODE
 70
     1
  9
$QTEXTMODE
 70
     0
  9
$MIRRTEXT
 70
     0
  9
$DRAGMODE
 70
     2
  9
$LTSCALE
 40
0.6431102362
  9
$OSMODE
 70
  3071
  9
$ATTMODE
 70
     1
  9
$TEXTSIZE
 40
0.2
  9
$TRACEWID
 40
0.05
  9
$TEXTSTYLE
  7
STANDARD
  9
$CLAYER
  8
0
  9
$CELTYPE
  6
BYLAYER
  9
$CECOLOR
 62
   256
  9
$DIMSCALE
 40
1.0
  9
$DIMASZ
 40
0.1875
  9
$DIMEXO
 40
0.0625
  9
$DIMDLI
 40
0.4443307087
  9
$DIMRND
 40
0.0
  9
$DIMDLE
 40
0.0
  9
$DIMEXE
 40
0.125
  9
$DIMTP
 40
0.01
  9
$DIMTM
 40
0.01
  9
$DIMTXT
 40
1.0
  9
$DIMCEN
 40
0.1052362205
  9
$DIMTSZ
 40
0.0
  9
$DIMTOL
 70
     1
  9
$DIMLIM
 70
     0
  9
$DIMTIH
 70
     1
  9
$DIMTOH
 70
     1
  9
$DIMSE1
 70
     0
  9
$DIMSE2
 70
     0
  9
$DIMTAD
 70
     0
  9
$DIMZIN
 70
     0
  9
$DIMBLK
  1

  9
$DIMASO
 70
     1
  9
$DIMSHO
 70
     1
  9
$DIMPOST
  1
\X
  9
$DIMAPOST
  1

  9
$DIMALT
 70
     1
  9
$DIMALTD
 70
     2
  9
$DIMALTF
 40
25.399999999999999
  9
$DIMLFAC
 40
1.0
  9
$DIMTOFL
 70
     0
  9
$DIMTVP
 40
0.0
  9
$DIMTIX
 70
     0
  9
$DIMSOXD
 70
     0
  9
$DIMSAH
 70
     0
  9
$DIMBLK1
  1

  9
$DIMBLK2
  1

  9
$DIMSTYLE
  2
STANDARD
  9
$DIMCLRD
 70
     0
  9
$DIMCLRE
 70
     0
  9
$DIMCLRT
 70
     0
  9
$DIMTFAC
 40
1.0
  9
$DIMGAP
 40
0.09
  9
$LUNITS
 70
     2
  9
$LUPREC
 70
     4
  9
$SKETCHINC
 40
0.1
  9
$FILLETRAD
 40
0.0
  9
$AUNITS
 70
     0
  9
$AUPREC
 70
     0
  9
$MENU
  1
.
  9
$ELEVATION
 40
0.0
  9
$PELEVATION
 40
0.0
  9
$THICKNESS
 40
0.0
  9
$LIMCHECK
 70
     0
  9
$BLIPMODE
 70
     0
  9
$CHAMFERA
 40
0.0
  9
$CHAMFERB
 40
0.0
  9
$SKPOLY
 70
     0
  9
$TDCREATE
 40
2457893.5981517709
  9
$TDUPDATE
 40
2458009.5284902779
  9
$TDINDWG
 40
0.1148911343
  9
$TDUSRTIMER
 40
0.1148911343
  9
$USRTIMER
 70
     1
  9
$ANGBASE
 50
0.0
  9
$ANGDIR
 70
     0
  9
$PDMODE
 70
     0
  9
$PDSIZE
 40
0.3125
  9
$PLINEWID
 40
0.0
  9
$COORDS
 70
     1
  9
$SPLFRAME
 70
     0
  9
$SPLINETYPE
 70
     6
  9
$SPLINESEGS
 70
     8
  9
$ATTDIA
 70
     1
  9
$ATTREQ
 70
     1
  9
$HANDLING
 70
     1
  9
$HANDSEED
  5
317A
  9
$SURFTAB1
 70
     6
  9
$SURFTAB2
 70
     6
  9
$SURFTYPE
 70
     6
  9
$SURFU
 70
     6
  9
$SURFV
 70
     6
  9
$UCSNAME
  2

  9
$UCSORG
 10
0.0
 20
0.0
 30
0.0
  9
$UCSXDIR
 10
1.0
 20
0.0
 30
0.0
  9
$UCSYDIR
 10
0.0
 20
1.0
 30
0.0
  9
$PUCSNAME
  2

  9
$PUCSORG
 10
0.0
 20
0.0
 30
0.0
  9
$PUCSXDIR
 10
1.0
 20
0.0
 30
0.0
  9
$PUCSYDIR
 10
0.0
 20
1.0
 30
0.0
  9
$USERI1
 70
     0
  9
$USERI2
 70
     0
  9
$USERI3
 70
     0
  9
$USERI4
 70
     0
  9
$USERI5
 70
     0
  9
$USERR1
 40
0.0
  9
$USERR2
 40
0.0
  9
$USERR3
 40
0.0
  9
$USERR4
 40
0.0
  9
$USERR5
 40
0.0
  9
$WORLDVIEW
 70
     1
  9
$SHADEDGE
 70
     3
  9
$SHADEDIF
 70
    70
  9
$TILEMODE
 70
     1
  9
$MAXACTVP
 70
    48
  9
$PLIMCHECK
 70
     0
  9
$PEXTMIN
 10
1.0000000000000000E+020
 20
1.0000000000000000E+020
 30
1.0000000000000000E+020
  9
$PEXTMAX
 10
-1.0000000000000000E+020
 20
-1.0000000000000000E+020
 30
-1.0000000000000000E+020
  9
$PLIMMIN
 10
0.0
 20
0.0
  9
$PLIMMAX
 10
12.0
 20
9.0
  9
$UNITMODE
 70
     0
  9
$VISRETAIN
 70
     1
  9
$PLINEGEN
 70
     0
  9
$PSLTSCALE
 70
     1
  0
ENDSEC
  0
SECTION
  2
TABLES
  0
TABLE
  2
VPORT
 70
     1
  0
VPORT
  2
*ACTIVE
 70
     0
 10
0.0
 20
0.0
 11
1.0
 21
1.0
 12
9.4726002960454387
 22
-0.1195083782474633
 13
0.0
 23
0.0
 14
1.0
 24
1.0
 15
0.0
 25
0.0
 16
-0.0000000000000071
 26
0.0
 36
30.45782878807837
 17
14.837367041704461
 27
28.02740250537963
 37
0.0
 40
28.244380164488671
 41
2.127610208816705
 42
50.0
 43
0.0
 44
0.0
 50
0.0
 51
0.0
 71
     0
 72
   100
 73
     1
 74
     1
 75
     0
 76
     0
 77
     0
 78
     0
  0
ENDTAB
  0
TABLE
  2
LTYPE
 70
     2
  0
LTYPE
  2
CONTINUOUS
 70
     0
  3
Solid line
 72
    65
 73
     0
 40
0.0
  0
LTYPE
  2
PHANTOM2
 70
     0
  3
___ _ _ ___ _ _ ___ _ _ ___ _ _
 72
    65
 73
     6
 40
1.25
 49
0.625
 49
-0.125
 49
0.125
 49
-0.125
 49
0.125
 49
-0.125
  0
ENDTAB
  0
TABLE
  2
LAYER
 70
     2
  0
LAYER
  2
0
 70
     0
 62
     7
  6
CONTINUOUS
  0
LAYER
  2
DEFPOINTS
 70
     0
 62
     7
  6
CONTINUOUS
  0
ENDTAB
  0
TABLE
  2
STYLE
 70
     1
  0
STYLE
  2
STANDARD
 70
     0
 40
0.0
 41
0.8
 50
0.0
 71
     0
 42
0.2
  3
txt
  4

  0
ENDTAB
  0
TABLE
  2
VIEW
 70
     0
  0
ENDTAB
  0
TABLE
  2
UCS
 70
     0
  0
ENDTAB
  0
TABLE
  2
APPID
 70
     7
  0
APPID
  2
ACAD
 70
     0
  0
APPID
  2
ACAD_MLEADERVER
 70
     0
  0
APPID
  2
ACAD_DSTYLE_DIMJAG
 70
     0
  0
APPID
  2
ACAD_DSTYLE_DIMTALN
 70
     0
  0
APPID
  2
ACAD_NAV_VCDISPLAY
 70
     0
  0
APPID
  2
ACAD_EXEMPT_FROM_CAD_STANDARDS
 70
     0
  0
APPID
  2
ACDBATTR
 70
     0
  0
ENDTAB
  0
TABLE
  2
DIMSTYLE
 70
     2
  0
DIMSTYLE
  2
STANDARD
 70
     0
  3

  4

  5

  6

  7

 40
1.0
 41
0.1875
 42
0.0625
 43
0.38
 44
0.125
 45
0.0
 46
0.0
 47
0.01
 48
0.01
140
0.15625
141
0.09
142
0.0
143
25.399999999999999
144
1.0
145
0.0
146
1.0
147
0.09
 71
     1
 72
     0
 73
     1
 74
     1
 75
     0
 76
     0
 77
     0
 78
     4
170
     0
171
     2
172
     0
173
     0
174
     0
175
     0
176
     0
177
     0
178
     0
  0
ENDTAB
  0
ENDSEC
  0
SECTION
  2
BLOCKS
  0
BLOCK
  8
0
  2
$MODEL_SPACE
 70
     0
 10
0.0
 20
0.0
 30
0.0
  3
$MODEL_SPACE
  1

  0
ENDBLK
  5
21
  8
0
  0
BLOCK
 67
     1
  8
0
  2
$PAPER_SPACE
 70
     0
 10
0.0
 20
0.0
 30
0.0
  3
$PAPER_SPACE
  1

  0
ENDBLK
  5
1D
 67
     1
  8
0
  0
BLOCK
  8
0
  2
*U1
 70
     1
 10
0.0
 20
0.0
 30
0.0
  3
*U1
  1

  0
TEXT
  5
3173
  8
0
 62
     0
 10
-3.499162209544592
 20
28.76151740639969
 30
0.0
 40
1.0
  1
6.8922±0.0100
 41
0.8
  0
ENDBLK
  5
3175
  8
0
  0
BLOCK
  8
0
  2
*U2
 70
     1
 10
0.0
 20
0.0
 30
0.0
  3
*U2
  1

  0
TEXT
  5
3177
  8
0
 62
     0
 10
-3.3658288762112578
 20
27.581517406399701
 30
0.0
 40
1.0
  1
[175.06±0.25]
 41
0.8
  0
ENDBLK
  5
3179
  8
0
  0
ENDSEC
  0
SECTION
  2
ENTITIES
  0
LINE
  5
304C
  8
0
 10
11.63100437750446
 20
32.059631728867252
 30
0.0
 11
18.043729705904461
 21
32.059631728867252
 31
0.0
  0
LINE
  5
304D
  8
0
 10
16.58790100710446
 20
32.059631728867252
 30
0.0
 11
16.539249338090588
 21
31.934631728867242
 31
0.0
  0
ARC
  5
304E
  8
0
 10
16.418583426439081
 20
31.974576822187711
 30
0.0
 40
0.127105754059651
 50
291.74476440732349
 51
341.68345513673819
  0
ARC
  5
304F
  8
0
 10
14.290759391754429
 20
37.415701117720872
 30
0.0
 40
5.9694884627674991
 50
286.82127578428691
 51
291.36686572608221
  0
ARC
  5
3050
  8
0
 10
14.129190712258641
 20
38.116531540488808
 30
0.0
 40
6.6872611352637117
 50
283.83663553163848
 51
286.40867731460003
  0
ARC
  5
3051
  8
0
 10
16.306431865062169
 20
29.319588680564578
 30
0.0
 40
2.375126937977504
 50
104.083507641441
 51
107.1553155220971
  0
ARC
  5
3052
  8
0
 10
15.69012382499263
 20
31.33725605807054
 30
0.0
 40
0.2655137429837118
 50
108.5040172185999
 51
122.8587231472675
  0
ARC
  5
3053
  8
0
 10
15.6172682334822
 20
31.456454065283861
 30
0.0
 40
0.1259048223335875
 50
124.4397078711451
 51
169.87809937949271
  0
LINE
  5
3054
  8
0
 10
15.493322984204459
 20
31.47858095996725
 30
0.0
 11
15.405242173745711
 21
30.89436611637732
 31
0.0
  0
ARC
  5
3055
  8
0
 10
15.36566613238951
 20
30.900178188921689
 30
0.0
 40
0.0400005404549515
 50
270.00028721261509
 51
351.64535675709789
  0
LINE
  5
3056
  8
0
 10
15.36566633290446
 20
30.860177648467239
 30
0.0
 11
14.309132428917611
 21
30.860172352267981
 31
0.0
  0
LINE
  5
3057
  8
0
 10
15.24336704170446
 20
30.86017703540465
 30
0.0
 11
15.24336704170446
 21
28.298158806896801
 31
0.0
  0
ARC
  5
3058
  8
0
 10
15.042906724725711
 20
28.395254441120439
 30
0.0
 40
0.2241882576522882
 50
352.05976205592231
 51
26.59918004105549
  0
ARC
  5
3059
  8
0
 10
15.046969287652949
 20
28.394687805634991
 30
0.0
 40
0.2200863686592537
 50
315.24888348821389
 51
352.05976205592231
  0
ARC
  5
305A
  8
0
 10
14.91508627084532
 20
28.50486125880397
 30
0.0
 40
0.391583752764078
 50
293.52310588163903
 51
317.38669835332621
  0
ARC
  5
305B
  8
0
 10
14.84072823025236
 20
28.67267011554911
 30
0.0
 40
0.5751265134648792
 50
269.66514669427562
 51
293.64296702865272
  0
ARC
  5
305C
  8
0
 10
15.03921650181797
 20
28.38905526976809
 30
0.0
 40
0.2932270079765928
 50
1.308534585407735
 51
45.875475844127394
  0
ARC
  5
305D
  8
0
 10
15.04812819130014
 20
28.402778397058871
 30
0.0
 40
0.2843256965274232
 50
315.95766041478998
 51
358.58382850881782
  0
ARC
  5
305E
  8
0
 10
14.908694975223151
 20
28.534971526589239
 30
0.0
 40
0.4764570872763702
 50
288.78114830779759
 51
316.18718314274378
  0
ARC
  5
305F
  8
0
 10
14.83831499637583
 20
28.72111045689029
 30
0.0
 40
0.6753775033645326
 50
269.91958005796369
 51
289.34992688612482
  0
ARC
  5
3060
  8
0
 10
-2.8302037641169848
 20
28.370795414397271
 30
0.0
 40
18.162587951100551
 50
359.82564864949859
 51
0.0787265244396952
  0
ARC
  5
3061
  8
0
 10
14.891620151561369
 20
28.339999116038339
 30
0.0
 40
0.441358940523663
 50
336.8712233187444
 51
356.8214342408416
  0
ARC
  5
3062
  8
0
 10
15.414878484802779
 20
28.118152401225021
 30
0.0
 40
0.1269924256461101
 50
157.556906763803
 51
163.27706305091959
  0
ARC
  5
3063
  8
0
 10
15.31757375706513
 20
28.147357509465809
 30
0.0
 40
0.025399393344712
 50
163.21187562899331
 51
172.7419025921279
  0
ARC
  5
3064
  8
0
 10
15.307709733845041
 20
28.149963512764501
 30
0.0
 40
0.0153436982619437
 50
177.74796680425681
 51
180.6561455136673
  0
LINE
  5
3065
  8
0
 10
15.292367041704461
 20
28.149787802113408
 30
0.0
 11
15.292367041704461
 21
27.714680895897029
 31
0.0
  0
ARC
  5
3066
  8
0
 10
15.28236705016729
 20
27.714684923625509
 30
0.0
 40
0.0099999915371685
 50
332.88777885733322
 51
0.0000004097983389
  0
ARC
  5
3067
  8
0
 10
14.91905390233109
 20
27.90457226761982
 30
0.0
 40
0.4199431141959088
 50
308.4562438381891
 51
332.41744065646691
  0
ARC
  5
3068
  8
0
 10
14.86183009250095
 20
27.978317620414899
 30
0.0
 40
0.5132813979910695
 50
285.015919396024
 51
308.33876128699302
  0
ARC
  5
3069
  8
0
 10
14.83828984286759
 20
28.052035240659642
 30
0.0
 40
0.5905920293826494
 50
269.91047519969692
 51
285.36877504569281
  0
ARC
  5
306A
  8
0
 10
15.067845741726529
 20
27.569738384969931
 30
0.0
 40
0.2393693862867874
 50
348.51191103595193
 51
28.92872195137722
  0
ARC
  5
306B
  8
0
 10
14.98145640067254
 20
27.60920692724315
 30
0.0
 40
0.3325826017368794
 50
294.41988050760818
 51
344.81021123606678
  0
ARC
  5
306C
  8
0
 10
14.85656005413003
 20
27.816094028006059
 30
0.0
 40
0.5732899268393082
 50
279.22578815262563
 51
297.23856464505258
  0
ARC
  5
306D
  8
0
 10
14.83774473791771
 20
27.902314114500179
 30
0.0
 40
0.6614283087478239
 50
269.96728231941779
 51
279.6371402134493
  0
ARC
  5
306E
  8
0
 10
15.012061861384501
 20
27.48535736607441
 30
0.0
 40
0.5476903340436981
 50
32.675213798755678
 51
59.216531368301013
  0
ARC
  5
306F
  8
0
 10
15.144924456376989
 20
27.57057249328814
 30
0.0
 40
0.3898483654352494
 50
3.2783369499994959
 51
32.675213798755458
  0
ARC
  5
3070
  8
0
 10
15.19499687778141
 20
27.57344065645265
 30
0.0
 40
0.3396938666814922
 50
335.1235864215958
 51
3.2783369499996988
  0
ARC
  5
3071
  8
0
 10
15.036465728101289
 20
27.651421913117609
 30
0.0
 40
0.5163357888580781
 50
300.11507054688587
 51
334.67329781843932
  0
ARC
  5
3072
  8
0
 10
14.846356898374101
 20
27.975170566115381
 30
0.0
 40
0.8917718240177524
 50
269.42239531103201
 51
300.24425994967919
  0
ARC
  5
3073
  8
0
 10
15.07291450777619
 20
27.59679433117207
 30
0.0
 40
0.2920359566054701
 50
358.5984016267202
 51
41.28323333053482
  0
ARC
  5
3074
  8
0
 10
15.047901188653491
 20
27.613643072572579
 30
0.0
 40
0.317868621845123
 50
310.10793373281609
 51
355.67133550416798
  0
ARC
  5
3075
  8
0
 10
14.908068333303561
 20
27.76133840893225
 30
0.0
 40
0.5210488364972434
 50
290.83308627899351
 51
311.40548786963319
  0
ARC
  5
3076
  8
0
 10
14.838250518093449
 20
27.94387731966723
 30
0.0
 40
0.7164839925654336
 50
269.92935015751721
 51
290.85977890940779
  0
ARC
  5
3077
  8
0
 10
16.56510850331961
 20
27.862421210020599
 30
0.0
 40
1.0600637086865909
 50
191.90282582478881
 51
207.7507319618451
  0
ARC
  5
3078
  8
0
 10
14.83736077694024
 20
24.248996982854191
 30
0.0
 40
3.8553301925036298
 50
74.251879137720593
 51
83.222152181680244
  0
ARC
  5
3079
  8
0
 10
14.98810074655546
 20
24.746309545127129
 30
0.0
 40
3.335787829591931
 50
61.367315722846428
 51
74.425474113439407
  0
ARC
  5
307A
  8
0
 10
15.44490264133116
 20
25.554996991501032
 30
0.0
 40
2.4071362862664891
 50
42.227270558631247
 51
61.686804163503723
  0
ARC
  5
307B
  8
0
 10
15.82306579280338
 20
25.897929056977748
 30
0.0
 40
1.896636814441804
 50
20.13584980673463
 51
42.233835082540843
  0
ARC
  5
307C
  8
0
 10
16.233324709255289
 20
26.052130907533389
 30
0.0
 40
1.4583740704789281
 50
350.95158102140022
 51
19.996520865705222
  0
ARC
  5
307D
  8
0
 10
15.911132056615189
 20
26.14157195783875
 30
0.0
 40
1.791019524658586
 50
316.06324423923769
 51
349.74681965841438
  0
ARC
  5
307E
  8
0
 10
15.289345476550659
 20
26.73427758870266
 30
0.0
 40
2.6500329491611141
 50
290.18976803342292
 51
316.16322555292408
  0
ARC
  5
307F
  8
0
 10
14.83406894554119
 20
27.84590700308037
 30
0.0
 40
3.8507351335732598
 50
270.04907297103853
 51
290.83917767084478
  0
LINE
  5
3080
  8
0
 10
18.043729705904461
 20
32.059631728867252
 30
0.0
 11
18.043729705904461
 21
32.039827685767243
 31
0.0
  0
LINE
  5
3081
  8
0
 10
18.043729705904461
 20
32.039827685767243
 30
0.0
 11
17.950457437004459
 21
31.826626163167241
 31
0.0
  0
ARC
  5
3082
  8
0
 10
17.76713108650965
 20
31.906969549825721
 30
0.0
 40
0.2001589632404743
 50
288.53251785365018
 51
336.3344031810206
  0
ARC
  5
3083
  8
0
 10
13.363865428041169
 20
44.986277305181808
 30
0.0
 40
14.00077617072062
 50
285.1885869025777
 51
288.60521108937752
  0
ARC
  5
3084
  8
0
 10
10.71653818862997
 20
55.66076081565221
 30
0.0
 40
24.997147562571719
 50
282.83592133021921
 51
284.63428281868522
  0
ARC
  5
3085
  8
0
 10
16.590909385928018
 20
29.91333802995921
 30
0.0
 40
1.411923242178406
 50
103.1414659561275
 51
110.69178757239411
  0
ARC
  5
3086
  8
0
 10
16.16854961379391
 20
31.009070184274311
 30
0.0
 40
0.2377676066179183
 50
108.7760520128876
 51
162.46782869684881
  0
ARC
  5
3087
  8
0
 10
16.05497403385456
 20
31.038577322854451
 30
0.0
 40
0.1207321245962492
 50
159.58256579982381
 51
169.9568715078631
  0
LINE
  5
3088
  8
0
 10
15.936091916204459
 20
31.059631728867242
 30
0.0
 11
15.43018887692195
 21
31.05983046914935
 31
0.0
  0
ARC
  5
3089
  8
0
 10
14.837367041851261
 20
30.980791627666651
 30
0.0
 40
1.0499999998536551
 50
346.17631475956358
 51
4.3072639923653551
  0
LINE
  5
308A
  8
0
 10
15.856954411922329
 20
30.729909993256651
 30
0.0
 11
15.448485107473379
 21
29.06988356343339
 31
0.0
  0
ARC
  5
308B
  8
0
 10
15.41935403686365
 20
29.077051610842769
 30
0.0
 40
0.0300000029755373
 50
270.00002185032872
 51
346.17631475956512
  0
LINE
  5
308C
  8
0
 10
15.419354048304459
 20
29.047051607867239
 30
0.0
 11
15.24336704170447
 21
29.0470515407528
 31
0.0
  0
ARC
  5
308D
  8
0
 10
15.39655901770446
 20
29.017051607867241
 30
0.0
 40
0.0299999999999976
 50
90.000000000005087
 51
164.50952901560541
  0
LINE
  5
308E
  8
0
 10
15.24336704170446
 20
29.02505160786724
 30
0.0
 11
15.418808174004459
 21
29.02505160786724
 31
0.0
  0
ARC
  5
308F
  8
0
 10
15.418808174004459
 20
29.0050507565355
 30
0.0
 40
0.0200008513317442
 50
351.23784844205551
 51
89.999999999995111
  0
ARC
  5
3090
  8
0
 10
-11.90963175433645
 20
33.27878477149855
 30
0.0
 40
27.68059427724447
 50
349.80030829738178
 51
351.11193070968773
  0
LINE
  5
3091
  8
0
 10
13.08683307630446
 20
32.059631728867252
 30
0.0
 11
13.13548474531833
 21
31.934631728867242
 31
0.0
  0
ARC
  5
3092
  8
0
 10
13.25615065696984
 20
31.974576822187711
 30
0.0
 40
0.127105754059651
 50
198.31654486326181
 51
248.25523559267631
  0
ARC
  5
3093
  8
0
 10
15.38397469165448
 20
37.415701117720872
 30
0.0
 40
5.9694884627674991
 50
248.6331342739177
 51
253.17872421571309
  0
ARC
  5
3094
  8
0
 10
15.545543371150281
 20
38.116531540488808
 30
0.0
 40
6.6872611352637117
 50
253.59132268539989
 51
256.16336446836141
  0
ARC
  5
3095
  8
0
 10
13.36830221834674
 20
29.319588680564578
 30
0.0
 40
2.375126937977504
 50
72.844684477902859
 51
75.916492358558955
  0
ARC
  5
3096
  8
0
 10
13.98461025841628
 20
31.33725605807054
 30
0.0
 40
0.2655137429837118
 50
57.141276852732467
 51
71.495982781400102
  0
ARC
  5
3097
  8
0
 10
14.057465849926711
 20
31.456454065283861
 30
0.0
 40
0.1259048223335875
 50
10.121900620507221
 51
55.560292128854726
  0
LINE
  5
3098
  8
0
 10
14.18141109920446
 20
31.47858095996725
 30
0.0
 11
14.2694919096632
 21
30.89436611637732
 31
0.0
  0
ARC
  5
3099
  8
0
 10
14.309078202845321
 20
30.900183816970269
 30
0.0
 40
0.0400115014475748
 50
188.36048391828211
 51
270.07765082341081
  0
LINE
  5
309A
  8
0
 10
14.43136704170446
 20
30.860172965006338
 30
0.0
 11
14.43136704170446
 21
28.298158806896801
 31
0.0
  0
ARC
  5
309B
  8
0
 10
14.631827358683211
 20
28.395254441120439
 30
0.0
 40
0.2241882576522882
 50
153.40081995894451
 51
187.94023794407769
  0
ARC
  5
309C
  8
0
 10
14.62776479575597
 20
28.394687805634991
 30
0.0
 40
0.2200863686592537
 50
187.94023794407769
 51
224.75111651178611
  0
ARC
  5
309D
  8
0
 10
14.7596478125636
 20
28.50486125880397
 30
0.0
 40
0.391583752764078
 50
222.61330164667379
 51
246.476894118361
  0
ARC
  5
309E
  8
0
 10
14.83400585315656
 20
28.67267011554911
 30
0.0
 40
0.5751265134648792
 50
246.35703297134731
 51
270.33485330572449
  0
ARC
  5
309F
  8
0
 10
14.63551758159095
 20
28.38905526976809
 30
0.0
 40
0.2932270079765928
 50
134.12452415587251
 51
178.69146541459219
  0
ARC
  5
30A0
  8
0
 10
14.626605892108779
 20
28.402778397058871
 30
0.0
 40
0.2843256965274232
 50
181.41617149118221
 51
224.04233958520999
  0
ARC
  5
30A1
  8
0
 10
14.766039108185771
 20
28.534971526589239
 30
0.0
 40
0.4764570872763702
 50
223.81281685725631
 51
251.21885169220229
  0
ARC
  5
30A2
  8
0
 10
14.836419087033081
 20
28.72111045689029
 30
0.0
 40
0.6753775033645326
 50
250.65007311387529
 51
270.08041994203631
  0
ARC
  5
30A3
  8
0
 10
32.504937847525909
 20
28.370795414397271
 30
0.0
 40
18.162587951100551
 50
179.9212734755603
 51
180.17435135050141
  0
ARC
  5
30A4
  8
0
 10
14.78311393184755
 20
28.339999116038339
 30
0.0
 40
0.441358940523663
 50
183.17856575915829
 51
203.1287766812556
  0
ARC
  5
30A5
  8
0
 10
14.259855598606141
 20
28.118152401225021
 30
0.0
 40
0.1269924256461101
 50
16.722936949080399
 51
22.443093236196951
  0
ARC
  5
30A6
  8
0
 10
14.35716032634379
 20
28.147357509465809
 30
0.0
 40
0.025399393344712
 50
7.2580974078719143
 51
16.788124371006649
  0
ARC
  5
30A7
  8
0
 10
14.367024349563881
 20
28.149963512764501
 30
0.0
 40
0.0153436982619437
 50
359.34385448633259
 51
2.2520331957431861
  0
LINE
  5
30A8
  8
0
 10
14.382367041704461
 20
28.149787802113408
 30
0.0
 11
14.382367041704461
 21
27.714680895897029
 31
0.0
  0
ARC
  5
30A9
  8
0
 10
14.39236703324163
 20
27.714684923625509
 30
0.0
 40
0.0099999915371685
 50
179.99999959020161
 51
207.11222114266681
  0
ARC
  5
30AA
  8
0
 10
14.75568018107783
 20
27.90457226761982
 30
0.0
 40
0.4199431141959088
 50
207.58255934353309
 51
231.5437561618109
  0
ARC
  5
30AB
  8
0
 10
14.812903990907969
 20
27.978317620414899
 30
0.0
 40
0.5132813979910695
 50
231.66123871300701
 51
254.984080603976
  0
ARC
  5
30AC
  8
0
 10
14.836444240541329
 20
28.052035240659642
 30
0.0
 40
0.5905920293826494
 50
254.6312249543071
 51
270.08952480030308
  0
ARC
  5
30AD
  8
0
 10
14.60688834168238
 20
27.569738384969931
 30
0.0
 40
0.2393693862867874
 50
151.07127804862279
 51
191.4880889640481
  0
ARC
  5
30AE
  8
0
 10
14.69327768273638
 20
27.60920692724315
 30
0.0
 40
0.3325826017368794
 50
195.18978876393319
 51
245.58011949239179
  0
ARC
  5
30AF
  8
0
 10
14.818174029278889
 20
27.816094028006059
 30
0.0
 40
0.5732899268393082
 50
242.76143535494739
 51
260.77421184737437
  0
ARC
  5
30B0
  8
0
 10
14.83698934549121
 20
27.902314114500179
 30
0.0
 40
0.6614283087478239
 50
260.36285978655059
 51
270.03271768058221
  0
ARC
  5
30B1
  8
0
 10
14.662672222024421
 20
27.48535736607441
 30
0.0
 40
0.5476903340436981
 50
120.78346863169899
 51
147.32478620124431
  0
ARC
  5
30B2
  8
0
 10
14.529809627031931
 20
27.57057249328814
 30
0.0
 40
0.3898483654352494
 50
147.32478620124451
 51
176.7216630500005
  0
ARC
  5
30B3
  8
0
 10
14.47973720562751
 20
27.57344065645265
 30
0.0
 40
0.3396938666814922
 50
176.7216630500003
 51
204.8764135784042
  0
ARC
  5
30B4
  8
0
 10
14.63826835530763
 20
27.651421913117609
 30
0.0
 40
0.5163357888580781
 50
205.32670218156071
 51
239.8849294531141
  0
ARC
  5
30B5
  8
0
 10
14.828377185034819
 20
27.975170566115381
 30
0.0
 40
0.8917718240177524
 50
239.75574005032081
 51
270.57760468896811
  0
ARC
  5
30B6
  8
0
 10
14.60181957563273
 20
27.59679433117207
 30
0.0
 40
0.2920359566054701
 50
138.71676666946499
 51
181.40159837327971
  0
ARC
  5
30B7
  8
0
 10
14.626832894755429
 20
27.613643072572579
 30
0.0
 40
0.317868621845123
 50
184.32866449583199
 51
229.89206626718391
  0
ARC
  5
30B8
  8
0
 10
14.766665750105361
 20
27.76133840893225
 30
0.0
 40
0.5210488364972434
 50
228.5945121303667
 51
249.16691372100649
  0
ARC
  5
30B9
  8
0
 10
14.83648356531547
 20
27.94387731966723
 30
0.0
 40
0.7164839925654336
 50
249.14022109059209
 51
270.07064984248279
  0
ARC
  5
30BA
  8
0
 10
13.109625580089309
 20
27.862421210020599
 30
0.0
 40
1.0600637086865909
 50
332.2492680381547
 51
348.09717417521108
  0
ARC
  5
30BB
  8
0
 10
14.837373306468679
 20
24.248996982854191
 30
0.0
 40
3.8553301925036298
 50
96.777847818319756
 51
105.74812086227939
  0
ARC
  5
30BC
  8
0
 10
14.686633336853459
 20
24.746309545127129
 30
0.0
 40
3.335787829591931
 50
105.57452588656059
 51
118.6326842771535
  0
ARC
  5
30BD
  8
0
 10
14.22983144207776
 20
25.554996991501032
 30
0.0
 40
2.4071362862664891
 50
118.31319583649621
 51
137.77272944136871
  0
ARC
  5
30BE
  8
0
 10
13.85166829060554
 20
25.897929056977748
 30
0.0
 40
1.896636814441804
 50
137.76616491745921
 51
159.8641501932654
  0
ARC
  5
30BF
  8
0
 10
13.441409374153629
 20
26.052130907533389
 30
0.0
 40
1.4583740704789281
 50
160.00347913429471
 51
189.04841897859981
  0
ARC
  5
30C0
  8
0
 10
13.76360202679373
 20
26.14157195783875
 30
0.0
 40
1.791019524658586
 50
190.25318034158551
 51
223.93675576076231
  0
ARC
  5
30C1
  8
0
 10
14.38538860685826
 20
26.73427758870266
 30
0.0
 40
2.6500329491611141
 50
223.8367744470759
 51
249.81023196657711
  0
ARC
  5
30C2
  8
0
 10
14.84066513786774
 20
27.84590700308037
 30
0.0
 40
3.8507351335732598
 50
249.1608223291552
 51
269.95092702896147
  0
LINE
  5
30C3
  8
0
 10
11.63100437750446
 20
32.059631728867252
 30
0.0
 11
11.63100437750446
 21
32.039827685767243
 31
0.0
  0
LINE
  5
30C4
  8
0
 10
11.63100437750446
 20
32.039827685767243
 30
0.0
 11
11.72427664640446
 21
31.826626163167241
 31
0.0
  0
ARC
  5
30C5
  8
0
 10
11.90760299689927
 20
31.906969549825721
 30
0.0
 40
0.2001589632404743
 50
203.6655968189794
 51
251.46748214634979
  0
ARC
  5
30C6
  8
0
 10
16.310868655367742
 20
44.986277305181808
 30
0.0
 40
14.00077617072062
 50
251.39478891062251
 51
254.81141309742219
  0
ARC
  5
30C7
  8
0
 10
18.958195894778939
 20
55.66076081565221
 30
0.0
 40
24.997147562571719
 50
255.36571718131489
 51
257.16407866978068
  0
ARC
  5
30C8
  8
0
 10
13.083824697480891
 20
29.91333802995921
 30
0.0
 40
1.411923242178406
 50
69.308212427605824
 51
76.85853404387251
  0
ARC
  5
30C9
  8
0
 10
13.506184469615009
 20
31.009070184274311
 30
0.0
 40
0.2377676066179183
 50
17.532171303151141
 51
71.223947987112453
  0
ARC
  5
30CA
  8
0
 10
13.619760049554349
 20
31.038577322854451
 30
0.0
 40
0.1207321245962492
 50
10.0431284921369
 51
20.417434200176171
  0
LINE
  5
30CB
  8
0
 10
13.738642167204461
 20
31.059631728867242
 30
0.0
 11
14.24454520648696
 21
31.05983046914935
 31
0.0
  0
ARC
  5
30CC
  8
0
 10
14.83736704155765
 20
30.980791627666651
 30
0.0
 40
1.0499999998536551
 50
175.69273600763461
 51
193.82368524043639
  0
LINE
  5
30CD
  8
0
 10
13.81777967148658
 20
30.729909993256651
 30
0.0
 11
14.22624897593554
 21
29.06988356343339
 31
0.0
  0
ARC
  5
30CE
  8
0
 10
14.255380046545261
 20
29.077051610842769
 30
0.0
 40
0.0300000029755373
 50
193.82368524043491
 51
269.99997814967128
  0
LINE
  5
30CF
  8
0
 10
14.25538003510446
 20
29.047051607867239
 30
0.0
 11
14.43136704170445
 21
29.0470515407528
 31
0.0
  0
ARC
  5
30D0
  8
0
 10
14.278175065704451
 20
29.017051607867241
 30
0.0
 40
0.0299999999999976
 50
15.490470984394561
 51
89.999999999994913
  0
LINE
  5
30D1
  8
0
 10
14.43136704170446
 20
29.02505160786724
 30
0.0
 11
14.255925909404461
 21
29.02505160786724
 31
0.0
  0
ARC
  5
30D2
  8
0
 10
14.255925909404461
 20
29.0050507565355
 30
0.0
 40
0.0200008513317442
 50
90.000000000004874
 51
188.76215155794449
  0
ARC
  5
30D3
  8
0
 10
41.584365837745374
 20
33.27878477149855
 30
0.0
 40
27.68059427724447
 50
188.88806929031219
 51
190.21288892802039
  0
ARC
  5
30D4
  8
0
 10
14.74986445845339
 20
28.212748086473429
 30
0.0
 40
0.6063538614309743
 50
346.52766535494129
 51
16.118845618864391
  0
ARC
  5
30D5
  8
0
 10
15.513975044242139
 20
27.41247194371239
 30
0.0
 40
1.373268705433015
 50
146.1821653378486
 51
151.5025958919324
  0
LINE
  5
30D6
  8
0
 10
14.18141109920446
 20
31.47858095996725
 30
0.0
 11
15.493322984204481
 21
31.478580959967399
 31
0.0
  0
ATTDEF
  5
30E5
  8
DEFPOINTS
 10
14.83357345817085
 20
32.065946480418489
 30
0.0
 40
0.001
  1
PREMIUM MATERIALS
  3

  2
MATERIAL
 70
     0
1001
ACDBATTR
1070
     0
1070
     1
  0
ATTDEF
  5
30E6
  8
DEFPOINTS
 10
14.83357345817085
 20
32.067613147085147
 30
0.0
 40
0.001
  1
SHOWER VALVE TRIM
  3

  2
PRODUCT
 70
     0
1001
ACDBATTR
1070
     0
1070
     1
  0
ATTDEF
  5
30E7
  8
DEFPOINTS
 10
14.83357345817085
 20
32.06927981375182
 30
0.0
 40
0.001
  1
REFINIA
  3

  2
TRADENAME
 70
     0
1001
ACDBATTR
1070
     0
1070
     1
  0
ATTDEF
  5
30E8
  8
DEFPOINTS
 10
14.83357345817085
 20
32.070946480418492
 30
0.0
 40
0.001
  1
K-TS5320-4
  3

  2
MODELNUMBER
 70
     0
1001
ACDBATTR
1070
     0
1070
     1
  0
ENDSEC
  0
EOF
