  0
SECTION
  2
HEADER
  9
$ACADVER
  1
AC1009
  9
$INSBASE
 10
26.890174965272589
 20
3.9490826961999992
 30
0.0
  9
$EXTMIN
 10
23.48882133449419
 20
0.5485234496966776
 30
-0.0000000000000053
  9
$EXTMAX
 10
30.29030905749002
 20
7.3495579698308786
 30
0.0000000000000099
  9
$LIMMIN
 10
0.0
 20
0.0
  9
$LIMMAX
 10
11.692913385800001
 20
8.2677165353999982
  9
$ORTHOMODE
 70
     0
  9
$REGENMODE
 70
     1
  9
$FILLMODE
 70
     1
  9
$QTEXTMODE
 70
     0
  9
$MIRRTEXT
 70
     0
  9
$DRAGMODE
 70
     2
  9
$LTSCALE
 40
0.6431102362
  9
$OSMODE
 70
  3071
  9
$ATTMODE
 70
     1
  9
$TEXTSIZE
 40
0.2
  9
$TRACEWID
 40
0.05
  9
$TEXTSTYLE
  7
STANDARD
  9
$CLAYER
  8
0
  9
$CELTYPE
  6
BYLAYER
  9
$CECOLOR
 62
   256
  9
$DIMSCALE
 40
1.0
  9
$DIMASZ
 40
0.1875
  9
$DIMEXO
 40
0.0625
  9
$DIMDLI
 40
0.38
  9
$DIMRND
 40
0.0
  9
$DIMDLE
 40
0.0
  9
$DIMEXE
 40
0.125
  9
$DIMTP
 40
1.5
  9
$DIMTM
 40
1.5
  9
$DIMTXT
 40
0.15625
  9
$DIMCEN
 40
0.09
  9
$DIMTSZ
 40
0.0
  9
$DIMTOL
 70
     0
  9
$DIMLIM
 70
     0
  9
$DIMTIH
 70
     1
  9
$DIMTOH
 70
     1
  9
$DIMSE1
 70
     0
  9
$DIMSE2
 70
     0
  9
$DIMTAD
 70
     0
  9
$DIMZIN
 70
     4
  9
$DIMBLK
  1

  9
$DIMASO
 70
     1
  9
$DIMSHO
 70
     1
  9
$DIMPOST
  1
\X
  9
$DIMAPOST
  1

  9
$DIMALT
 70
     1
  9
$DIMALTD
 70
     2
  9
$DIMALTF
 40
25.399999999999999
  9
$DIMLFAC
 40
1.0
  9
$DIMTOFL
 70
     0
  9
$DIMTVP
 40
0.0
  9
$DIMTIX
 70
     0
  9
$DIMSOXD
 70
     0
  9
$DIMSAH
 70
     0
  9
$DIMBLK1
  1

  9
$DIMBLK2
  1

  9
$DIMSTYLE
  2
STANDARD
  9
$DIMCLRD
 70
     0
  9
$DIMCLRE
 70
     0
  9
$DIMCLRT
 70
     0
  9
$DIMTFAC
 40
1.0
  9
$DIMGAP
 40
0.09
  9
$LUNITS
 70
     2
  9
$LUPREC
 70
     4
  9
$SKETCHINC
 40
0.1
  9
$FILLETRAD
 40
0.0
  9
$AUNITS
 70
     0
  9
$AUPREC
 70
     0
  9
$MENU
  1
.
  9
$ELEVATION
 40
0.0
  9
$PELEVATION
 40
0.0
  9
$THICKNESS
 40
0.0
  9
$LIMCHECK
 70
     0
  9
$BLIPMODE
 70
     0
  9
$CHAMFERA
 40
0.0
  9
$CHAMFERB
 40
0.0
  9
$SKPOLY
 70
     0
  9
$TDCREATE
 40
2457739.4546618401
  9
$TDUPDATE
 40
2457743.6022491902
  9
$TDINDWG
 40
0.0270851157
  9
$TDUSRTIMER
 40
0.0270851157
  9
$USRTIMER
 70
     1
  9
$ANGBASE
 50
0.0
  9
$ANGDIR
 70
     0
  9
$PDMODE
 70
     0
  9
$PDSIZE
 40
0.3125
  9
$PLINEWID
 40
0.0
  9
$COORDS
 70
     1
  9
$SPLFRAME
 70
     0
  9
$SPLINETYPE
 70
     6
  9
$SPLINESEGS
 70
     8
  9
$ATTDIA
 70
     1
  9
$ATTREQ
 70
     1
  9
$HANDLING
 70
     1
  9
$HANDSEED
  5
ABA
  9
$SURFTAB1
 70
     6
  9
$SURFTAB2
 70
     6
  9
$SURFTYPE
 70
     6
  9
$SURFU
 70
     6
  9
$SURFV
 70
     6
  9
$UCSNAME
  2

  9
$UCSORG
 10
0.0
 20
0.0
 30
0.0
  9
$UCSXDIR
 10
1.0
 20
0.0
 30
0.0
  9
$UCSYDIR
 10
0.0
 20
1.0
 30
0.0
  9
$PUCSNAME
  2

  9
$PUCSORG
 10
0.0
 20
0.0
 30
0.0
  9
$PUCSXDIR
 10
1.0
 20
0.0
 30
0.0
  9
$PUCSYDIR
 10
0.0
 20
1.0
 30
0.0
  9
$USERI1
 70
     0
  9
$USERI2
 70
     0
  9
$USERI3
 70
     0
  9
$USERI4
 70
     0
  9
$USERI5
 70
     0
  9
$USERR1
 40
0.0
  9
$USERR2
 40
0.0
  9
$USERR3
 40
0.0
  9
$USERR4
 40
0.0
  9
$USERR5
 40
0.0
  9
$WORLDVIEW
 70
     1
  9
$SHADEDGE
 70
     3
  9
$SHADEDIF
 70
    70
  9
$TILEMODE
 70
     1
  9
$MAXACTVP
 70
    48
  9
$PLIMCHECK
 70
     0
  9
$PEXTMIN
 10
1.0000000000000000E+020
 20
1.0000000000000000E+020
 30
1.0000000000000000E+020
  9
$PEXTMAX
 10
-1.0000000000000000E+020
 20
-1.0000000000000000E+020
 30
-1.0000000000000000E+020
  9
$PLIMMIN
 10
0.0
 20
0.0
  9
$PLIMMAX
 10
12.0
 20
9.0
  9
$UNITMODE
 70
     0
  9
$VISRETAIN
 70
     1
  9
$PLINEGEN
 70
     0
  9
$PSLTSCALE
 70
     1
  0
ENDSEC
  0
SECTION
  2
TABLES
  0
TABLE
  2
VPORT
 70
     1
  0
VPORT
  2
*ACTIVE
 70
     0
 10
0.0
 20
0.0
 11
1.0
 21
1.0
 12
26.889565195992109
 22
3.9490407097637781
 13
0.0
 23
0.0
 14
1.0
 24
1.0
 15
0.0
 25
0.0
 16
0.0
 26
0.0
 36
1.0
 17
0.0
 27
0.0
 37
0.0
 40
6.8443072742389779
 41
2.0148619957537148
 42
50.0
 43
0.0
 44
0.0
 50
0.0
 51
0.0
 71
     0
 72
   100
 73
     1
 74
     1
 75
     0
 76
     0
 77
     0
 78
     0
  0
ENDTAB
  0
TABLE
  2
LTYPE
 70
     2
  0
LTYPE
  2
CONTINUOUS
 70
     0
  3
Solid line
 72
    65
 73
     0
 40
0.0
  0
LTYPE
  2
PHANTOM2
 70
     0
  3
___ _ _ ___ _ _ ___ _ _ ___ _ _
 72
    65
 73
     6
 40
1.25
 49
0.625
 49
-0.125
 49
0.125
 49
-0.125
 49
0.125
 49
-0.125
  0
ENDTAB
  0
TABLE
  2
LAYER
 70
     2
  0
LAYER
  2
0
 70
     0
 62
     7
  6
CONTINUOUS
  0
LAYER
  2
DEFPOINTS
 70
     0
 62
     7
  6
CONTINUOUS
  0
ENDTAB
  0
TABLE
  2
STYLE
 70
     1
  0
STYLE
  2
STANDARD
 70
     0
 40
0.0
 41
0.8
 50
0.0
 71
     0
 42
0.2
  3
txt
  4

  0
ENDTAB
  0
TABLE
  2
VIEW
 70
     0
  0
ENDTAB
  0
TABLE
  2
UCS
 70
     0
  0
ENDTAB
  0
TABLE
  2
APPID
 70
     7
  0
APPID
  2
ACAD
 70
     0
  0
APPID
  2
ACAD_MLEADERVER
 70
     0
  0
APPID
  2
ACAD_NAV_VCDISPLAY
 70
     0
  0
APPID
  2
ACAD_DSTYLE_DIMJAG
 70
     0
  0
APPID
  2
ACAD_DSTYLE_DIMTALN
 70
     0
  0
APPID
  2
ACAD_EXEMPT_FROM_CAD_STANDARDS
 70
     0
  0
APPID
  2
ACDBATTR
 70
     0
  0
ENDTAB
  0
TABLE
  2
DIMSTYLE
 70
     1
  0
DIMSTYLE
  2
STANDARD
 70
     0
  3
\X
  4

  5

  6

  7

 40
1.0
 41
0.1875
 42
0.0625
 43
0.38
 44
0.125
 45
0.0
 46
0.0
 47
1.5
 48
1.5
140
0.15625
141
0.09
142
0.0
143
25.399999999999999
144
1.0
145
0.0
146
1.0
147
0.09
 71
     0
 72
     0
 73
     1
 74
     1
 75
     0
 76
     0
 77
     0
 78
     4
170
     1
171
     2
172
     0
173
     0
174
     0
175
     0
176
     0
177
     0
178
     0
  0
ENDTAB
  0
ENDSEC
  0
SECTION
  2
BLOCKS
  0
BLOCK
  8
0
  2
$MODEL_SPACE
 70
     0
 10
0.0
 20
0.0
 30
0.0
  3
$MODEL_SPACE
  1

  0
ENDBLK
  5
21
  8
0
  0
BLOCK
 67
     1
  8
0
  2
$PAPER_SPACE
 70
     0
 10
0.0
 20
0.0
 30
0.0
  3
$PAPER_SPACE
  1

  0
ENDBLK
  5
1D
 67
     1
  8
0
  0
ENDSEC
  0
SECTION
  2
ENTITIES
  0
CIRCLE
  5
64F
  8
0
 10
26.890174965272589
 20
3.9490826961999992
 30
0.0
 40
3.2731398748999991
  0
CIRCLE
  5
650
  8
0
 10
26.890174965272589
 20
3.9490826961999992
 30
0.0
 40
3.399999999999999
  0
ARC
  5
652
  8
0
 10
26.890174965272589
 20
3.9490826961999992
 30
0.0
 40
0.5399999999999997
 50
127.0026422137539
 51
232.99735778624611
  0
ARC
  5
653
  8
0
 10
26.890174965272589
 20
3.9490826961999992
 30
0.0
 40
0.8050000000000001
 50
113.8113606981629
 51
246.1886393018371
  0
ARC
  5
654
  8
0
 10
26.890174965272589
 20
3.9490826961999992
 30
0.0
 40
0.815
 50
113.5014955496504
 51
176.2009320558885
  0
ARC
  5
655
  8
0
 10
26.890174965272589
 20
3.9490826961999992
 30
0.0
 40
1.0
 50
108.9655749888485
 51
251.0344250111514
  0
ARC
  5
656
  8
0
 10
26.890174965272589
 20
3.9490826961999992
 30
0.0
 40
0.5399999999999997
 50
307.00264221375409
 51
52.997357786245942
  0
ARC
  5
658
  8
0
 10
26.890174965272589
 20
3.9490826961999992
 30
0.0
 40
0.8050000000000001
 50
293.81136069816313
 51
66.188639301836915
  0
ARC
  5
659
  8
0
 10
26.890174965272589
 20
3.9490826961999992
 30
0.0
 40
0.815
 50
293.50149554965037
 51
356.20093205588847
  0
ARC
  5
65A
  8
0
 10
26.890174965272589
 20
3.9490826961999992
 30
0.0
 40
1.0
 50
288.96557498884852
 51
71.034425011151455
  0
LINE
  5
65B
  8
0
 10
26.56517496527259
 20
5.3010826961999991
 30
0.0
 11
26.56517496527259
 21
0.8948826962000001
 31
0.0
  0
LINE
  5
65C
  8
0
 10
26.56517496527259
 20
0.8948826962000001
 30
0.0
 11
27.215174965272588
 21
0.8948826962000001
 31
0.0
  0
LINE
  5
65D
  8
0
 10
27.215174965272588
 20
0.8948826962000001
 30
0.0
 11
27.215174965272588
 21
5.3010826961999991
 31
0.0
  0
LINE
  5
65E
  8
0
 10
27.215174965272588
 20
5.3010826961999991
 30
0.0
 11
26.56517496527259
 21
5.3010826961999991
 31
0.0
  0
ARC
  5
65F
  8
0
 10
27.722674965272599
 20
3.9490826961999992
 30
0.0
 40
0.0539999999999999
 50
270.0
 51
90.0
  0
LINE
  5
660
  8
0
 10
27.693361743052211
 20
4.003082696199999
 30
0.0
 11
27.7226749652724
 21
4.003082696199999
 31
0.0
  0
LINE
  5
661
  8
0
 10
27.693361743052211
 20
3.8950826961999998
 30
0.0
 11
27.722674965272599
 21
3.8950826961999998
 31
0.0
  0
ARC
  5
662
  8
0
 10
26.890174965272589
 20
3.9490826961999992
 30
0.0
 40
0.815
 50
3.7990679441114898
 51
66.498504450349543
  0
ARC
  5
663
  8
0
 10
26.050674965272592
 20
3.9490826961999992
 30
0.0
 40
0.0539999999999999
 50
90.0
 51
270.0
  0
LINE
  5
664
  8
0
 10
26.086988187492981
 20
4.003082696199999
 30
0.0
 11
26.050674965272592
 21
4.003082696199999
 31
0.0
  0
LINE
  5
665
  8
0
 10
26.086988187492981
 20
3.8950826961999998
 30
0.0
 11
26.050674965272592
 21
3.8950826961999998
 31
0.0
  0
ARC
  5
668
  8
0
 10
26.890174965272589
 20
3.9490826961999992
 30
0.0
 40
0.815
 50
183.7990679441115
 51
246.4985044503496
  0
ARC
  5
669
  8
0
 10
25.48652102875506
 20
6.3788969464418797
 30
0.0
 40
0.136201022902036
 50
119.70855659886389
 51
300.2896261300354
  0
ARC
  5
66A
  8
0
 10
25.487716208672762
 20
6.379586604455886
 30
0.0
 40
0.1362013225117937
 50
299.71104707897541
 51
120.289035708103
  0
ARC
  5
66B
  8
0
 10
25.487119471268691
 20
6.3830904796617203
 30
0.0
 40
0.0681347636773902
 50
121.6172070670122
 51
298.38332097719922
  0
ARC
  5
66C
  8
0
 10
25.48380044106084
 20
6.3811743582582876
 30
0.0
 40
0.0681343219578721
 50
301.60342086823249
 51
118.39284130828921
  0
ARC
  5
66D
  8
0
 10
24.451772159093981
 20
5.3614324024384823
 30
0.0
 40
0.1519423885033588
 50
151.4818508844393
 51
328.51767691901142
  0
ARC
  5
66E
  8
0
 10
24.447400012821859
 20
5.3538582489949027
 30
0.0
 40
0.1519672290617843
 50
331.81658229834329
 51
148.19282755469641
  0
ARC
  5
66F
  8
0
 10
24.453291353588892
 20
5.3539752096423259
 30
0.0
 40
0.2254648414642141
 50
149.5410923604324
 51
330.45752619075841
  0
ARC
  5
670
  8
0
 10
24.45432795076961
 20
5.3557705986409339
 30
0.0
 40
0.2254577930457092
 50
329.93068398035479
 51
150.06793457083589
  0
ARC
  5
671
  8
0
 10
24.08073502773858
 20
3.9471439440201181
 30
0.0
 40
0.0681356211262803
 50
1.6300880169772889
 51
178.37005482697941
  0
ARC
  5
672
  8
0
 10
24.08073506995699
 20
3.9509928737026661
 30
0.0
 40
0.0681348016541223
 50
181.60570016472329
 51
358.39304289551092
  0
ARC
  5
673
  8
0
 10
24.084067602531078
 20
3.9497767157519652
 30
0.0
 40
0.1362014595766569
 50
359.70808539977787
 51
180.29195448019431
  0
ARC
  5
674
  8
0
 10
24.08406302254166
 20
3.9484025119035588
 30
0.0
 40
0.1362038121548654
 50
179.42191473693089
 51
0.2861320460906383
  0
ARC
  5
675
  8
0
 10
24.454313162375779
 20
2.5424252164782928
 30
0.0
 40
0.2254553504307498
 50
30.06074204471199
 51
209.93134963330769
  0
ARC
  5
676
  8
0
 10
24.454125398492231
 20
2.5427456147367709
 30
0.0
 40
0.2254576717382685
 50
210.0350130643329
 51
29.966368602068119
  0
ARC
  5
677
  8
0
 10
24.447507856014109
 20
2.5441163696648919
 30
0.0
 40
0.1519624312400798
 50
211.7340983573084
 51
28.266023011842339
  0
ARC
  5
678
  8
0
 10
24.451311572573431
 20
2.5375281426769849
 30
0.0
 40
0.1519226977188895
 50
31.135866422704431
 51
208.86401216439069
  0
ARC
  5
679
  8
0
 10
25.485276990638621
 20
1.519997093668134
 30
0.0
 40
0.1362069292269988
 50
59.103905829196492
 51
240.89793438483821
  0
ARC
  5
67A
  8
0
 10
25.487718159101419
 20
1.5185882345388459
 30
0.0
 40
0.1361923968730425
 50
239.71223848005209
 51
60.287801384292443
  0
ARC
  5
67B
  8
0
 10
25.487086380025339
 20
1.5150944546573639
 30
0.0
 40
0.0681341132362783
 50
61.584751280622868
 51
238.415105944603
  0
ARC
  5
67C
  8
0
 10
25.483809460696222
 20
1.51698638495112
 30
0.0
 40
0.0681345669800514
 50
241.5986261676467
 51
58.401516628952727
  0
ATTDEF
  5
85E
  8
DEFPOINTS
 10
26.88567653765411
 20
3.9555973309882329
 30
0.0
 40
0.001
  1
PREMIUM MATERIALS
  3

  2
MATERIAL
 70
     0
1001
ACDBATTR
1070
     0
1070
     1
  0
ATTDEF
  5
85F
  8
DEFPOINTS
 10
26.88567653765411
 20
3.9572639976549051
 30
0.0
 40
0.001
  1
VALVE TRIM
  3

  2
PRODUCT
 70
     0
1001
ACDBATTR
1070
     0
1070
     1
  0
ATTDEF
  5
860
  8
DEFPOINTS
 10
26.88567653765411
 20
3.9589306643215698
 30
0.0
 40
0.001
  1
PURIST
  3

  2
TRADENAME
 70
     0
1001
ACDBATTR
1070
     0
1070
     1
  0
ATTDEF
  5
861
  8
DEFPOINTS
 10
26.88567653765411
 20
3.960597330988235
 30
0.0
 40
0.001
  1
K-TS14423-4
  3

  2
MODELNUMBER
 70
     0
1001
ACDBATTR
1070
     0
1070
     1
  0
ENDSEC
  0
EOF
