  0
SECTION
  2
HEADER
  9
$ACADVER
  1
AC1009
  9
$INSBASE
 10
4353.5550119866556997
 20
602.8587938686499683
 30
0.0
  9
$EXTMIN
 10
4345.9827538309646116
 20
601.7037350458706442
 30
-0.0000000349181948
  9
$EXTMAX
 10
4360.9555869563882879
 20
604.0239406124968582
 30
0.0000000814935746
  9
$LIMMIN
 10
0.0
 20
0.0
  9
$LIMMAX
 10
11.6929133858000007
 20
8.2677165353999982
  9
$ORTHOMODE
 70
     0
  9
$REGENMODE
 70
     1
  9
$FILLMODE
 70
     1
  9
$QTEXTMODE
 70
     0
  9
$MIRRTEXT
 70
     0
  9
$DRAGMODE
 70
     2
  9
$LTSCALE
 40
0.6431102362
  9
$OSMODE
 70
     7
  9
$ATTMODE
 70
     1
  9
$TEXTSIZE
 40
0.2
  9
$TRACEWID
 40
0.05
  9
$TEXTSTYLE
  7
STANDARD
  9
$CLAYER
  8
0
  9
$CELTYPE
  6
BYLAYER
  9
$CECOLOR
 62
   256
  9
$DIMSCALE
 40
1.0
  9
$DIMASZ
 40
0.1875
  9
$DIMEXO
 40
0.0625
  9
$DIMDLI
 40
0.4443307087
  9
$DIMRND
 40
0.0
  9
$DIMDLE
 40
0.0
  9
$DIMEXE
 40
0.125
  9
$DIMTP
 40
0.01
  9
$DIMTM
 40
0.01
  9
$DIMTXT
 40
2.0
  9
$DIMCEN
 40
0.1052362205
  9
$DIMTSZ
 40
0.0
  9
$DIMTOL
 70
     1
  9
$DIMLIM
 70
     0
  9
$DIMTIH
 70
     1
  9
$DIMTOH
 70
     1
  9
$DIMSE1
 70
     0
  9
$DIMSE2
 70
     0
  9
$DIMTAD
 70
     0
  9
$DIMZIN
 70
     0
  9
$DIMBLK
  1

  9
$DIMASO
 70
     1
  9
$DIMSHO
 70
     1
  9
$DIMPOST
  1
\X
  9
$DIMAPOST
  1

  9
$DIMALT
 70
     1
  9
$DIMALTD
 70
     2
  9
$DIMALTF
 40
25.3999999999999986
  9
$DIMLFAC
 40
1.0
  9
$DIMTOFL
 70
     0
  9
$DIMTVP
 40
0.0
  9
$DIMTIX
 70
     0
  9
$DIMSOXD
 70
     0
  9
$DIMSAH
 70
     0
  9
$DIMBLK1
  1

  9
$DIMBLK2
  1

  9
$DIMSTYLE
  2
STANDARD
  9
$DIMCLRD
 70
     0
  9
$DIMCLRE
 70
     0
  9
$DIMCLRT
 70
     0
  9
$DIMTFAC
 40
1.0
  9
$DIMGAP
 40
0.09
  9
$LUNITS
 70
     2
  9
$LUPREC
 70
     4
  9
$SKETCHINC
 40
0.1
  9
$FILLETRAD
 40
0.0
  9
$AUNITS
 70
     0
  9
$AUPREC
 70
     0
  9
$MENU
  1
.
  9
$ELEVATION
 40
0.0
  9
$PELEVATION
 40
0.0
  9
$THICKNESS
 40
0.0
  9
$LIMCHECK
 70
     0
  9
$BLIPMODE
 70
     0
  9
$CHAMFERA
 40
0.0
  9
$CHAMFERB
 40
0.0
  9
$SKPOLY
 70
     0
  9
$TDCREATE
 40
2458060.468368056230247
  9
$TDUPDATE
 40
2459691.7624421301297843
  9
$TDINDWG
 40
4.6637223380000004
  9
$TDUSRTIMER
 40
4.6637223380000004
  9
$USRTIMER
 70
     1
  9
$ANGBASE
 50
0.0
  9
$ANGDIR
 70
     0
  9
$PDMODE
 70
     0
  9
$PDSIZE
 40
0.3125
  9
$PLINEWID
 40
0.0
  9
$COORDS
 70
     1
  9
$SPLFRAME
 70
     0
  9
$SPLINETYPE
 70
     6
  9
$SPLINESEGS
 70
     8
  9
$ATTDIA
 70
     1
  9
$ATTREQ
 70
     1
  9
$HANDLING
 70
     1
  9
$HANDSEED
  5
24C2C
  9
$SURFTAB1
 70
     6
  9
$SURFTAB2
 70
     6
  9
$SURFTYPE
 70
     6
  9
$SURFU
 70
     6
  9
$SURFV
 70
     6
  9
$UCSNAME
  2

  9
$UCSORG
 10
0.0
 20
0.0
 30
0.0
  9
$UCSXDIR
 10
1.0
 20
0.0
 30
0.0
  9
$UCSYDIR
 10
0.0
 20
1.0
 30
0.0
  9
$PUCSNAME
  2

  9
$PUCSORG
 10
0.0
 20
0.0
 30
0.0
  9
$PUCSXDIR
 10
1.0
 20
0.0
 30
0.0
  9
$PUCSYDIR
 10
0.0
 20
1.0
 30
0.0
  9
$USERI1
 70
     0
  9
$USERI2
 70
     0
  9
$USERI3
 70
     0
  9
$USERI4
 70
     0
  9
$USERI5
 70
     0
  9
$USERR1
 40
0.0
  9
$USERR2
 40
0.0
  9
$USERR3
 40
0.0
  9
$USERR4
 40
0.0
  9
$USERR5
 40
0.0
  9
$WORLDVIEW
 70
     1
  9
$SHADEDGE
 70
     3
  9
$SHADEDIF
 70
    70
  9
$TILEMODE
 70
     1
  9
$MAXACTVP
 70
    64
  9
$PLIMCHECK
 70
     0
  9
$PEXTMIN
 10
1.0000000000000000E+20
 20
1.0000000000000000E+20
 30
1.0000000000000000E+20
  9
$PEXTMAX
 10
-1.0000000000000000E+20
 20
-1.0000000000000000E+20
 30
-1.0000000000000000E+20
  9
$PLIMMIN
 10
0.0
 20
0.0
  9
$PLIMMAX
 10
12.0
 20
9.0
  9
$UNITMODE
 70
     0
  9
$VISRETAIN
 70
     1
  9
$PLINEGEN
 70
     0
  9
$PSLTSCALE
 70
     1
  0
ENDSEC
  0
SECTION
  2
TABLES
  0
TABLE
  2
VPORT
 70
     1
  0
VPORT
  2
*ACTIVE
 70
     0
 10
0.0
 20
0.0
 11
1.0
 21
1.0
 12
117.0377739093019045
 22
4.1352269159004891
 13
0.0
 23
0.0
 14
1.0
 24
1.0
 15
0.0
 25
0.0
 16
0.0
 26
0.0
 36
98.7941898181710343
 17
4236.431396484375
 27
598.728610913283319
 37
0.0
 40
6.5785254478688859
 41
2.2831541218637992
 42
50.0
 43
0.0
 44
0.0
 50
0.0
 51
0.0
 71
     0
 72
   100
 73
     1
 74
     1
 75
     0
 76
     0
 77
     0
 78
     0
  0
ENDTAB
  0
TABLE
  2
LTYPE
 70
     2
  0
LTYPE
  2
CONTINUOUS
 70
     0
  3
Solid line
 72
    65
 73
     0
 40
0.0
  0
LTYPE
  2
PHANTOM2
 70
     0
  3
___ _ _ ___ _ _ ___ _ _ ___ _ _
 72
    65
 73
     6
 40
1.25
 49
0.625
 49
-0.125
 49
0.125
 49
-0.125
 49
0.125
 49
-0.125
  0
ENDTAB
  0
TABLE
  2
LAYER
 70
     2
  0
LAYER
  2
0
 70
     0
 62
   255
  6
CONTINUOUS
  0
LAYER
  2
DEFPOINTS
 70
     0
 62
     7
  6
CONTINUOUS
  0
ENDTAB
  0
TABLE
  2
STYLE
 70
     1
  0
STYLE
  2
STANDARD
 70
     0
 40
0.0
 41
0.8
 50
0.0
 71
     0
 42
0.2
  3
txt
  4

  0
ENDTAB
  0
TABLE
  2
VIEW
 70
     0
  0
ENDTAB
  0
TABLE
  2
UCS
 70
     0
  0
ENDTAB
  0
TABLE
  2
APPID
 70
    10
  0
APPID
  2
ACAD
 70
     0
  0
APPID
  2
ACAD_MLEADERVER
 70
     0
  0
APPID
  2
ACAD_EXEMPT_FROM_CAD_STANDARDS
 70
     0
  0
APPID
  2
ACAD_NAV_VCDISPLAY
 70
     0
  0
APPID
  2
ACAECLAYERSTANDARD
 70
     0
  0
APPID
  2
ACCMTRANSPARENCY
 70
     0
  0
APPID
  2
ACAD_DSTYLE_DIMJAG
 70
     0
  0
APPID
  2
ACAD_DSTYLE_DIMTALN
 70
     0
  0
APPID
  2
ACDBATTR
 70
     0
  0
APPID
  2
DCO15
 70
     0
  0
ENDTAB
  0
TABLE
  2
DIMSTYLE
 70
     1
  0
DIMSTYLE
  2
STANDARD
 70
     0
  3

  4

  5

  6

  7

 40
1.0
 41
0.1875
 42
0.0625
 43
0.38
 44
0.125
 45
0.0
 46
0.0
 47
0.01
 48
0.01
140
0.15625
141
0.09
142
0.0
143
25.3999999999999986
144
1.0
145
0.0
146
1.0
147
0.09
 71
     1
 72
     0
 73
     1
 74
     1
 75
     0
 76
     0
 77
     0
 78
     4
170
     0
171
     2
172
     0
173
     0
174
     0
175
     0
176
     0
177
     0
178
     0
  0
ENDTAB
  0
ENDSEC
  0
SECTION
  2
BLOCKS
  0
BLOCK
  8
0
  2
$MODEL_SPACE
 70
     0
 10
0.0
 20
0.0
 30
0.0
  3
$MODEL_SPACE
  1

  0
ENDBLK
  5
21
  8
0
  0
BLOCK
 67
     1
  8
0
  2
$PAPER_SPACE
 70
     0
 10
0.0
 20
0.0
 30
0.0
  3
$PAPER_SPACE
  1

  0
ENDBLK
  5
1D
 67
     1
  8
0
  0
ENDSEC
  0
SECTION
  2
ENTITIES
  0
ATTDEF
  5
3930
  8
DEFPOINTS
 10
4353.5552432731938097
 20
602.8623785214972486
 30
0.0
 40
0.001
  1
K-T98071-4
  3

  2
MODELNUMBER
 70
     0
1001
ACDBATTR
1070
     0
1070
     1
  0
ATTDEF
  5
3931
  8
DEFPOINTS
 10
4353.5552432731938097
 20
602.8607118548305834
 30
0.0
 40
0.001
  1
ARTIFACTS
  3

  2
TRADENAME
 70
     0
1001
ACDBATTR
1070
     0
1070
     1
  0
ATTDEF
  5
3932
  8
DEFPOINTS
 10
4353.5552432731938097
 20
602.8590451881639183
 30
0.0
 40
0.001
  1
BATH FAUCET HANDLES
  3

  2
PRODUCT
 70
     0
1001
ACDBATTR
1070
     0
1070
     1
  0
LINE
  5
24AF9
  8
0
 10
4346.3538876655557033
 20
603.073849166649893
 30
0.0
 11
4346.3538876655557033
 21
602.6437385709465389
 31
0.0
  0
LINE
  5
24AFA
  8
0
 10
4346.574924156857378
 20
603.2427439151500721
 30
0.0
 11
4346.574924156857378
 21
602.4748438222500226
 31
0.0
  0
LINE
  5
24AFB
  8
0
 10
4346.6883233137568823
 20
603.2820877396500237
 30
0.0
 11
4346.6883233137568823
 21
602.4354999976500267
 31
0.0
  0
LINE
  5
24AFC
  8
0
 10
4346.857554083057039
 20
603.2820877396500237
 30
0.0
 11
4346.857554083057039
 21
602.4354999976500267
 31
0.0
  0
LINE
  5
24AFD
  8
0
 10
4348.5501082949567717
 20
603.1386143401499567
 30
0.0
 11
4348.5501082949567717
 21
602.57897339714998
 31
0.0
  0
LINE
  5
24AFE
  8
0
 10
4348.6460085486569369
 20
602.5987938686498637
 30
0.0
 11
4348.6460085486569369
 21
603.1187938686500729
 31
0.0
  0
LINE
  5
24AFF
  8
0
 10
4346.9956553159563555
 20
603.2272051276499951
 30
0.0
 11
4348.5204699477562826
 21
603.1205797016499446
 31
0.0
  0
LINE
  5
24B00
  8
0
 10
4346.3834552262569559
 20
603.0987938686498637
 30
0.0
 11
4346.4053371233558209
 21
603.0987938686498637
 31
0.0
  0
LINE
  5
24B01
  8
0
 10
4346.2560085486557
 20
602.7571876246499869
 30
0.0
 11
4346.2560085486557
 21
602.9604001127498805
 31
0.0
  0
ARC
  5
24B02
  8
0
 10
4349.0714277858442074
 20
603.1320622541702505
 30
0.0
 40
0.0804739767989441
 50
263.1184571240947889
 51
330.3318670434109094
  0
ARC
  5
24B03
  8
0
 10
4348.5960105272615692
 20
603.1187954801500837
 30
0.0
 40
0.0499980214201399
 50
359.9981532837010718
 51
156.6471269232773125
  0
ARC
  5
24B04
  8
0
 10
4348.5225605169216578
 20
603.1505153663129022
 30
0.0
 40
0.0300085737472335
 50
266.0052121390414754
 51
336.6349788699455985
  0
ARC
  5
24B05
  8
0
 10
4346.7729386984046869
 20
603.2287938686514508
 30
0.0
 40
0.1000000000281497
 50
32.2042274914262379
 51
147.7957725066513888
  0
ARC
  5
24B06
  8
0
 10
4346.9229352604570522
 20
603.2287938686499729
 30
0.0
 40
0.05
 50
20.7460921057973309
 51
120.0000000000004974
  0
ARC
  5
24B07
  8
0
 10
4346.6229355990362819
 20
603.228798650415456
 30
0.0
 40
0.0499956896239005
 50
59.9975960464795222
 51
163.8036852682029121
  0
ARC
  5
24B08
  8
0
 10
4346.9977480102570553
 20
603.2571320491499591
 30
0.0
 40
0.03
 50
200.7460921051082039
 51
266.000000000591001
  0
ARC
  5
24B09
  8
0
 10
4346.8829360464569618
 20
603.298070344202074
 30
0.0
 40
0.0299947947884405
 50
212.1979458100848888
 51
300.0040069648007943
  0
ARC
  5
24B0A
  8
0
 10
4346.6629360464976344
 20
603.298081457995977
 30
0.0
 40
0.0300052056374585
 50
240.0040057895859889
 51
327.7894923841568016
  0
ARC
  5
24B0B
  8
0
 10
4346.5461027815099442
 20
603.2511274462381152
 30
0.0
 40
0.0300159169507326
 50
291.1448688288335234
 51
343.7813990879261041
  0
ARC
  5
24B0C
  8
0
 10
4346.4053371233558209
 20
603.1287938686499501
 30
0.0
 40
0.03
 50
270.0
 51
333.7277319223912855
  0
ARC
  5
24B0D
  8
0
 10
4346.3834525987540474
 20
603.0688010584749463
 30
0.0
 40
0.0299928102901287
 50
89.9949806357540041
 51
170.3103911759791913
  0
ARC
  5
24B0E
  8
0
 10
4346.2860085486563548
 20
602.9604001127498805
 30
0.0
 40
0.03
 50
107.4646231061196033
 51
180.0
  0
ARC
  5
24B0F
  8
0
 10
4346.633120017991132
 20
603.0088079264451153
 30
0.0
 40
0.2274640033043942
 50
109.5696599914908944
 51
152.0231213144411981
  0
ARC
  5
24B10
  8
0
 10
4346.2520766542847923
 20
603.0888646861150164
 30
0.0
 40
0.1029123308502513
 50
284.0181564518932191
 51
351.6102568290511954
  0
ARC
  5
24B11
  8
0
 10
4348.8181380353862551
 20
603.0459030549433237
 30
0.0
 40
0.1869268063292444
 50
94.8519680926934114
 51
157.0490425757911055
  0
ARC
  5
24B12
  8
0
 10
4348.8090023726736035
 20
603.2073146165686239
 30
0.0
 40
0.0257264160931943
 50
16.0183874700508717
 51
105.0378789733734948
  0
ARC
  5
24B13
  8
0
 10
4349.0790847087992006
 20
603.3178865623232241
 30
0.0
 40
0.2662810651819996
 50
202.8664874308373953
 51
266.2751292237833809
  0
LINE
  5
24B14
  8
0
 10
4346.9956553159563555
 20
602.4903826097498722
 30
0.0
 11
4348.5204699477562826
 21
602.5970080357500365
 31
0.0
  0
LINE
  5
24B15
  8
0
 10
4346.3834552262569559
 20
602.6187938687500036
 30
0.0
 11
4346.4053371233558209
 21
602.6187938687500036
 31
0.0
  0
ARC
  5
24B16
  8
0
 10
4349.0714277831266372
 20
602.5855254774087371
 30
0.0
 40
0.0804739822525537
 50
29.6681816667445801
 51
96.8815404592891269
  0
ARC
  5
24B17
  8
0
 10
4348.5960105272615692
 20
602.5987922572497837
 30
0.0
 40
0.0499980214201399
 50
203.3528730767226875
 51
0.0018467162989136
  0
ARC
  5
24B18
  8
0
 10
4348.5225605169216578
 20
602.5670723710871926
 30
0.0
 40
0.0300085737472335
 50
23.3650211300543411
 51
93.9947878609584819
  0
ARC
  5
24B19
  8
0
 10
4346.7729386984046869
 20
602.4887938687486439
 30
0.0
 40
0.1000000000281497
 50
212.2042274933486112
 51
327.7957725085736911
  0
ARC
  5
24B1A
  8
0
 10
4346.9229352604570522
 20
602.4887938687498945
 30
0.0
 40
0.05
 50
239.9999999999994884
 51
339.2539078942027118
  0
ARC
  5
24B1B
  8
0
 10
4346.6229355990362819
 20
602.4887890869845251
 30
0.0
 40
0.0499956896239005
 50
196.1963147317970027
 51
300.0024039535205134
  0
ARC
  5
24B1C
  8
0
 10
4346.9977480102570553
 20
602.4604556882500219
 30
0.0
 40
0.03
 50
93.9999999994089848
 51
159.2539078948917108
  0
ARC
  5
24B1D
  8
0
 10
4346.8829360464569618
 20
602.4195173931977934
 30
0.0
 40
0.0299947947884405
 50
59.9959930351992412
 51
147.8020541899149976
  0
ARC
  5
24B1E
  8
0
 10
4346.6629360464976344
 20
602.4195062794038904
 30
0.0
 40
0.0300052056374585
 50
32.2105076158431416
 51
119.9959942104139969
  0
ARC
  5
24B1F
  8
0
 10
4346.5461027815099442
 20
602.4664602911617521
 30
0.0
 40
0.0300159169507326
 50
16.2186009120738213
 51
68.8551311711665051
  0
ARC
  5
24B20
  8
0
 10
4346.4053371233558209
 20
602.5887938687500309
 30
0.0
 40
0.03
 50
26.272268077608679
 51
90.0
  0
ARC
  5
24B21
  8
0
 10
4346.3834525987540474
 20
602.6487866789250347
 30
0.0
 40
0.0299928102901287
 50
189.689608824020695
 51
270.0050193642459817
  0
ARC
  5
24B22
  8
0
 10
4346.2860085486563548
 20
602.7571876246499869
 30
0.0
 40
0.03
 50
180.0
 51
252.5353768938803967
  0
ARC
  5
24B23
  8
0
 10
4346.633120017991132
 20
602.7087798109547521
 30
0.0
 40
0.2274640033043942
 50
207.9768786855586882
 51
250.4303400085090061
  0
ARC
  5
24B24
  8
0
 10
4346.2520766542847923
 20
602.6287230512849646
 30
0.0
 40
0.1029123308502513
 50
8.3897431709488277
 51
75.9818435481068519
  0
ARC
  5
24B25
  8
0
 10
4348.8181380353862551
 20
602.671684682456771
 30
0.0
 40
0.1869268063292444
 50
202.9509574242088092
 51
265.1480319073065743
  0
ARC
  5
24B26
  8
0
 10
4348.8090023726736035
 20
602.5102731208313571
 30
0.0
 40
0.0257264160931943
 50
254.9621210266265052
 51
343.981612529949075
  0
ARC
  5
24B27
  8
0
 10
4349.0790847087992006
 20
602.399701175076757
 30
0.0
 40
0.2662810651819996
 50
93.7248707762166049
 51
157.1335125691626047
  0
LINE
  5
24B28
  8
0
 10
4348.8337299140566756
 20
603.2144137138500355
 30
0.0
 11
4348.8337299140566756
 21
602.5031740235499456
 31
0.0
  0
CIRCLE
  5
24B29
  8
0
 10
4349.5550119866556997
 20
602.8587938686499683
 30
0.0
 40
0.3448109003999988
  0
ARC
  5
24B2A
  8
0
 10
4349.5550119866556997
 20
602.8587938686499683
 30
0.0
 40
0.4749807133077968
 50
209.4368187369088048
 51
150.5631734477275927
  0
ARC
  5
24B2B
  8
0
 10
4349.5550119866556997
 20
602.8587938686499683
 30
0.0
 40
0.8190034379999978
 50
206.8095830347778019
 51
153.1904169594953089
  0
ARC
  5
24B2C
  8
0
 10
4349.5550119866556997
 20
602.8587938686499683
 30
0.0
 40
1.1199999999999961
 50
193.7142219596806001
 51
166.2857780351376107
  0
CIRCLE
  5
24B2D
  8
0
 10
4349.5550119866556997
 20
602.8587938686499683
 30
0.0
 40
0.2838500050510015
  0
LINE
  5
24B2E
  8
0
 10
4360.7561363077556962
 20
603.073849166649893
 30
0.0
 11
4360.7561363077556962
 21
602.6437385709465389
 31
0.0
  0
LINE
  5
24B2F
  8
0
 10
4360.5350998164558405
 20
603.2427439151500721
 30
0.0
 11
4360.5350998164558405
 21
602.4748438222500226
 31
0.0
  0
LINE
  5
24B30
  8
0
 10
4360.4217006595563362
 20
603.2820877396500237
 30
0.0
 11
4360.4217006595563362
 21
602.4354999976500267
 31
0.0
  0
LINE
  5
24B31
  8
0
 10
4360.252469890257089
 20
603.2820877396500237
 30
0.0
 11
4360.252469890257089
 21
602.4354999976500267
 31
0.0
  0
LINE
  5
24B32
  8
0
 10
4358.5599156783564467
 20
603.1386143401499567
 30
0.0
 11
4358.5599156783564467
 21
602.57897339714998
 31
0.0
  0
LINE
  5
24B33
  8
0
 10
4358.4640154246562815
 20
602.5987938686498637
 30
0.0
 11
4358.4640154246562815
 21
603.1187938686500729
 31
0.0
  0
LINE
  5
24B34
  8
0
 10
4360.114368657356863
 20
603.2272051276499951
 30
0.0
 11
4358.5895540255569358
 21
603.1205797016499446
 31
0.0
  0
LINE
  5
24B35
  8
0
 10
4360.726568747057172
 20
603.0987938686498637
 30
0.0
 11
4360.7046868499555785
 21
603.0987938686498637
 31
0.0
  0
LINE
  5
24B36
  8
0
 10
4360.8540154246556995
 20
602.7571876246499869
 30
0.0
 11
4360.8540154246556995
 21
602.9604001127498805
 31
0.0
  0
ARC
  5
24B37
  8
0
 10
4358.0385961874681016
 20
603.1320622541702505
 30
0.0
 40
0.0804739767989441
 50
209.6681329565890906
 51
276.8815428759050974
  0
ARC
  5
24B38
  8
0
 10
4358.5140134460498302
 20
603.1187954801500837
 30
0.0
 40
0.0499980214201399
 50
23.3528730767227017
 51
180.0018467162988998
  0
ARC
  5
24B39
  8
0
 10
4358.5874634563897416
 20
603.1505153663129022
 30
0.0
 40
0.0300085737472335
 50
203.3650211300542878
 51
273.9947878609584109
  0
ARC
  5
24B3A
  8
0
 10
4360.3370852749076221
 20
603.2287938686514508
 30
0.0
 40
0.1000000000281497
 50
32.2042274933485828
 51
147.7957725085738048
  0
ARC
  5
24B3B
  8
0
 10
4360.1870887128570757
 20
603.2287938686499729
 30
0.0
 40
0.05
 50
59.99999999999946
 51
159.2539078942027118
  0
ARC
  5
24B3C
  8
0
 10
4360.487088374276027
 20
603.228798650415456
 30
0.0
 40
0.0499956896239005
 50
16.1963147317970417
 51
120.0024039535203997
  0
ARC
  5
24B3D
  8
0
 10
4360.1122759630561632
 20
603.2571320491499591
 30
0.0
 40
0.03
 50
273.999999999408999
 51
339.2539078948917108
  0
ARC
  5
24B3E
  8
0
 10
4360.2270879268562567
 20
603.298070344202074
 30
0.0
 40
0.0299947947884405
 50
239.9959930351992909
 51
327.8020541899151112
  0
ARC
  5
24B3F
  8
0
 10
4360.4470879268137651
 20
603.298081457995977
 30
0.0
 40
0.0300052056374585
 50
212.2105076158431132
 51
299.9959942104139827
  0
ARC
  5
24B40
  8
0
 10
4360.5639211918032743
 20
603.2511274462381152
 30
0.0
 40
0.0300159169507326
 50
196.2186009120738106
 51
248.8551311711665051
  0
ARC
  5
24B41
  8
0
 10
4360.7046868499555785
 20
603.1287938686499501
 30
0.0
 40
0.03
 50
206.2722680776086861
 51
270.0
  0
ARC
  5
24B42
  8
0
 10
4360.7265713745600806
 20
603.0688010584749463
 30
0.0
 40
0.0299928102901287
 50
9.6896088240207803
 51
90.0050193642460101
  0
ARC
  5
24B43
  8
0
 10
4360.8240154246568636
 20
602.9604001127498805
 30
0.0
 40
0.03
 50
0.0
 51
72.5353768938803967
  0
ARC
  5
24B44
  8
0
 10
4360.4769039553220864
 20
603.0088079264451153
 30
0.0
 40
0.2274640033043942
 50
27.9768786855587699
 51
70.4303400085090203
  0
ARC
  5
24B45
  8
0
 10
4360.8579473190284261
 20
603.0888646861150164
 30
0.0
 40
0.1029123308502513
 50
188.3897431709488046
 51
255.9818435481068093
  0
ARC
  5
24B46
  8
0
 10
4358.2918859379269634
 20
603.0459030549433237
 30
0.0
 40
0.1869268063292444
 50
22.9509574242088803
 51
85.1480319073066028
  0
ARC
  5
24B47
  8
0
 10
4358.3010216006377959
 20
603.2073146165686239
 30
0.0
 40
0.0257264160931943
 50
74.9621210266264484
 51
163.9816125299491034
  0
ARC
  5
24B48
  8
0
 10
4358.0309392645140179
 20
603.3178865623232241
 30
0.0
 40
0.2662810651819996
 50
273.7248707762166191
 51
337.1335125691625763
  0
LINE
  5
24B49
  8
0
 10
4360.114368657356863
 20
602.4903826097498722
 30
0.0
 11
4358.5895540255569358
 21
602.5970080357500365
 31
0.0
  0
LINE
  5
24B4A
  8
0
 10
4360.726568747057172
 20
602.6187938687500036
 30
0.0
 11
4360.7046868499555785
 21
602.6187938687500036
 31
0.0
  0
ARC
  5
24B4B
  8
0
 10
4358.0385961901856717
 20
602.5855254774087371
 30
0.0
 40
0.0804739822525537
 50
83.1184595407108588
 51
150.3318183332553986
  0
ARC
  5
24B4C
  8
0
 10
4358.5140134460498302
 20
602.5987922572497837
 30
0.0
 40
0.0499980214201399
 50
179.9981532837011002
 51
336.6471269232773125
  0
ARC
  5
24B4D
  8
0
 10
4358.5874634563897416
 20
602.5670723710871926
 30
0.0
 40
0.0300085737472335
 50
86.0052121390415323
 51
156.6349788699455985
  0
ARC
  5
24B4E
  8
0
 10
4360.3370852749076221
 20
602.4887938687486439
 30
0.0
 40
0.1000000000281497
 50
212.2042274914261952
 51
327.7957725066514172
  0
ARC
  5
24B4F
  8
0
 10
4360.1870887128570757
 20
602.4887938687498945
 30
0.0
 40
0.05
 50
200.7460921057972882
 51
300.0000000000005116
  0
ARC
  5
24B50
  8
0
 10
4360.487088374276027
 20
602.4887890869845251
 30
0.0
 40
0.0499956896239005
 50
239.9975960464796003
 51
343.8036852682030258
  0
ARC
  5
24B51
  8
0
 10
4360.1122759630561632
 20
602.4604556882500219
 30
0.0
 40
0.03
 50
20.7460921051082607
 51
86.0000000005910152
  0
ARC
  5
24B52
  8
0
 10
4360.2270879268562567
 20
602.4195173931977934
 30
0.0
 40
0.0299947947884405
 50
32.1979458100849598
 51
120.0040069648006948
  0
ARC
  5
24B53
  8
0
 10
4360.4470879268137651
 20
602.4195062794038904
 30
0.0
 40
0.0300052056374585
 50
60.0040057895859889
 51
147.7894923841568868
  0
ARC
  5
24B54
  8
0
 10
4360.5639211918032743
 20
602.4664602911617521
 30
0.0
 40
0.0300159169507326
 50
111.1448688288334949
 51
163.7813990879261894
  0
ARC
  5
24B55
  8
0
 10
4360.7046868499555785
 20
602.5887938687500309
 30
0.0
 40
0.03
 50
90.0
 51
153.7277319223913139
  0
ARC
  5
24B56
  8
0
 10
4360.7265713745600806
 20
602.6487866789250347
 30
0.0
 40
0.0299928102901287
 50
269.9949806357540183
 51
350.3103911759791913
  0
ARC
  5
24B57
  8
0
 10
4360.8240154246568636
 20
602.7571876246499869
 30
0.0
 40
0.03
 50
287.4646231061195749
 51
0.0
  0
ARC
  5
24B58
  8
0
 10
4360.4769039553220864
 20
602.7087798109547521
 30
0.0
 40
0.2274640033043942
 50
289.5696599914909939
 51
332.0231213144411981
  0
ARC
  5
24B59
  8
0
 10
4360.8579473190284261
 20
602.6287230512849646
 30
0.0
 40
0.1029123308502513
 50
104.0181564518931054
 51
171.6102568290511101
  0
ARC
  5
24B5A
  8
0
 10
4358.2918859379269634
 20
602.671684682456771
 30
0.0
 40
0.1869268063292444
 50
274.8519680926934257
 51
337.0490425757910771
  0
ARC
  5
24B5B
  8
0
 10
4358.3010216006377959
 20
602.5102731208313571
 30
0.0
 40
0.0257264160931943
 50
196.0183874700508113
 51
285.0378789733734948
  0
ARC
  5
24B5C
  8
0
 10
4358.0309392645140179
 20
602.399701175076757
 30
0.0
 40
0.2662810651819996
 50
22.8664874308373811
 51
86.2751292237833951
  0
LINE
  5
24B5D
  8
0
 10
4358.2762940592556333
 20
603.2144137138500355
 30
0.0
 11
4358.2762940592556333
 21
602.5031740235499456
 31
0.0
  0
CIRCLE
  5
24B5E
  8
0
 10
4357.5550119866566092
 20
602.8587938686499683
 30
0.0
 40
0.3448109003999988
  0
ARC
  5
24B5F
  8
0
 10
4357.5550119866566092
 20
602.8587938686499683
 30
0.0
 40
0.4749807133077968
 50
29.4368265522723505
 51
330.5631812630911099
  0
ARC
  5
24B60
  8
0
 10
4357.5550119866566092
 20
602.8587938686499683
 30
0.0
 40
0.8190034379999978
 50
26.8095830405047302
 51
333.1904169652221981
  0
ARC
  5
24B61
  8
0
 10
4357.5550119866566092
 20
602.8587938686499683
 30
0.0
 40
1.1199999999999961
 50
13.7142219648624106
 51
346.2857780403193146
  0
CIRCLE
  5
24B62
  8
0
 10
4357.5550119866566092
 20
602.8587938686499683
 30
0.0
 40
0.2838500050510015
  0
VIEWPORT
  5
7BC8
 67
     1
  8
0
 10
8.4975296442687753
 20
4.5
 30
0.0
 40
16.9950592885375507
 41
9.0
 68
     1
 69
     1
1001
ACAD
1000
MVIEW
1002
{
1070
    16
1010
0.0
1020
0.0
1030
0.0
1010
0.0
1020
0.0
1030
1.0
1040
0.0
1040
9.0
1040
8.4975296442687753
1040
4.5
1040
50.0
1040
0.0
1040
0.0
1070
     0
1070
   100
1070
     1
1070
     1
1070
     0
1070
     0
1070
     0
1070
     0
1040
0.0
1040
0.0
1040
0.0
1040
1.0
1040
1.0
1040
0.0
1040
0.0
1070
     0
1002
{
1002
}
1002
}
  0
ENDSEC
  0
EOF
