  0
SECTION
  2
HEADER
  9
$ACADVER
  1
AC1009
  9
$INSBASE
 10
4354.4731301089877888
 20
596.4138497833336032
 30
0.0
  9
$EXTMIN
 10
4348.9250953137307079
 20
594.865814988076977
 30
0.0
  9
$EXTMAX
 10
4360.0211649042448698
 20
597.9618845785901158
 30
0.0
  9
$LIMMIN
 10
0.0
 20
0.0
  9
$LIMMAX
 10
11.6929133858000007
 20
8.2677165353999982
  9
$ORTHOMODE
 70
     0
  9
$REGENMODE
 70
     1
  9
$FILLMODE
 70
     1
  9
$QTEXTMODE
 70
     0
  9
$MIRRTEXT
 70
     0
  9
$DRAGMODE
 70
     2
  9
$LTSCALE
 40
0.6431102362
  9
$OSMODE
 70
     7
  9
$ATTMODE
 70
     1
  9
$TEXTSIZE
 40
0.2
  9
$TRACEWID
 40
0.05
  9
$TEXTSTYLE
  7
STANDARD
  9
$CLAYER
  8
0
  9
$CELTYPE
  6
BYLAYER
  9
$CECOLOR
 62
   256
  9
$DIMSCALE
 40
1.0
  9
$DIMASZ
 40
0.1875
  9
$DIMEXO
 40
0.0625
  9
$DIMDLI
 40
0.4443307087
  9
$DIMRND
 40
0.0
  9
$DIMDLE
 40
0.0
  9
$DIMEXE
 40
0.125
  9
$DIMTP
 40
0.01
  9
$DIMTM
 40
0.01
  9
$DIMTXT
 40
2.0
  9
$DIMCEN
 40
0.1052362205
  9
$DIMTSZ
 40
0.0
  9
$DIMTOL
 70
     1
  9
$DIMLIM
 70
     0
  9
$DIMTIH
 70
     1
  9
$DIMTOH
 70
     1
  9
$DIMSE1
 70
     0
  9
$DIMSE2
 70
     0
  9
$DIMTAD
 70
     0
  9
$DIMZIN
 70
     0
  9
$DIMBLK
  1

  9
$DIMASO
 70
     1
  9
$DIMSHO
 70
     1
  9
$DIMPOST
  1
\X
  9
$DIMAPOST
  1

  9
$DIMALT
 70
     1
  9
$DIMALTD
 70
     2
  9
$DIMALTF
 40
25.3999999999999986
  9
$DIMLFAC
 40
1.0
  9
$DIMTOFL
 70
     0
  9
$DIMTVP
 40
0.0
  9
$DIMTIX
 70
     0
  9
$DIMSOXD
 70
     0
  9
$DIMSAH
 70
     0
  9
$DIMBLK1
  1

  9
$DIMBLK2
  1

  9
$DIMSTYLE
  2
STANDARD
  9
$DIMCLRD
 70
     0
  9
$DIMCLRE
 70
     0
  9
$DIMCLRT
 70
     0
  9
$DIMTFAC
 40
1.0
  9
$DIMGAP
 40
0.09
  9
$LUNITS
 70
     2
  9
$LUPREC
 70
     4
  9
$SKETCHINC
 40
0.1
  9
$FILLETRAD
 40
0.0
  9
$AUNITS
 70
     0
  9
$AUPREC
 70
     0
  9
$MENU
  1
.
  9
$ELEVATION
 40
0.0
  9
$PELEVATION
 40
0.0
  9
$THICKNESS
 40
0.0
  9
$LIMCHECK
 70
     0
  9
$BLIPMODE
 70
     0
  9
$CHAMFERA
 40
0.0
  9
$CHAMFERB
 40
0.0
  9
$SKPOLY
 70
     0
  9
$TDCREATE
 40
2458060.468368056230247
  9
$TDUPDATE
 40
2459691.672685184981674
  9
$TDINDWG
 40
4.6625996528
  9
$TDUSRTIMER
 40
4.6625996528
  9
$USRTIMER
 70
     1
  9
$ANGBASE
 50
0.0
  9
$ANGDIR
 70
     0
  9
$PDMODE
 70
     0
  9
$PDSIZE
 40
0.3125
  9
$PLINEWID
 40
0.0
  9
$COORDS
 70
     1
  9
$SPLFRAME
 70
     0
  9
$SPLINETYPE
 70
     6
  9
$SPLINESEGS
 70
     8
  9
$ATTDIA
 70
     1
  9
$ATTREQ
 70
     1
  9
$HANDLING
 70
     1
  9
$HANDSEED
  5
24A4D
  9
$SURFTAB1
 70
     6
  9
$SURFTAB2
 70
     6
  9
$SURFTYPE
 70
     6
  9
$SURFU
 70
     6
  9
$SURFV
 70
     6
  9
$UCSNAME
  2

  9
$UCSORG
 10
0.0
 20
0.0
 30
0.0
  9
$UCSXDIR
 10
1.0
 20
0.0
 30
0.0
  9
$UCSYDIR
 10
0.0
 20
1.0
 30
0.0
  9
$PUCSNAME
  2

  9
$PUCSORG
 10
0.0
 20
0.0
 30
0.0
  9
$PUCSXDIR
 10
1.0
 20
0.0
 30
0.0
  9
$PUCSYDIR
 10
0.0
 20
1.0
 30
0.0
  9
$USERI1
 70
     0
  9
$USERI2
 70
     0
  9
$USERI3
 70
     0
  9
$USERI4
 70
     0
  9
$USERI5
 70
     0
  9
$USERR1
 40
0.0
  9
$USERR2
 40
0.0
  9
$USERR3
 40
0.0
  9
$USERR4
 40
0.0
  9
$USERR5
 40
0.0
  9
$WORLDVIEW
 70
     1
  9
$SHADEDGE
 70
     3
  9
$SHADEDIF
 70
    70
  9
$TILEMODE
 70
     1
  9
$MAXACTVP
 70
    64
  9
$PLIMCHECK
 70
     0
  9
$PEXTMIN
 10
1.0000000000000000E+20
 20
1.0000000000000000E+20
 30
1.0000000000000000E+20
  9
$PEXTMAX
 10
-1.0000000000000000E+20
 20
-1.0000000000000000E+20
 30
-1.0000000000000000E+20
  9
$PLIMMIN
 10
0.0
 20
0.0
  9
$PLIMMAX
 10
12.0
 20
9.0
  9
$UNITMODE
 70
     0
  9
$VISRETAIN
 70
     1
  9
$PLINEGEN
 70
     0
  9
$PSLTSCALE
 70
     1
  0
ENDSEC
  0
SECTION
  2
TABLES
  0
TABLE
  2
VPORT
 70
     1
  0
VPORT
  2
*ACTIVE
 70
     0
 10
0.0
 20
0.0
 11
1.0
 21
1.0
 12
117.975748438918302
 22
-2.328178907271762
 13
0.0
 23
0.0
 14
1.0
 24
1.0
 15
0.0
 25
0.0
 16
0.0
 26
0.0
 36
98.7941898181710343
 17
4236.431396484375
 27
598.728610913283319
 37
0.0
 40
4.9673900953927728
 41
2.2831541218637992
 42
50.0
 43
0.0
 44
0.0
 50
0.0
 51
0.0
 71
     0
 72
   100
 73
     1
 74
     1
 75
     0
 76
     0
 77
     0
 78
     0
  0
ENDTAB
  0
TABLE
  2
LTYPE
 70
     2
  0
LTYPE
  2
CONTINUOUS
 70
     0
  3
Solid line
 72
    65
 73
     0
 40
0.0
  0
LTYPE
  2
PHANTOM2
 70
     0
  3
___ _ _ ___ _ _ ___ _ _ ___ _ _
 72
    65
 73
     6
 40
1.25
 49
0.625
 49
-0.125
 49
0.125
 49
-0.125
 49
0.125
 49
-0.125
  0
ENDTAB
  0
TABLE
  2
LAYER
 70
     2
  0
LAYER
  2
0
 70
     0
 62
   255
  6
CONTINUOUS
  0
LAYER
  2
DEFPOINTS
 70
     0
 62
     7
  6
CONTINUOUS
  0
ENDTAB
  0
TABLE
  2
STYLE
 70
     1
  0
STYLE
  2
STANDARD
 70
     0
 40
0.0
 41
0.8
 50
0.0
 71
     0
 42
0.2
  3
txt
  4

  0
ENDTAB
  0
TABLE
  2
VIEW
 70
     0
  0
ENDTAB
  0
TABLE
  2
UCS
 70
     0
  0
ENDTAB
  0
TABLE
  2
APPID
 70
    10
  0
APPID
  2
ACAD
 70
     0
  0
APPID
  2
ACAD_MLEADERVER
 70
     0
  0
APPID
  2
ACAD_EXEMPT_FROM_CAD_STANDARDS
 70
     0
  0
APPID
  2
ACAD_NAV_VCDISPLAY
 70
     0
  0
APPID
  2
ACAECLAYERSTANDARD
 70
     0
  0
APPID
  2
ACCMTRANSPARENCY
 70
     0
  0
APPID
  2
ACAD_DSTYLE_DIMJAG
 70
     0
  0
APPID
  2
ACAD_DSTYLE_DIMTALN
 70
     0
  0
APPID
  2
ACDBATTR
 70
     0
  0
APPID
  2
DCO15
 70
     0
  0
ENDTAB
  0
TABLE
  2
DIMSTYLE
 70
     1
  0
DIMSTYLE
  2
STANDARD
 70
     0
  3

  4

  5

  6

  7

 40
1.0
 41
0.1875
 42
0.0625
 43
0.38
 44
0.125
 45
0.0
 46
0.0
 47
0.01
 48
0.01
140
0.15625
141
0.09
142
0.0
143
25.3999999999999986
144
1.0
145
0.0
146
1.0
147
0.09
 71
     1
 72
     0
 73
     1
 74
     1
 75
     0
 76
     0
 77
     0
 78
     4
170
     0
171
     2
172
     0
173
     0
174
     0
175
     0
176
     0
177
     0
178
     0
  0
ENDTAB
  0
ENDSEC
  0
SECTION
  2
BLOCKS
  0
BLOCK
  8
0
  2
$MODEL_SPACE
 70
     0
 10
0.0
 20
0.0
 30
0.0
  3
$MODEL_SPACE
  1

  0
ENDBLK
  5
21
  8
0
  0
BLOCK
 67
     1
  8
0
  2
$PAPER_SPACE
 70
     0
 10
0.0
 20
0.0
 30
0.0
  3
$PAPER_SPACE
  1

  0
ENDBLK
  5
1D
 67
     1
  8
0
  0
ENDSEC
  0
SECTION
  2
ENTITIES
  0
ATTDEF
  5
3930
  8
DEFPOINTS
 10
4354.4732940644153132
 20
596.4173667120752498
 30
0.0
 40
0.001
  1
K-T98071-3
  3

  2
MODELNUMBER
 70
     0
1001
ACDBATTR
1070
     0
1070
     1
  0
ATTDEF
  5
3931
  8
DEFPOINTS
 10
4354.4732940644153132
 20
596.4157000454085846
 30
0.0
 40
0.001
  1
ARTIFACTS
  3

  2
TRADENAME
 70
     0
1001
ACDBATTR
1070
     0
1070
     1
  0
ATTDEF
  5
3932
  8
DEFPOINTS
 10
4354.4732940644153132
 20
596.4140333787420332
 30
0.0
 40
0.001
  1
BATH FAUCET HANDLES
  3

  2
PRODUCT
 70
     0
1001
ACDBATTR
1070
     0
1070
     1
  0
CIRCLE
  5
248E6
  8
0
 10
4350.4729850936319053
 20
596.4137616782265923
 30
0.0
 40
0.4046157443000002
  0
CIRCLE
  5
248E7
  8
0
 10
4350.4729852865311841
 20
596.4137616782265923
 30
0.0
 40
0.3665696323454526
  0
CIRCLE
  5
248E8
  8
0
 10
4350.4729857146312497
 20
596.4137616782265923
 30
0.0
 40
0.2858605478930529
  0
LINE
  5
248E9
  8
0
 10
4349.5323098097305774
 20
596.6944961604266382
 30
0.0
 11
4349.5323098097305774
 21
596.1330271960265463
 31
0.0
  0
LINE
  5
248EA
  8
0
 10
4349.5790052277307041
 20
596.1437302264265554
 30
0.0
 11
4349.659382503931738
 21
596.1286594871265834
 31
0.0
  0
LINE
  5
248EB
  8
0
 10
4349.5790052277307041
 20
596.6837931301264462
 30
0.0
 11
4349.6593854857937913
 21
596.6988632584245806
 31
0.0
  0
ARC
  5
248EC
  8
0
 10
4349.5679479156306115
 20
596.0847578951264722
 30
0.0
 40
0.06
 50
79.3803447239228746
 51
126.4391288063985996
  0
ARC
  5
248ED
  8
0
 10
4349.5679479156306115
 20
596.7427654613265986
 30
0.0
 40
0.06
 50
233.5608711936014004
 51
280.6196552760770828
  0
ARC
  5
248EE
  8
0
 10
4349.3027139146315676
 20
596.4334772527391806
 30
0.0
 40
0.378132928511743
 50
182.9887152491540121
 51
307.3860948069947199
  0
ARC
  5
248EF
  8
0
 10
4349.3026832016466869
 20
596.394112534348551
 30
0.0
 40
0.378098799199328
 50
52.6040948810494271
 51
177.0210950627877082
  0
ARC
  5
248F0
  8
0
 10
4349.6649144646289642
 20
596.669353226674275
 30
0.0
 40
0.030023517129995
 50
55.3994424309262001
 51
100.6118672421442
  0
ARC
  5
248F1
  8
0
 10
4349.8253849842558338
 20
596.9766625979145829
 30
0.0
 40
0.3169074125236134
 50
243.0915457954218084
 51
303.3061968498532792
  0
ARC
  5
248F2
  8
0
 10
4349.6649101362636429
 20
596.1581833076936618
 30
0.0
 40
0.030036822403251
 50
259.3955010261046823
 51
304.5930795414947738
  0
LINE
  5
248F3
  8
0
 10
4349.6819633715313103
 20
596.694066509626623
 30
0.0
 11
4349.6819633715313103
 21
596.1334568468265616
 31
0.0
  0
ARC
  5
248F4
  8
0
 10
4349.8255734209205912
 20
595.8516083164125803
 30
0.0
 40
0.316326477522908
 50
56.6647236080042092
 51
117.0001694949474
  0
LINE
  5
248F5
  8
0
 10
4349.9994066229228338
 20
596.1158893377966024
 30
0.0
 11
4350.1751720232177831
 21
595.9401227057659298
 31
0.0
  0
LINE
  5
248F6
  8
0
 10
4350.1924837318938444
 20
595.4730294840769602
 30
0.0
 11
4350.7539526962937089
 21
595.4730294840769602
 31
0.0
  0
LINE
  5
248F7
  8
0
 10
4350.7432496658948367
 20
595.5197249020770869
 30
0.0
 11
4350.7583204051952634
 21
595.600102178276984
 31
0.0
  0
LINE
  5
248F8
  8
0
 10
4350.2031867621954007
 20
595.5197249020770869
 30
0.0
 11
4350.1881166338971525
 21
595.6001051601393783
 31
0.0
  0
ARC
  5
248F9
  8
0
 10
4350.8022219971953746
 20
595.508667589977108
 30
0.0
 40
0.06
 50
169.3803447238960871
 51
216.4391288063947059
  0
ARC
  5
248FA
  8
0
 10
4350.1442144309939977
 20
595.508667589977108
 30
0.0
 40
0.06
 50
323.5608711936051805
 51
10.6196552760975091
  0
ARC
  5
248FB
  8
0
 10
4350.4535026395833484
 20
595.2434335889780641
 30
0.0
 40
0.378132928511743
 50
272.9887152491273241
 51
37.3860948070169101
  0
ARC
  5
248FC
  8
0
 10
4350.4928673579734095
 20
595.2434028759929561
 30
0.0
 40
0.378098799199328
 50
142.604094881066402
 51
267.0210950627812281
  0
ARC
  5
248FD
  8
0
 10
4350.2176266656470034
 20
595.6056341389742101
 30
0.0
 40
0.030023517129995
 50
145.399442430937313
 51
190.6118672421569897
  0
ARC
  5
248FE
  8
0
 10
4349.9103172944069229
 20
595.766104658602103
 30
0.0
 40
0.3169074125236134
 50
333.091545795418881
 51
33.3061968498568604
  0
ARC
  5
248FF
  8
0
 10
4350.7287965846280713
 20
595.6056298106100257
 30
0.0
 40
0.030036822403251
 50
349.3955010261009875
 51
34.5930795415055812
  0
LINE
  5
24900
  8
0
 10
4350.1929133826952238
 20
595.622683045877011
 30
0.0
 11
4350.7535230454950579
 21
595.622683045877011
 31
0.0
  0
ARC
  5
24901
  8
0
 10
4351.035371575910176
 20
595.7662930952660645
 30
0.0
 40
0.316326477522908
 50
146.6655038469465921
 51
207.0001694949648936
  0
LINE
  5
24902
  8
0
 10
4351.4139504082450003
 20
596.1332034062404546
 30
0.0
 11
4351.4139504082450003
 21
596.6946723706405464
 31
0.0
  0
LINE
  5
24903
  8
0
 10
4351.3672549902448736
 20
596.6839693402405373
 30
0.0
 11
4351.2868777140438397
 21
596.6990400795403957
 31
0.0
  0
LINE
  5
24904
  8
0
 10
4351.3672549902448736
 20
596.1439064365405329
 30
0.0
 11
4351.2868747321808769
 21
596.1288363082425121
 31
0.0
  0
ARC
  5
24905
  8
0
 10
4351.3783123023449662
 20
596.7429416715405068
 30
0.0
 40
0.06
 50
259.3803447239229172
 51
306.4391288063986281
  0
ARC
  5
24906
  8
0
 10
4351.3783123023449662
 20
596.0849341053406079
 30
0.0
 40
0.06
 50
53.5608711936013506
 51
100.619655276077097
  0
ARC
  5
24907
  8
0
 10
4351.6435463033431006
 20
596.3942223139277985
 30
0.0
 40
0.378132928511743
 50
2.988715249154001
 51
127.3860948069947057
  0
ARC
  5
24908
  8
0
 10
4351.6435770163288907
 20
596.4335870323186555
 30
0.0
 40
0.378098799199328
 50
232.6040948810494058
 51
357.0210950627877082
  0
ARC
  5
24909
  8
0
 10
4351.2813457533466135
 20
596.1583463399927041
 30
0.0
 40
0.030023517129995
 50
235.3994424309262001
 51
280.6118672421442284
  0
ARC
  5
2490A
  8
0
 10
4351.1208752337197438
 20
595.8510369687522825
 30
0.0
 40
0.3169074125236134
 50
63.0915457954218226
 51
123.3069737997213053
  0
ARC
  5
2490B
  8
0
 10
4351.2813500817119348
 20
596.6695162589734309
 30
0.0
 40
0.030036822403251
 50
79.3955010261046681
 51
124.5930795414948022
  0
LINE
  5
2490C
  8
0
 10
4351.2642968464433579
 20
596.1336330570404698
 30
0.0
 11
4351.2642968464433579
 21
596.6942427198405312
 31
0.0
  0
LINE
  5
2490D
  8
0
 10
4350.9468535950527439
 20
596.1158893377966024
 30
0.0
 11
4350.7710881873335893
 21
595.940122698342293
 31
0.0
  0
ARC
  5
2490E
  8
0
 10
4351.1206867970549865
 20
596.9760912502545125
 30
0.0
 40
0.316326477522908
 50
236.6647236080042092
 51
297.0001694949473858
  0
LINE
  5
2490F
  8
0
 10
4350.9468535950527439
 20
596.7118102288706041
 30
0.0
 11
4350.7710881947577946
 21
596.8875768609010493
 31
0.0
  0
LINE
  5
24910
  8
0
 10
4350.7537764860799143
 20
597.3546700825901326
 30
0.0
 11
4350.1923075216800498
 21
597.3546700825901326
 31
0.0
  0
LINE
  5
24911
  8
0
 10
4350.203010552080741
 20
597.3079746645900059
 30
0.0
 11
4350.1879398127812237
 21
597.2275973883901088
 31
0.0
  0
LINE
  5
24912
  8
0
 10
4350.7430734557810865
 20
597.3079746645900059
 30
0.0
 11
4350.7581435840793347
 21
597.2275944065277145
 31
0.0
  0
ARC
  5
24913
  8
0
 10
4350.1440382207811126
 20
597.3190319766899847
 30
0.0
 40
0.06
 50
349.3803447238960871
 51
36.4391288063947769
  0
ARC
  5
24914
  8
0
 10
4350.802045786979761
 20
597.3190319766899847
 30
0.0
 40
0.06
 50
143.5608711936052089
 51
190.6196552760974896
  0
ARC
  5
24915
  8
0
 10
4350.4927575783931388
 20
597.5842659776890287
 30
0.0
 40
0.378132928511743
 50
92.9887152491272957
 51
217.3860948070168888
  0
ARC
  5
24916
  8
0
 10
4350.4533928600030777
 20
597.5842966906741367
 30
0.0
 40
0.378098799199328
 50
322.6040948810663735
 51
87.0210950627811854
  0
ARC
  5
24917
  8
0
 10
4350.7286335523276648
 20
597.2220654276927689
 30
0.0
 40
0.030023517129995
 50
325.399442430937313
 51
10.6118672421570199
  0
ARC
  5
24918
  8
0
 10
4351.0359429235686548
 20
597.0615949080649898
 30
0.0
 40
0.3169074125236134
 50
153.0915457954189094
 51
213.3061968498568035
  0
ARC
  5
24919
  8
0
 10
4350.2174636333484159
 20
597.2220697560571807
 30
0.0
 40
0.030036822403251
 50
169.3955010261011012
 51
214.5930795415056025
  0
LINE
  5
2491A
  8
0
 10
4350.7533468352812633
 20
597.2050165207899681
 30
0.0
 11
4350.1927371724823388
 21
597.2050165207899681
 31
0.0
  0
ARC
  5
2491B
  8
0
 10
4349.9108886420663111
 20
597.0614064714009146
 30
0.0
 40
0.316326477522908
 50
326.6647236080023049
 51
27.00016949496489
  0
LINE
  5
2491C
  8
0
 10
4350.1751696634510154
 20
596.887573269398672
 30
0.0
 11
4349.9994030314210249
 21
596.7118078691034952
 31
0.0
  0
LINE
  5
2491D
  8
0
 10
4350.0436235573670274
 20
596.2480664020259837
 30
0.0
 11
4350.0436235573670274
 21
596.5789400814411465
 31
0.0
  0
LINE
  5
2491E
  8
0
 10
4350.2866496669039407
 20
595.9929162349880016
 30
0.0
 11
4350.0526866444733969
 21
596.2268792574185454
 31
0.0
  0
LINE
  5
2491F
  8
0
 10
4350.6389134902947262
 20
595.9843432317129555
 30
0.0
 11
4350.3080398108795634
 21
595.9843432317129555
 31
0.0
  0
LINE
  5
24920
  8
0
 10
4350.8940636573333904
 20
596.2273693412493003
 30
0.0
 11
4350.6601006349028467
 21
595.9934063188186428
 31
0.0
  0
LINE
  5
24921
  8
0
 10
4350.9026366606085503
 20
596.5796331646412227
 30
0.0
 11
4350.9026366606085503
 21
596.2487594852259463
 31
0.0
  0
LINE
  5
24922
  8
0
 10
4350.659610551071637
 20
596.8347833316790911
 30
0.0
 11
4350.8935735735030903
 21
596.6008203092485473
 31
0.0
  0
LINE
  5
24923
  8
0
 10
4350.3073467276808515
 20
596.8433563349541373
 30
0.0
 11
4350.6382204070960142
 21
596.8433563349541373
 31
0.0
  0
LINE
  5
24924
  8
0
 10
4350.0521965606421873
 20
596.6003302254176788
 30
0.0
 11
4350.286159583072731
 21
596.8342932478484499
 31
0.0
  0
ARC
  5
24925
  8
0
 10
4350.3096525638684398
 20
596.8086693234180302
 30
0.0
 40
0.0347635678523341
 50
93.8031697093793468
 51
132.5157726675035974
  0
ARC
  5
24926
  8
0
 10
4350.0783544541218362
 20
596.5774332767457508
 30
0.0
 40
0.0347635678523341
 50
138.803169709390005
 51
177.5157726674910919
  0
ARC
  5
24927
  8
0
 10
4350.0783105689024524
 20
596.2503722382130036
 30
0.0
 40
0.0347635678523341
 50
183.8031697094000947
 51
222.5157726674979983
  0
ARC
  5
24928
  8
0
 10
4350.309546615576437
 20
596.0190741284684464
 30
0.0
 40
0.0347635678523341
 50
228.8031697094133108
 51
267.5157726674722198
  0
ARC
  5
24929
  8
0
 10
4350.6366076541080474
 20
596.0190302432489489
 30
0.0
 40
0.0347635678523341
 50
273.80316970937929
 51
312.5157726675035974
  0
ARC
  5
2492A
  8
0
 10
4350.867905763852832
 20
596.2502662899213419
 30
0.0
 40
0.0347635678523341
 50
318.8031697093899766
 51
357.5157726674912055
  0
ARC
  5
2492B
  8
0
 10
4350.8679496490722158
 20
596.5773273284540892
 30
0.0
 40
0.0347635678523341
 50
3.8031697094001311
 51
42.5157726674980125
  0
ARC
  5
2492C
  8
0
 10
4350.6367136024000501
 20
596.8086254381986464
 30
0.0
 40
0.0347635678523341
 50
48.8031697094133321
 51
87.5157726674721914
  0
ARC
  5
2492D
  8
0
 10
4350.4731301089868793
 20
596.4138497833336032
 30
0.0
 40
0.8325881440565108
 50
109.4582375560262051
 51
160.5520069582219946
  0
ARC
  5
2492E
  8
0
 10
4350.4731301089868793
 20
596.4138497833336032
 30
0.0
 40
0.8325881440565108
 50
199.4582375560183038
 51
250.5520069582285032
  0
ARC
  5
2492F
  8
0
 10
4350.4731301089868793
 20
596.4138497833336032
 30
0.0
 40
0.8325881440565108
 50
289.4582375560261767
 51
340.5520069582220231
  0
ARC
  5
24930
  8
0
 10
4350.4731301089868793
 20
596.4138497833336032
 30
0.0
 40
0.8325881440565108
 50
19.4582375560183216
 51
70.5520069582285032
  0
ARC
  5
24931
  8
0
 10
4350.4731301089868793
 20
596.4138497833336032
 30
0.0
 40
1.118105187441933
 50
107.8783743121395986
 51
162.1292184495968058
  0
ARC
  5
24932
  8
0
 10
4350.4731301089868793
 20
596.4138497833336032
 30
0.0
 40
1.118105187441933
 50
197.8783743121560121
 51
252.1292184496032007
  0
ARC
  5
24933
  8
0
 10
4350.4731301089868793
 20
596.4138497833336032
 30
0.0
 40
1.118105187441933
 50
287.8783743121396128
 51
342.1292184495968058
  0
ARC
  5
24934
  8
0
 10
4350.4731301089868793
 20
596.4138497833336032
 30
0.0
 40
1.118105187441933
 50
17.8783743121560192
 51
72.1292184496031723
  0
CIRCLE
  5
24935
  8
0
 10
4358.4729850936319053
 20
596.4137616782265923
 30
0.0
 40
0.4046157443000002
  0
CIRCLE
  5
24936
  8
0
 10
4358.4729852865311841
 20
596.4137616782265923
 30
0.0
 40
0.3665696323454526
  0
CIRCLE
  5
24937
  8
0
 10
4358.4729857146312497
 20
596.4137616782265923
 30
0.0
 40
0.2858605478930529
  0
LINE
  5
24938
  8
0
 10
4357.5323098097305774
 20
596.6944961604266382
 30
0.0
 11
4357.5323098097305774
 21
596.1330271960265463
 31
0.0
  0
LINE
  5
24939
  8
0
 10
4357.5790052277316136
 20
596.1437302264265554
 30
0.0
 11
4357.6593825039308285
 21
596.1286594871265834
 31
0.0
  0
LINE
  5
2493A
  8
0
 10
4357.5790052277316136
 20
596.6837931301264462
 30
0.0
 11
4357.6593854857937913
 21
596.6988632584245806
 31
0.0
  0
ARC
  5
2493B
  8
0
 10
4357.5679479156306115
 20
596.0847578951264722
 30
0.0
 40
0.06
 50
79.3803447239228746
 51
126.4391288063985996
  0
ARC
  5
2493C
  8
0
 10
4357.5679479156306115
 20
596.7427654613265986
 30
0.0
 40
0.06
 50
233.5608711936014004
 51
280.6196552760770828
  0
ARC
  5
2493D
  8
0
 10
4357.3027139146315676
 20
596.4334772527391806
 30
0.0
 40
0.378132928511743
 50
182.9887152491540121
 51
307.3860948069947199
  0
ARC
  5
2493E
  8
0
 10
4357.3026832016466869
 20
596.394112534348551
 30
0.0
 40
0.378098799199328
 50
52.6040948810494271
 51
177.0210950627877082
  0
ARC
  5
2493F
  8
0
 10
4357.6649144646289642
 20
596.669353226674275
 30
0.0
 40
0.030023517129995
 50
55.3994424309262001
 51
100.6118672421442
  0
ARC
  5
24940
  8
0
 10
4357.8253849842558338
 20
596.9766625979145829
 30
0.0
 40
0.3169074125236134
 50
243.0915457954218084
 51
303.3061968498532792
  0
ARC
  5
24941
  8
0
 10
4357.6649101362636429
 20
596.1581833076936618
 30
0.0
 40
0.030036822403251
 50
259.3955010261046823
 51
304.5930795414947738
  0
LINE
  5
24942
  8
0
 10
4357.6819633715322198
 20
596.694066509626623
 30
0.0
 11
4357.6819633715322198
 21
596.1334568468265616
 31
0.0
  0
ARC
  5
24943
  8
0
 10
4357.8255734209196817
 20
595.8516083164125803
 30
0.0
 40
0.316326477522908
 50
56.6647236080042092
 51
117.0001694949474
  0
LINE
  5
24944
  8
0
 10
4357.9994066229219243
 20
596.1158893377966024
 30
0.0
 11
4358.1751720232177831
 21
595.9401227057659298
 31
0.0
  0
LINE
  5
24945
  8
0
 10
4358.1924837318947539
 20
595.4730294840769602
 30
0.0
 11
4358.7539526962946184
 21
595.4730294840769602
 31
0.0
  0
LINE
  5
24946
  8
0
 10
4358.7432496658939272
 20
595.5197249020770869
 30
0.0
 11
4358.7583204051952634
 21
595.600102178276984
 31
0.0
  0
LINE
  5
24947
  8
0
 10
4358.2031867621954007
 20
595.5197249020770869
 30
0.0
 11
4358.1881166338971525
 21
595.6001051601393783
 31
0.0
  0
ARC
  5
24948
  8
0
 10
4358.8022219971953746
 20
595.508667589977108
 30
0.0
 40
0.06
 50
169.3803447238960871
 51
216.4391288063947059
  0
ARC
  5
24949
  8
0
 10
4358.1442144309949072
 20
595.508667589977108
 30
0.0
 40
0.06
 50
323.5608711936051805
 51
10.6196552760975091
  0
ARC
  5
2494A
  8
0
 10
4358.4535026395833484
 20
595.2434335889780641
 30
0.0
 40
0.378132928511743
 50
272.9887152491273241
 51
37.3860948070169101
  0
ARC
  5
2494B
  8
0
 10
4358.4928673579734095
 20
595.2434028759929561
 30
0.0
 40
0.378098799199328
 50
142.604094881066402
 51
267.0210950627812281
  0
ARC
  5
2494C
  8
0
 10
4358.2176266656470034
 20
595.6056341389742101
 30
0.0
 40
0.030023517129995
 50
145.399442430937313
 51
190.6118672421569897
  0
ARC
  5
2494D
  8
0
 10
4357.9103172944069229
 20
595.766104658602103
 30
0.0
 40
0.3169074125236134
 50
333.091545795418881
 51
33.3061968498568604
  0
ARC
  5
2494E
  8
0
 10
4358.7287965846271618
 20
595.6056298106100257
 30
0.0
 40
0.030036822403251
 50
349.3955010261009875
 51
34.5930795415055812
  0
LINE
  5
2494F
  8
0
 10
4358.1929133826952238
 20
595.622683045877011
 30
0.0
 11
4358.7535230454950579
 21
595.622683045877011
 31
0.0
  0
ARC
  5
24950
  8
0
 10
4359.0353715759092665
 20
595.7662930952660645
 30
0.0
 40
0.316326477522908
 50
146.6655038469465921
 51
207.0001694949648936
  0
LINE
  5
24951
  8
0
 10
4359.4139504082450003
 20
596.1332034062404546
 30
0.0
 11
4359.4139504082450003
 21
596.6946723706405464
 31
0.0
  0
LINE
  5
24952
  8
0
 10
4359.3672549902448736
 20
596.6839693402405373
 30
0.0
 11
4359.2868777140438397
 21
596.6990400795403957
 31
0.0
  0
LINE
  5
24953
  8
0
 10
4359.3672549902448736
 20
596.1439064365405329
 30
0.0
 11
4359.2868747321808769
 21
596.1288363082425121
 31
0.0
  0
ARC
  5
24954
  8
0
 10
4359.3783123023449662
 20
596.7429416715405068
 30
0.0
 40
0.06
 50
259.3803447239229172
 51
306.4391288063986281
  0
ARC
  5
24955
  8
0
 10
4359.3783123023449662
 20
596.0849341053406079
 30
0.0
 40
0.06
 50
53.5608711936013506
 51
100.619655276077097
  0
ARC
  5
24956
  8
0
 10
4359.6435463033431006
 20
596.3942223139277985
 30
0.0
 40
0.378132928511743
 50
2.988715249154001
 51
127.3860948069947057
  0
ARC
  5
24957
  8
0
 10
4359.6435770163288907
 20
596.4335870323186555
 30
0.0
 40
0.378098799199328
 50
232.6040948810494058
 51
357.0210950627877082
  0
ARC
  5
24958
  8
0
 10
4359.2813457533466135
 20
596.1583463399927041
 30
0.0
 40
0.030023517129995
 50
235.3994424309262001
 51
280.6118672421442284
  0
ARC
  5
24959
  8
0
 10
4359.1208752337197438
 20
595.8510369687522825
 30
0.0
 40
0.3169074125236134
 50
63.0915457954218226
 51
123.3069737997213053
  0
ARC
  5
2495A
  8
0
 10
4359.2813500817119348
 20
596.6695162589734309
 30
0.0
 40
0.030036822403251
 50
79.3955010261046681
 51
124.5930795414948022
  0
LINE
  5
2495B
  8
0
 10
4359.2642968464442674
 20
596.1336330570404698
 30
0.0
 11
4359.2642968464442674
 21
596.6942427198405312
 31
0.0
  0
LINE
  5
2495C
  8
0
 10
4358.9468535950527439
 20
596.1158893377966024
 30
0.0
 11
4358.7710881873335893
 21
595.940122698342293
 31
0.0
  0
ARC
  5
2495D
  8
0
 10
4359.120686797054077
 20
596.9760912502545125
 30
0.0
 40
0.316326477522908
 50
236.6647236080042092
 51
297.0001694949473858
  0
LINE
  5
2495E
  8
0
 10
4358.9468535950527439
 20
596.7118102288706041
 30
0.0
 11
4358.7710881947577946
 21
596.8875768609010493
 31
0.0
  0
LINE
  5
2495F
  8
0
 10
4358.7537764860808238
 20
597.3546700825901326
 30
0.0
 11
4358.1923075216809593
 21
597.3546700825901326
 31
0.0
  0
LINE
  5
24960
  8
0
 10
4358.2030105520798315
 20
597.3079746645900059
 30
0.0
 11
4358.1879398127812237
 21
597.2275973883901088
 31
0.0
  0
LINE
  5
24961
  8
0
 10
4358.7430734557810865
 20
597.3079746645900059
 30
0.0
 11
4358.7581435840793347
 21
597.2275944065277145
 31
0.0
  0
ARC
  5
24962
  8
0
 10
4358.1440382207811126
 20
597.3190319766899847
 30
0.0
 40
0.06
 50
349.3803447238960871
 51
36.4391288063947769
  0
ARC
  5
24963
  8
0
 10
4358.8020457869806705
 20
597.3190319766899847
 30
0.0
 40
0.06
 50
143.5608711936052089
 51
190.6196552760974896
  0
ARC
  5
24964
  8
0
 10
4358.4927575783940483
 20
597.5842659776890287
 30
0.0
 40
0.378132928511743
 50
92.9887152491272957
 51
217.3860948070168888
  0
ARC
  5
24965
  8
0
 10
4358.4533928600030777
 20
597.5842966906741367
 30
0.0
 40
0.378098799199328
 50
322.6040948810663735
 51
87.0210950627811854
  0
ARC
  5
24966
  8
0
 10
4358.7286335523276648
 20
597.2220654276927689
 30
0.0
 40
0.030023517129995
 50
325.399442430937313
 51
10.6118672421570199
  0
ARC
  5
24967
  8
0
 10
4359.0359429235686548
 20
597.0615949080649898
 30
0.0
 40
0.3169074125236134
 50
153.0915457954189094
 51
213.3061968498568035
  0
ARC
  5
24968
  8
0
 10
4358.2174636333484159
 20
597.2220697560571807
 30
0.0
 40
0.030036822403251
 50
169.3955010261011012
 51
214.5930795415056025
  0
LINE
  5
24969
  8
0
 10
4358.7533468352812633
 20
597.2050165207899681
 30
0.0
 11
4358.1927371724823388
 21
597.2050165207899681
 31
0.0
  0
ARC
  5
2496A
  8
0
 10
4357.9108886420663111
 20
597.0614064714009146
 30
0.0
 40
0.316326477522908
 50
326.6647236080023049
 51
27.00016949496489
  0
LINE
  5
2496B
  8
0
 10
4358.1751696634510154
 20
596.887573269398672
 30
0.0
 11
4357.9994030314201154
 21
596.7118078691034952
 31
0.0
  0
LINE
  5
2496C
  8
0
 10
4358.0436235573670274
 20
596.2480664020259837
 30
0.0
 11
4358.0436235573670274
 21
596.5789400814411465
 31
0.0
  0
LINE
  5
2496D
  8
0
 10
4358.2866496669030312
 20
595.9929162349880016
 30
0.0
 11
4358.0526866444733969
 21
596.2268792574185454
 31
0.0
  0
LINE
  5
2496E
  8
0
 10
4358.6389134902947262
 20
595.9843432317129555
 30
0.0
 11
4358.3080398108795634
 21
595.9843432317129555
 31
0.0
  0
LINE
  5
2496F
  8
0
 10
4358.8940636573333904
 20
596.2273693412493003
 30
0.0
 11
4358.6601006349019372
 21
595.9934063188186428
 31
0.0
  0
LINE
  5
24970
  8
0
 10
4358.9026366606076408
 20
596.5796331646412227
 30
0.0
 11
4358.9026366606076408
 21
596.2487594852259463
 31
0.0
  0
LINE
  5
24971
  8
0
 10
4358.6596105510725465
 20
596.8347833316790911
 30
0.0
 11
4358.8935735735030903
 21
596.6008203092485473
 31
0.0
  0
LINE
  5
24972
  8
0
 10
4358.3073467276808515
 20
596.8433563349541373
 30
0.0
 11
4358.6382204070960142
 21
596.8433563349541373
 31
0.0
  0
LINE
  5
24973
  8
0
 10
4358.0521965606421873
 20
596.6003302254176788
 30
0.0
 11
4358.2861595830718215
 21
596.8342932478484499
 31
0.0
  0
ARC
  5
24974
  8
0
 10
4358.3096525638666208
 20
596.8086693234180302
 30
0.0
 40
0.0347635678523341
 50
93.8031697093793468
 51
132.5157726675035974
  0
ARC
  5
24975
  8
0
 10
4358.0783544541218362
 20
596.5774332767457508
 30
0.0
 40
0.0347635678523341
 50
138.803169709390005
 51
177.5157726674910919
  0
ARC
  5
24976
  8
0
 10
4358.0783105689033619
 20
596.2503722382130036
 30
0.0
 40
0.0347635678523341
 50
183.8031697094000947
 51
222.5157726674979983
  0
ARC
  5
24977
  8
0
 10
4358.309546615574618
 20
596.0190741284684464
 30
0.0
 40
0.0347635678523341
 50
228.8031697094133108
 51
267.5157726674722198
  0
ARC
  5
24978
  8
0
 10
4358.6366076541080474
 20
596.0190302432489489
 30
0.0
 40
0.0347635678523341
 50
273.80316970937929
 51
312.5157726675035974
  0
ARC
  5
24979
  8
0
 10
4358.867905763852832
 20
596.2502662899213419
 30
0.0
 40
0.0347635678523341
 50
318.8031697093899766
 51
357.5157726674912055
  0
ARC
  5
2497A
  8
0
 10
4358.8679496490722158
 20
596.5773273284540892
 30
0.0
 40
0.0347635678523341
 50
3.8031697094001311
 51
42.5157726674980125
  0
ARC
  5
2497B
  8
0
 10
4358.6367136024000501
 20
596.8086254381986464
 30
0.0
 40
0.0347635678523341
 50
48.8031697094133321
 51
87.5157726674721914
  0
ARC
  5
2497C
  8
0
 10
4358.4731301089877888
 20
596.4138497833336032
 30
0.0
 40
0.8325881440565108
 50
109.4582375560262051
 51
160.5520069582219946
  0
ARC
  5
2497D
  8
0
 10
4358.4731301089877888
 20
596.4138497833336032
 30
0.0
 40
0.8325881440565108
 50
199.4582375560183038
 51
250.5520069582285032
  0
ARC
  5
2497E
  8
0
 10
4358.4731301089877888
 20
596.4138497833336032
 30
0.0
 40
0.8325881440565108
 50
289.4582375560261767
 51
340.5520069582220231
  0
ARC
  5
2497F
  8
0
 10
4358.4731301089877888
 20
596.4138497833336032
 30
0.0
 40
0.8325881440565108
 50
19.4582375560183216
 51
70.5520069582285032
  0
ARC
  5
24980
  8
0
 10
4358.4731301089877888
 20
596.4138497833336032
 30
0.0
 40
1.118105187441933
 50
107.8783743121395986
 51
162.1292184495968058
  0
ARC
  5
24981
  8
0
 10
4358.4731301089877888
 20
596.4138497833336032
 30
0.0
 40
1.118105187441933
 50
197.8783743121560121
 51
252.1292184496032007
  0
ARC
  5
24982
  8
0
 10
4358.4731301089877888
 20
596.4138497833336032
 30
0.0
 40
1.118105187441933
 50
287.8783743121396128
 51
342.1292184495968058
  0
ARC
  5
24983
  8
0
 10
4358.4731301089877888
 20
596.4138497833336032
 30
0.0
 40
1.118105187441933
 50
17.8783743121560192
 51
72.1292184496031723
  0
VIEWPORT
  5
7BC8
 67
     1
  8
0
 10
8.4975296442687753
 20
4.5
 30
0.0
 40
16.9950592885375507
 41
9.0
 68
     1
 69
     1
1001
ACAD
1000
MVIEW
1002
{
1070
    16
1010
0.0
1020
0.0
1030
0.0
1010
0.0
1020
0.0
1030
1.0
1040
0.0
1040
9.0
1040
8.4975296442687753
1040
4.5
1040
50.0
1040
0.0
1040
0.0
1070
     0
1070
   100
1070
     1
1070
     1
1070
     0
1070
     0
1070
     0
1070
     0
1040
0.0
1040
0.0
1040
0.0
1040
1.0
1040
1.0
1040
0.0
1040
0.0
1070
     0
1002
{
1002
}
1002
}
  0
ENDSEC
  0
EOF
