  0
SECTION
  2
HEADER
  9
$ACADVER
  1
AC1009
  9
$INSBASE
 10
22.6345362986
 20
-3.0940934320999989
 30
0.0
  9
$EXTMIN
 10
15.382570576199999
 20
-3.109397132874844
 30
0.0
  9
$EXTMAX
 10
24.0095362986
 20
8.4126580100285171
 30
0.0
  9
$LIMMIN
 10
0.0
 20
0.0
  9
$LIMMAX
 10
11.692913385800001
 20
8.2677165353999982
  9
$ORTHOMODE
 70
     0
  9
$REGENMODE
 70
     1
  9
$FILLMODE
 70
     1
  9
$QTEXTMODE
 70
     0
  9
$MIRRTEXT
 70
     0
  9
$DRAGMODE
 70
     2
  9
$LTSCALE
 40
0.6431102362
  9
$OSMODE
 70
  3071
  9
$ATTMODE
 70
     1
  9
$TEXTSIZE
 40
0.2
  9
$TRACEWID
 40
0.05
  9
$TEXTSTYLE
  7
STANDARD
  9
$CLAYER
  8
0
  9
$CELTYPE
  6
BYLAYER
  9
$CECOLOR
 62
   256
  9
$DIMSCALE
 40
1.0
  9
$DIMASZ
 40
0.1875
  9
$DIMEXO
 40
0.0625
  9
$DIMDLI
 40
0.4443307087
  9
$DIMRND
 40
0.0
  9
$DIMDLE
 40
0.0
  9
$DIMEXE
 40
0.125
  9
$DIMTP
 40
0.01
  9
$DIMTM
 40
0.01
  9
$DIMTXT
 40
1.0
  9
$DIMCEN
 40
0.1052362205
  9
$DIMTSZ
 40
0.0
  9
$DIMTOL
 70
     1
  9
$DIMLIM
 70
     0
  9
$DIMTIH
 70
     1
  9
$DIMTOH
 70
     1
  9
$DIMSE1
 70
     0
  9
$DIMSE2
 70
     0
  9
$DIMTAD
 70
     0
  9
$DIMZIN
 70
     0
  9
$DIMBLK
  1

  9
$DIMASO
 70
     1
  9
$DIMSHO
 70
     1
  9
$DIMPOST
  1
\X
  9
$DIMAPOST
  1

  9
$DIMALT
 70
     1
  9
$DIMALTD
 70
     2
  9
$DIMALTF
 40
25.399999999999999
  9
$DIMLFAC
 40
1.0
  9
$DIMTOFL
 70
     0
  9
$DIMTVP
 40
0.0
  9
$DIMTIX
 70
     0
  9
$DIMSOXD
 70
     0
  9
$DIMSAH
 70
     0
  9
$DIMBLK1
  1

  9
$DIMBLK2
  1

  9
$DIMSTYLE
  2
STANDARD
  9
$DIMCLRD
 70
     0
  9
$DIMCLRE
 70
     0
  9
$DIMCLRT
 70
     0
  9
$DIMTFAC
 40
1.0
  9
$DIMGAP
 40
0.09
  9
$LUNITS
 70
     2
  9
$LUPREC
 70
     4
  9
$SKETCHINC
 40
0.1
  9
$FILLETRAD
 40
0.0
  9
$AUNITS
 70
     0
  9
$AUPREC
 70
     0
  9
$MENU
  1
.
  9
$ELEVATION
 40
0.0
  9
$PELEVATION
 40
0.0
  9
$THICKNESS
 40
0.0
  9
$LIMCHECK
 70
     0
  9
$BLIPMODE
 70
     0
  9
$CHAMFERA
 40
0.0
  9
$CHAMFERB
 40
0.0
  9
$SKPOLY
 70
     0
  9
$TDCREATE
 40
2457800.458794618
  9
$TDUPDATE
 40
2457800.514339942
  9
$TDINDWG
 40
0.0552032176
  9
$TDUSRTIMER
 40
0.0552032176
  9
$USRTIMER
 70
     1
  9
$ANGBASE
 50
0.0
  9
$ANGDIR
 70
     0
  9
$PDMODE
 70
     0
  9
$PDSIZE
 40
0.3125
  9
$PLINEWID
 40
0.0
  9
$COORDS
 70
     1
  9
$SPLFRAME
 70
     0
  9
$SPLINETYPE
 70
     6
  9
$SPLINESEGS
 70
     8
  9
$ATTDIA
 70
     1
  9
$ATTREQ
 70
     1
  9
$HANDLING
 70
     1
  9
$HANDSEED
  5
A90
  9
$SURFTAB1
 70
     6
  9
$SURFTAB2
 70
     6
  9
$SURFTYPE
 70
     6
  9
$SURFU
 70
     6
  9
$SURFV
 70
     6
  9
$UCSNAME
  2

  9
$UCSORG
 10
0.0
 20
0.0
 30
0.0
  9
$UCSXDIR
 10
1.0
 20
0.0
 30
0.0
  9
$UCSYDIR
 10
0.0
 20
1.0
 30
0.0
  9
$PUCSNAME
  2

  9
$PUCSORG
 10
0.0
 20
0.0
 30
0.0
  9
$PUCSXDIR
 10
1.0
 20
0.0
 30
0.0
  9
$PUCSYDIR
 10
0.0
 20
1.0
 30
0.0
  9
$USERI1
 70
     0
  9
$USERI2
 70
     0
  9
$USERI3
 70
     0
  9
$USERI4
 70
     0
  9
$USERI5
 70
     0
  9
$USERR1
 40
0.0
  9
$USERR2
 40
0.0
  9
$USERR3
 40
0.0
  9
$USERR4
 40
0.0
  9
$USERR5
 40
0.0
  9
$WORLDVIEW
 70
     1
  9
$SHADEDGE
 70
     3
  9
$SHADEDIF
 70
    70
  9
$TILEMODE
 70
     1
  9
$MAXACTVP
 70
    64
  9
$PLIMCHECK
 70
     0
  9
$PEXTMIN
 10
1.0000000000000000E+020
 20
1.0000000000000000E+020
 30
1.0000000000000000E+020
  9
$PEXTMAX
 10
-1.0000000000000000E+020
 20
-1.0000000000000000E+020
 30
-1.0000000000000000E+020
  9
$PLIMMIN
 10
0.0
 20
0.0
  9
$PLIMMAX
 10
12.0
 20
9.0
  9
$UNITMODE
 70
     0
  9
$VISRETAIN
 70
     1
  9
$PLINEGEN
 70
     0
  9
$PSLTSCALE
 70
     1
  0
ENDSEC
  0
SECTION
  2
TABLES
  0
TABLE
  2
VPORT
 70
     1
  0
VPORT
  2
*ACTIVE
 70
     0
 10
0.0
 20
0.0
 11
1.0
 21
1.0
 12
0.0
 22
0.0
 13
0.0
 23
0.0
 14
1.0
 24
1.0
 15
0.0
 25
0.0
 16
-0.0000000000000071
 26
0.0
 36
34.042914455280062
 17
19.6960534374
 27
2.651630438576837
 37
0.0
 40
14.393828270879521
 41
1.664490861618799
 42
50.0
 43
0.0
 44
0.0
 50
0.0
 51
0.0
 71
     0
 72
   100
 73
     1
 74
     1
 75
     0
 76
     0
 77
     0
 78
     0
  0
ENDTAB
  0
TABLE
  2
LTYPE
 70
     3
  0
LTYPE
  2
CONTINUOUS
 70
     0
  3
Solid line
 72
    65
 73
     0
 40
0.0
  0
LTYPE
  2
PHANTOM2
 70
     0
  3
___ _ _ ___ _ _ ___ _ _ ___ _ _
 72
    65
 73
     6
 40
1.25
 49
0.625
 49
-0.125
 49
0.125
 49
-0.125
 49
0.125
 49
-0.125
  0
ENDTAB
  0
TABLE
  2
LAYER
 70
     3
  0
LAYER
  2
0
 70
     0
 62
     7
  6
CONTINUOUS
  0
LAYER
  2
DEFPOINTS
 70
     0
 62
     7
  6
CONTINUOUS
  0
ENDTAB
  0
TABLE
  2
STYLE
 70
     1
  0
STYLE
  2
STANDARD
 70
     0
 40
0.0
 41
0.8
 50
0.0
 71
     0
 42
0.2
  3
txt
  4

  0
ENDTAB
  0
TABLE
  2
VIEW
 70
     0
  0
ENDTAB
  0
TABLE
  2
UCS
 70
     0
  0
ENDTAB
  0
TABLE
  2
APPID
 70
     7
  0
APPID
  2
ACAD
 70
     0
  0
APPID
  2
ACAD_NAV_VCDISPLAY
 70
     0
  0
APPID
  2
ACAD_MLEADERVER
 70
     0
  0
APPID
  2
ACAD_DSTYLE_DIMJAG
 70
     0
  0
APPID
  2
ACAD_DSTYLE_DIMTALN
 70
     0
  0
APPID
  2
ACAD_EXEMPT_FROM_CAD_STANDARDS
 70
     0
  0
APPID
  2
AcDbAttr
 70
     0
  0
ENDTAB
  0
TABLE
  2
DIMSTYLE
 70
     2
  0
DIMSTYLE
  2
STANDARD
 70
     0
  3

  4

  5

  6

  7

 40
1.0
 41
0.1875
 42
0.0625
 43
0.38
 44
0.125
 45
0.0
 46
0.0
 47
0.01
 48
0.01
140
0.15625
141
0.09
142
0.0
143
25.399999999999999
144
1.0
145
0.0
146
1.0
147
0.09
 71
     1
 72
     0
 73
     1
 74
     1
 75
     0
 76
     0
 77
     0
 78
     4
170
     0
171
     2
172
     0
173
     0
174
     0
175
     0
176
     0
177
     0
178
     0
  0
ENDTAB
  0
ENDSEC
  0
SECTION
  2
BLOCKS
  0
BLOCK
  8
0
  2
$MODEL_SPACE
 70
     0
 10
0.0
 20
0.0
 30
0.0
  3
$MODEL_SPACE
  1

  0
ENDBLK
  5
21
  8
0
  0
BLOCK
 67
     1
  8
0
  2
$PAPER_SPACE
 70
     0
 10
0.0
 20
0.0
 30
0.0
  3
$PAPER_SPACE
  1

  0
ENDBLK
  5
1D
 67
     1
  8
0
  0
ENDSEC
  0
SECTION
  2
ENTITIES
  0
LINE
  5
7F0
  8
0
 10
24.0095355395
 20
-3.0940934320999989
 30
0.0
 11
24.0095355395
 21
-2.3840934320999998
 31
0.0
  0
LINE
  5
7F1
  8
0
 10
24.0095355395
 20
-2.3840934320999998
 30
0.0
 11
23.4230362986
 21
-2.3840934320999998
 31
0.0
  0
LINE
  5
7F2
  8
0
 10
21.846036298600001
 20
-2.3840934320999998
 30
0.0
 11
21.2595362986
 21
-2.3840934320999998
 31
0.0
  0
LINE
  5
7F3
  8
0
 10
21.2595362986
 20
-2.3840934320999998
 30
0.0
 11
21.2595362986
 21
-3.0940934320999989
 31
0.0
  0
LINE
  5
7F4
  8
0
 10
21.2595362986
 20
-3.0940934320999989
 30
0.0
 11
24.0095362986
 21
-3.0940934320999989
 31
0.0
  0
LINE
  5
7F5
  8
0
 10
24.0095362986
 20
-2.7840934320999988
 30
0.0
 11
21.2595362986
 21
-2.7840934320999988
 31
0.0
  0
ARC
  5
7F6
  8
0
 10
21.806036298599999
 20
-2.7440934321000019
 30
0.0
 40
0.0399999999999968
 50
270.00005897379913
 51
0.0000000000044528
  0
LINE
  5
7F7
  8
0
 10
21.846036298600001
 20
-2.7440934320999988
 30
0.0
 11
21.846036298599799
 21
-0.174093432066686
 31
0.0
  0
LINE
  5
7F8
  8
0
 10
21.846036298599799
 20
-0.174093432066686
 30
0.0
 11
23.4230362986
 21
-0.1740934321
 31
0.0
  0
LINE
  5
7F9
  8
0
 10
23.4230362986
 20
-0.1740934321
 30
0.0
 11
23.4230362986
 21
-2.7440934320999988
 31
0.0
  0
ARC
  5
7FA
  8
0
 10
23.463036298599999
 20
-2.7440934320999988
 30
0.0
 40
0.0399999999999992
 50
180.00000000000111
 51
269.99994102620599
  0
ARC
  5
7FB
  8
0
 10
21.88953629860001
 20
-0.1740934320999934
 30
0.0
 40
0.0199999999999925
 50
359.99999999998118
 51
90.000000000020364
  0
ARC
  5
7FC
  8
0
 10
23.379536298600009
 20
-0.1740934321000002
 30
0.0
 40
0.0200000000000002
 50
90.000000000010175
 51
179.9999999999994
  0
LINE
  5
7FD
  8
0
 10
23.4030282877
 20
-0.1540934321
 30
0.0
 11
21.866036836300001
 21
-0.1540934321
 31
0.0
  0
ARC
  5
7FE
  8
0
 10
21.866036836300001
 20
-0.1340928943927724
 30
0.0
 40
0.0200005377072277
 50
180.0015403763245
 51
269.99999999999977
  0
LINE
  5
7FF
  8
0
 10
21.846036298600001
 20
-0.1340934321
 30
0.0
 11
21.846022049741549
 21
0.3959065677084623
 31
0.0
  0
ARC
  5
800
  8
0
 10
21.866021517709409
 20
0.3959071053869307
 30
0.0
 40
0.0199994679750844
 50
89.957654737291634
 51
180.00154037632731
  0
LINE
  5
801
  8
0
 10
21.866036298600001
 20
0.4159065679000001
 30
0.0
 11
23.4030362986
 21
0.4159065679000001
 31
0.0
  0
ARC
  5
802
  8
0
 10
23.4030362986
 20
0.3959065679000037
 30
0.0
 40
0.0199999999999996
 50
359.99999999998897
 51
90.0
  0
LINE
  5
803
  8
0
 10
23.4230362986
 20
0.3959065679
 30
0.0
 11
23.4230362986
 21
-0.1340934320999998
 31
0.0
  0
ARC
  5
804
  8
0
 10
23.403036298600011
 20
-0.134093432100002
 30
0.0
 40
0.0199999999999979
 50
269.99999999998983
 51
0.0000000000316465
  0
ARC
  5
805
  8
0
 10
22.694536298599999
 20
0.3959065679000012
 30
0.0
 40
0.0199999999999989
 50
359.99999999999659
 51
90.000000000010147
  0
LINE
  5
806
  8
0
 10
22.714536298599999
 20
0.3959065679
 30
0.0
 11
22.71453629859997
 21
-0.1340934321
 31
0.0
  0
ARC
  5
807
  8
0
 10
22.694536298599971
 20
-0.1340934320999988
 30
0.0
 40
0.0199999999999996
 50
270.00000000009157
 51
359.99999999999193
  0
ARC
  5
808
  8
0
 10
22.574536298600002
 20
-0.1340934321000037
 30
0.0
 40
0.0199999999999963
 50
179.9999999999894
 51
270.0
  0
LINE
  5
809
  8
0
 10
22.554536298599999
 20
-0.1340934321
 30
0.0
 11
22.554536298600102
 21
0.3959065443
 31
0.0
  0
ARC
  5
80A
  8
0
 10
22.574536322200121
 20
0.3959065442999963
 30
0.0
 40
0.0200000236000193
 50
90.000067609281516
 51
179.99999999999409
  0
ARC
  5
80B
  8
0
 10
22.754536298600009
 20
-0.1740934320999978
 30
0.0
 40
0.0199999999999978
 50
359.99999999999369
 51
90.000000000010147
  0
ARC
  5
80C
  8
0
 10
22.514536298599999
 20
-0.1740934320999925
 30
0.0
 40
0.0199999999999925
 50
89.999999999979622
 51
179.9999999438302
  0
LINE
  5
850
  8
0
 10
23.2595362986
 20
0.4159065679
 30
0.0
 11
23.2595362986
 21
5.4076580099999996
 31
0.0
  0
ARC
  5
851
  8
0
 10
20.25453629857148
 20
5.4076580099999996
 30
0.0
 40
3.0050000000285162
 50
0.0000000000000254
 51
134.99999999961551
  0
LINE
  5
852
  8
0
 10
18.129680421100002
 20
7.5325138875000004
 30
0.0
 11
15.775014839734199
 21
5.1778483061658012
 31
0.0
  0
LINE
  5
853
  8
0
 10
15.775014839734199
 20
5.1778483061658012
 30
0.0
 11
16.658898316299549
 21
4.2939648295995552
 31
0.0
  0
LINE
  5
854
  8
0
 10
16.658898316299549
 20
4.2939648295995552
 30
0.0
 11
19.013563897600001
 21
6.6486304110000001
 31
0.0
  0
ARC
  5
855
  8
0
 10
20.254536298605121
 20
5.4076580100475828
 30
0.0
 40
1.754999999994876
 50
359.99999999844653
 51
135.0000000012167
  0
LINE
  5
856
  8
0
 10
22.0095362986
 20
5.4076580099999987
 30
0.0
 11
22.009536298464649
 21
0.4159065678999996
 31
0.0
  0
LINE
  5
857
  8
0
 10
16.65536278239955
 20
4.2975003634995588
 30
0.0
 11
16.259382984972579
 21
3.9015205660274201
 31
0.0
  0
LINE
  5
858
  8
0
 10
16.259382984972579
 20
3.9015205660274201
 30
0.0
 11
16.2452408493
 21
3.9015205660999999
 31
0.0
  0
LINE
  5
859
  8
0
 10
16.2452408493
 20
3.9015205660999999
 30
0.0
 11
15.382570576199999
 21
4.7641908391000003
 31
0.0
  0
LINE
  5
85A
  8
0
 10
15.382570576199999
 20
4.7641908391000003
 30
0.0
 11
15.382570576199999
 21
4.7783329746999996
 31
0.0
  0
LINE
  5
85B
  8
0
 10
15.382570576199999
 20
4.7783329746999996
 30
0.0
 11
15.7785503737
 21
5.1743127722000022
 31
0.0
  0
LINE
  5
85C
  8
0
 10
15.382570576199999
 20
4.7783329746999996
 30
0.0
 11
16.259382984972579
 21
3.9015205660274241
 31
0.0
  0
ATTDEF
  5
9FE
  8
DEFPOINTS
 10
22.63017665988577
 20
-3.1093971328748431
 30
0.0
 40
0.001
  1
BRASS
  3

  2
MATERIAL
 70
     0
1001
AcDbAttr
1070
     0
1070
     1
  0
ATTDEF
  5
9FF
  8
DEFPOINTS
 10
22.63017665988577
 20
-3.1077304662081771
 30
0.0
 40
0.001
  1
BATH FAUCET TRIM
  3

  2
PRODUCT
 70
     0
1001
AcDbAttr
1070
     0
1070
     1
  0
ATTDEF
  5
A00
  8
DEFPOINTS
 10
22.63017665988577
 20
-3.1060637995415119
 30
0.0
 40
0.001
  1
STILLNESS
  3

  2
TRADENAME
 70
     0
1001
AcDbAttr
1070
     0
1070
     1
  0
ATTDEF
  5
A01
  8
DEFPOINTS
 10
22.63017665988577
 20
-3.1043971328748472
 30
0.0
 40
0.001
  1
K-T954-4
  3

  2
MODELNUMBER
 70
     0
1001
AcDbAttr
1070
     0
1070
     1
  0
ENDSEC
  0
EOF
