  0
SECTION
  2
HEADER
  9
$ACADVER
  1
AC1009
  9
$INSBASE
 10
5.1467477802000001
 20
21.606346864999999
 30
0.0
  9
$EXTMIN
 10
-1.703252361110722
 20
14.35438095444438
 30
0.0
  9
$EXTMAX
 10
11.996747921510719
 20
22.981346864999988
 30
0.0
  9
$LIMMIN
 10
0.0
 20
0.0
  9
$LIMMAX
 10
11.692913385800001
 20
8.2677165353999982
  9
$ORTHOMODE
 70
     0
  9
$REGENMODE
 70
     1
  9
$FILLMODE
 70
     1
  9
$QTEXTMODE
 70
     0
  9
$MIRRTEXT
 70
     0
  9
$DRAGMODE
 70
     2
  9
$LTSCALE
 40
0.6431102362
  9
$OSMODE
 70
  3071
  9
$ATTMODE
 70
     1
  9
$TEXTSIZE
 40
0.2
  9
$TRACEWID
 40
0.05
  9
$TEXTSTYLE
  7
STANDARD
  9
$CLAYER
  8
0
  9
$CELTYPE
  6
BYLAYER
  9
$CECOLOR
 62
   256
  9
$DIMSCALE
 40
1.0
  9
$DIMASZ
 40
0.1875
  9
$DIMEXO
 40
0.0625
  9
$DIMDLI
 40
0.4443307087
  9
$DIMRND
 40
0.0
  9
$DIMDLE
 40
0.0
  9
$DIMEXE
 40
0.125
  9
$DIMTP
 40
0.01
  9
$DIMTM
 40
0.01
  9
$DIMTXT
 40
1.0
  9
$DIMCEN
 40
0.1052362205
  9
$DIMTSZ
 40
0.0
  9
$DIMTOL
 70
     1
  9
$DIMLIM
 70
     0
  9
$DIMTIH
 70
     1
  9
$DIMTOH
 70
     1
  9
$DIMSE1
 70
     0
  9
$DIMSE2
 70
     0
  9
$DIMTAD
 70
     0
  9
$DIMZIN
 70
     0
  9
$DIMBLK
  1

  9
$DIMASO
 70
     1
  9
$DIMSHO
 70
     1
  9
$DIMPOST
  1
\X
  9
$DIMAPOST
  1

  9
$DIMALT
 70
     1
  9
$DIMALTD
 70
     2
  9
$DIMALTF
 40
25.399999999999999
  9
$DIMLFAC
 40
1.0
  9
$DIMTOFL
 70
     0
  9
$DIMTVP
 40
0.0
  9
$DIMTIX
 70
     0
  9
$DIMSOXD
 70
     0
  9
$DIMSAH
 70
     0
  9
$DIMBLK1
  1

  9
$DIMBLK2
  1

  9
$DIMSTYLE
  2
STANDARD
  9
$DIMCLRD
 70
     0
  9
$DIMCLRE
 70
     0
  9
$DIMCLRT
 70
     0
  9
$DIMTFAC
 40
1.0
  9
$DIMGAP
 40
0.09
  9
$LUNITS
 70
     2
  9
$LUPREC
 70
     4
  9
$SKETCHINC
 40
0.1
  9
$FILLETRAD
 40
0.0
  9
$AUNITS
 70
     0
  9
$AUPREC
 70
     0
  9
$MENU
  1
.
  9
$ELEVATION
 40
0.0
  9
$PELEVATION
 40
0.0
  9
$THICKNESS
 40
0.0
  9
$LIMCHECK
 70
     0
  9
$BLIPMODE
 70
     0
  9
$CHAMFERA
 40
0.0
  9
$CHAMFERB
 40
0.0
  9
$SKPOLY
 70
     0
  9
$TDCREATE
 40
2457800.458794618
  9
$TDUPDATE
 40
2457800.513440127
  9
$TDINDWG
 40
0.054129375
  9
$TDUSRTIMER
 40
0.054129375
  9
$USRTIMER
 70
     1
  9
$ANGBASE
 50
0.0
  9
$ANGDIR
 70
     0
  9
$PDMODE
 70
     0
  9
$PDSIZE
 40
0.3125
  9
$PLINEWID
 40
0.0
  9
$COORDS
 70
     1
  9
$SPLFRAME
 70
     0
  9
$SPLINETYPE
 70
     6
  9
$SPLINESEGS
 70
     8
  9
$ATTDIA
 70
     1
  9
$ATTREQ
 70
     1
  9
$HANDLING
 70
     1
  9
$HANDSEED
  5
A52
  9
$SURFTAB1
 70
     6
  9
$SURFTAB2
 70
     6
  9
$SURFTYPE
 70
     6
  9
$SURFU
 70
     6
  9
$SURFV
 70
     6
  9
$UCSNAME
  2

  9
$UCSORG
 10
0.0
 20
0.0
 30
0.0
  9
$UCSXDIR
 10
1.0
 20
0.0
 30
0.0
  9
$UCSYDIR
 10
0.0
 20
1.0
 30
0.0
  9
$PUCSNAME
  2

  9
$PUCSORG
 10
0.0
 20
0.0
 30
0.0
  9
$PUCSXDIR
 10
1.0
 20
0.0
 30
0.0
  9
$PUCSYDIR
 10
0.0
 20
1.0
 30
0.0
  9
$USERI1
 70
     0
  9
$USERI2
 70
     0
  9
$USERI3
 70
     0
  9
$USERI4
 70
     0
  9
$USERI5
 70
     0
  9
$USERR1
 40
0.0
  9
$USERR2
 40
0.0
  9
$USERR3
 40
0.0
  9
$USERR4
 40
0.0
  9
$USERR5
 40
0.0
  9
$WORLDVIEW
 70
     1
  9
$SHADEDGE
 70
     3
  9
$SHADEDIF
 70
    70
  9
$TILEMODE
 70
     1
  9
$MAXACTVP
 70
    64
  9
$PLIMCHECK
 70
     0
  9
$PEXTMIN
 10
1.0000000000000000E+020
 20
1.0000000000000000E+020
 30
1.0000000000000000E+020
  9
$PEXTMAX
 10
-1.0000000000000000E+020
 20
-1.0000000000000000E+020
 30
-1.0000000000000000E+020
  9
$PLIMMIN
 10
0.0
 20
0.0
  9
$PLIMMAX
 10
12.0
 20
9.0
  9
$UNITMODE
 70
     0
  9
$VISRETAIN
 70
     1
  9
$PLINEGEN
 70
     0
  9
$PSLTSCALE
 70
     1
  0
ENDSEC
  0
SECTION
  2
TABLES
  0
TABLE
  2
VPORT
 70
     1
  0
VPORT
  2
*ACTIVE
 70
     0
 10
0.0
 20
0.0
 11
1.0
 21
1.0
 12
0.0
 22
0.0
 13
0.0
 23
0.0
 14
1.0
 24
1.0
 15
0.0
 25
0.0
 16
-0.0000000000000089
 26
0.0
 36
38.290935777907983
 17
5.1467477802000001
 27
18.667863909722179
 37
0.0
 40
16.18995208657876
 41
1.664490861618799
 42
50.0
 43
0.0
 44
0.0
 50
0.0
 51
0.0
 71
     0
 72
   100
 73
     1
 74
     1
 75
     0
 76
     0
 77
     0
 78
     0
  0
ENDTAB
  0
TABLE
  2
LTYPE
 70
     2
  0
LTYPE
  2
CONTINUOUS
 70
     0
  3
Solid line
 72
    65
 73
     0
 40
0.0
  0
LTYPE
  2
PHANTOM2
 70
     0
  3
___ _ _ ___ _ _ ___ _ _ ___ _ _
 72
    65
 73
     6
 40
1.25
 49
0.625
 49
-0.125
 49
0.125
 49
-0.125
 49
0.125
 49
-0.125
  0
ENDTAB
  0
TABLE
  2
LAYER
 70
     2
  0
LAYER
  2
0
 70
     0
 62
     7
  6
CONTINUOUS
  0
LAYER
  2
DEFPOINTS
 70
     0
 62
     7
  6
CONTINUOUS
  0
ENDTAB
  0
TABLE
  2
STYLE
 70
     1
  0
STYLE
  2
STANDARD
 70
     0
 40
0.0
 41
0.8
 50
0.0
 71
     0
 42
0.2
  3
txt
  4

  0
ENDTAB
  0
TABLE
  2
VIEW
 70
     0
  0
ENDTAB
  0
TABLE
  2
UCS
 70
     0
  0
ENDTAB
  0
TABLE
  2
APPID
 70
     7
  0
APPID
  2
ACAD
 70
     0
  0
APPID
  2
ACAD_NAV_VCDISPLAY
 70
     0
  0
APPID
  2
ACAD_MLEADERVER
 70
     0
  0
APPID
  2
ACAD_DSTYLE_DIMJAG
 70
     0
  0
APPID
  2
ACAD_DSTYLE_DIMTALN
 70
     0
  0
APPID
  2
ACAD_EXEMPT_FROM_CAD_STANDARDS
 70
     0
  0
APPID
  2
AcDbAttr
 70
     0
  0
ENDTAB
  0
TABLE
  2
DIMSTYLE
 70
     1
  0
DIMSTYLE
  2
STANDARD
 70
     0
  3

  4

  5

  6

  7

 40
1.0
 41
0.1875
 42
0.0625
 43
0.38
 44
0.125
 45
0.0
 46
0.0
 47
0.01
 48
0.01
140
0.15625
141
0.09
142
0.0
143
25.399999999999999
144
1.0
145
0.0
146
1.0
147
0.09
 71
     1
 72
     0
 73
     1
 74
     1
 75
     0
 76
     0
 77
     0
 78
     4
170
     0
171
     2
172
     0
173
     0
174
     0
175
     0
176
     0
177
     0
178
     0
  0
ENDTAB
  0
ENDSEC
  0
SECTION
  2
BLOCKS
  0
BLOCK
  8
0
  2
$MODEL_SPACE
 70
     0
 10
0.0
 20
0.0
 30
0.0
  3
$MODEL_SPACE
  1

  0
ENDBLK
  5
21
  8
0
  0
BLOCK
 67
     1
  8
0
  2
$PAPER_SPACE
 70
     0
 10
0.0
 20
0.0
 30
0.0
  3
$PAPER_SPACE
  1

  0
ENDBLK
  5
1D
 67
     1
  8
0
  0
ENDSEC
  0
SECTION
  2
ENTITIES
  0
LINE
  5
5ED
  8
0
 10
11.9967477802
 20
21.546346865
 30
0.0
 11
11.996747921510719
 21
21.666346865000001
 31
0.0
  0
ARC
  5
5EE
  8
0
 10
11.97674794506181
 20
21.666346888551761
 30
0.0
 40
0.0199999764489217
 50
359.99993252910389
 51
90.000472294865901
  0
LINE
  5
5EF
  8
0
 10
11.9767477802
 20
21.686346865000001
 30
0.0
 11
9.9836182899677155
 21
21.686330435433401
 31
0.0
  0
ARC
  5
5F0
  8
0
 10
9.983617795413231
 20
21.746326608813511
 30
0.0
 40
0.059996173382145
 50
189.47806177151719
 51
270.00047229486933
  0
ARC
  5
5F1
  8
0
 10
9.1467477802000001
 20
21.606346864999988
 30
0.0
 40
0.7885000000000004
 50
9.4970633167002436
 51
350.50293669238999
  0
ARC
  5
5F2
  8
0
 10
9.9835983993155342
 20
21.466370359482411
 30
0.0
 40
0.0599765088158367
 50
89.980998451137324
 51
170.52193823757139
  0
LINE
  5
5F3
  8
0
 10
9.9836182899000008
 20
21.526346865000001
 30
0.0
 11
11.9767477802
 21
21.526346865000001
 31
0.0
  0
ARC
  5
5F4
  8
0
 10
11.9767477802
 20
21.546346865
 30
0.0
 40
0.0199999999999996
 50
270.00000000000512
 51
0.0
  0
ARC
  5
5FC
  8
0
 10
9.1467477802000001
 20
21.606346864999999
 30
0.0
 40
1.375
 50
3.3349548334587742
 51
356.66454374359449
  0
LINE
  5
5FD
  8
0
 10
-1.7032522197999991
 20
21.546346865
 30
0.0
 11
-1.703252361110722
 21
21.666346865000001
 31
0.0
  0
ARC
  5
5FE
  8
0
 10
-1.6832523846618139
 20
21.666346888551761
 30
0.0
 40
0.0199999764489217
 50
89.999527705134156
 51
180.00006747089611
  0
LINE
  5
5FF
  8
0
 10
-1.6832522197999991
 20
21.686346865000001
 30
0.0
 11
0.3098772704322847
 21
21.686330435433401
 31
0.0
  0
ARC
  5
600
  8
0
 10
0.3098777649867692
 20
21.746326608813511
 30
0.0
 40
0.059996173382145
 50
269.99952770513067
 51
350.52193822848272
  0
ARC
  5
601
  8
0
 10
1.1467477801999999
 20
21.606346864999988
 30
0.0
 40
0.7885000000000004
 50
189.49706330760989
 51
170.50293668329971
  0
ARC
  5
602
  8
0
 10
0.3098971610844661
 20
21.466370359482411
 30
0.0
 40
0.0599765088158367
 50
9.4780617624285153
 51
90.019001548862676
  0
LINE
  5
603
  8
0
 10
0.3098772704999995
 20
21.526346865000001
 30
0.0
 11
-1.683252219799998
 21
21.526346865000001
 31
0.0
  0
ARC
  5
604
  8
0
 10
-1.683252219799998
 20
21.546346865
 30
0.0
 40
0.0199999999999996
 50
180.0
 51
269.99999999999488
  0
ARC
  5
605
  8
0
 10
1.1467477801999999
 20
21.606346864999999
 30
0.0
 40
1.375
 50
183.33545625640559
 51
176.6650451665412
  0
ARC
  5
649
  8
0
 10
5.1467477802000001
 20
21.606346864999999
 30
0.0
 40
1.375
 50
297.03569178941228
 51
242.9643262039634
  0
ARC
  5
64A
  8
0
 10
5.1467477802000019
 20
21.606346864999999
 30
0.0
 40
0.6250000000000027
 50
0.0
 51
180.0
  0
LINE
  5
64B
  8
0
 10
5.7717477802000001
 20
21.606346864999999
 30
0.0
 11
5.7717477801999992
 21
15.1887671445
 31
0.0
  0
ARC
  5
64C
  8
0
 10
5.4480034296166178
 20
15.1887671445
 30
0.0
 40
0.3237443505833806
 50
329.39003522011348
 51
0.0000000000002036
  0
ARC
  5
64E
  8
0
 10
5.2686272579070748
 20
15.31206298195934
 30
0.0
 40
0.5411080637918483
 50
289.34542615730589
 51
327.82503155107099
  0
ARC
  5
64F
  8
0
 10
5.147490882789139
 20
15.59922736149605
 30
0.0
 40
0.8524022792050656
 50
246.6172670708761
 51
290.63408394957298
  0
ARC
  5
650
  8
0
 10
5.0217942476898214
 20
15.314314657080629
 30
0.0
 40
0.541007741528806
 50
216.03292309946039
 51
246.86085445661021
  0
ARC
  5
651
  8
0
 10
4.8812012356027372
 20
15.202147551548441
 30
0.0
 40
0.3614194313704933
 50
195.52646512697061
 51
214.76404901993359
  0
ARC
  5
652
  8
0
 10
4.839561082771386
 20
15.18910771584633
 30
0.0
 40
0.3178114696521254
 50
180.06139901197821
 51
195.27089755080269
  0
LINE
  5
653
  8
0
 10
4.521749795599999
 20
15.1887671444
 30
0.0
 11
4.5217477802000001
 21
21.606346864999999
 31
0.0
  0
LINE
  5
654
  8
0
 10
5.7667480567088498
 20
15.13209027766273
 30
0.0
 11
5.7667472155999988
 21
14.792787347000001
 31
0.0
  0
ARC
  5
655
  8
0
 10
5.4420820590873191
 20
14.792788151822799
 30
0.0
 40
0.3246651565136781
 50
325.02075682615111
 51
359.99985796766572
  0
ARC
  5
656
  8
0
 10
5.2708274638841131
 20
14.91260947428759
 30
0.0
 40
0.5336754091220732
 50
288.3222661423348
 51
325.02075682615111
  0
ARC
  5
657
  8
0
 10
5.1468049595139451
 20
15.205023783349009
 30
0.0
 40
0.8506448759435215
 50
249.68753973002859
 51
290.06106528235489
  0
ARC
  5
658
  8
0
 10
5.0212786896038111
 20
14.91249595394452
 30
0.0
 40
0.5329786132910891
 50
218.08593266121281
 51
251.4263388700486
  0
ARC
  5
659
  8
0
 10
4.8869722113336698
 20
14.80723946149093
 30
0.0
 40
0.3623411047856004
 50
195.104619383715
 51
218.08593266121269
  0
ARC
  5
65A
  8
0
 10
4.827924286364726
 20
14.791302001231321
 30
0.0
 40
0.3011801688651561
 50
179.71743030434831
 51
195.1046193837152
  0
LINE
  5
65B
  8
0
 10
4.5267477802
 20
14.78981665546263
 30
0.0
 11
4.5267477802
 21
15.13296532565117
 31
0.0
  0
ATTDEF
  5
9C3
  8
DEFPOINTS
 10
5.1429942634856012
 20
21.617307581646561
 30
0.0
 40
0.001
  1
K-T954-4
  3

  2
MODELNUMBER
 70
     0
1001
AcDbAttr
1070
     0
1070
     1
  0
ATTDEF
  5
9C4
  8
DEFPOINTS
 10
5.1429942634856012
 20
21.615640914979888
 30
0.0
 40
0.001
  1
STILLNESS
  3

  2
TRADENAME
 70
     0
1001
AcDbAttr
1070
     0
1070
     1
  0
ATTDEF
  5
9C5
  8
DEFPOINTS
 10
5.1429942634856012
 20
21.61397424831323
 30
0.0
 40
0.001
  1
BATH FAUCET TRIM
  3

  2
PRODUCT
 70
     0
1001
AcDbAttr
1070
     0
1070
     1
  0
ATTDEF
  5
9C6
  8
DEFPOINTS
 10
5.1429942634856012
 20
21.612307581646569
 30
0.0
 40
0.001
  1
BRASS
  3

  2
MATERIAL
 70
     0
1001
AcDbAttr
1070
     0
1070
     1
  0
ENDSEC
  0
EOF
