  0
SECTION
  2
HEADER
  9
$ACADVER
  1
AC1009
  9
$INSBASE
 10
0.0
 20
0.0
 30
0.0
  9
$EXTMIN
 10
0.0
 20
-19.188594650639448
 30
0.0
  9
$EXTMAX
 10
10.32644538460911
 20
1.0
 30
0.0
  9
$LIMMIN
 10
0.0
 20
0.0
  9
$LIMMAX
 10
0.0
 20
0.0
  9
$ORTHOMODE
 70
     1
  9
$REGENMODE
 70
     1
  9
$FILLMODE
 70
     1
  9
$QTEXTMODE
 70
     0
  9
$MIRRTEXT
 70
     1
  9
$DRAGMODE
 70
     2
  9
$LTSCALE
 40
1.0
  9
$OSMODE
 70
    37
  9
$ATTMODE
 70
     1
  9
$TEXTSIZE
 40
0.0
  9
$TRACEWID
 40
0.05
  9
$TEXTSTYLE
  7
STANDARD
  9
$CLAYER
  8
0
  9
$CELTYPE
  6
CONTINUOUS
  9
$CECOLOR
 62
   256
  9
$DIMSCALE
 40
96.0
  9
$DIMASZ
 40
0.2362204724409449
  9
$DIMEXO
 40
0.0393700787401575
  9
$DIMDLI
 40
0.38
  9
$DIMRND
 40
0.0
  9
$DIMDLE
 40
0.0393700787401575
  9
$DIMEXE
 40
0.18
  9
$DIMTP
 40
0.0
  9
$DIMTM
 40
0.0
  9
$DIMTXT
 40
0.25
  9
$DIMCEN
 40
0.09
  9
$DIMTSZ
 40
0.0
  9
$DIMTOL
 70
     0
  9
$DIMLIM
 70
     0
  9
$DIMTIH
 70
     1
  9
$DIMTOH
 70
     1
  9
$DIMSE1
 70
     0
  9
$DIMSE2
 70
     0
  9
$DIMTAD
 70
     1
  9
$DIMZIN
 70
     0
  9
$DIMBLK
  1

  9
$DIMASO
 70
     1
  9
$DIMSHO
 70
     1
  9
$DIMPOST
  1

  9
$DIMAPOST
  1

  9
$DIMALT
 70
     0
  9
$DIMALTD
 70
     2
  9
$DIMALTF
 40
25.399999999999999
  9
$DIMLFAC
 40
1.0
  9
$DIMTOFL
 70
     0
  9
$DIMTVP
 40
0.0
  9
$DIMTIX
 70
     0
  9
$DIMSOXD
 70
     0
  9
$DIMSAH
 70
     0
  9
$DIMBLK1
  1

  9
$DIMBLK2
  1

  9
$DIMSTYLE
  2
STANDARD
  9
$DIMCLRD
 70
     0
  9
$DIMCLRE
 70
     0
  9
$DIMCLRT
 70
     0
  9
$DIMTFAC
 40
1.0
  9
$DIMGAP
 40
0.0393700787401575
  9
$LUNITS
 70
     2
  9
$LUPREC
 70
     3
  9
$SKETCHINC
 40
0.1
  9
$FILLETRAD
 40
0.0
  9
$AUNITS
 70
     0
  9
$AUPREC
 70
     2
  9
$MENU
  1
acad
  9
$ELEVATION
 40
0.0
  9
$PELEVATION
 40
0.0
  9
$THICKNESS
 40
0.0
  9
$LIMCHECK
 70
     0
  9
$BLIPMODE
 70
     0
  9
$CHAMFERA
 40
0.0
  9
$CHAMFERB
 40
0.0
  9
$SKPOLY
 70
     0
  9
$TDCREATE
 40
2444971.75
  9
$TDUPDATE
 40
2453417.6639187271
  9
$TDINDWG
 40
0.0033465509
  9
$TDUSRTIMER
 40
0.0033465509
  9
$USRTIMER
 70
     1
  9
$ANGBASE
 50
0.0
  9
$ANGDIR
 70
     0
  9
$PDMODE
 70
     0
  9
$PDSIZE
 40
-1.0
  9
$PLINEWID
 40
0.0
  9
$COORDS
 70
     1
  9
$SPLFRAME
 70
     0
  9
$SPLINETYPE
 70
     6
  9
$SPLINESEGS
 70
     8
  9
$ATTDIA
 70
     0
  9
$ATTREQ
 70
     1
  9
$HANDLING
 70
     1
  9
$HANDSEED
  5
1FA
  9
$SURFTAB1
 70
     6
  9
$SURFTAB2
 70
     6
  9
$SURFTYPE
 70
     6
  9
$SURFU
 70
     6
  9
$SURFV
 70
     6
  9
$UCSNAME
  2

  9
$UCSORG
 10
0.0
 20
0.0
 30
0.0
  9
$UCSXDIR
 10
1.0
 20
0.0
 30
0.0
  9
$UCSYDIR
 10
0.0
 20
1.0
 30
0.0
  9
$PUCSNAME
  2

  9
$PUCSORG
 10
0.0
 20
0.0
 30
0.0
  9
$PUCSXDIR
 10
1.0
 20
0.0
 30
0.0
  9
$PUCSYDIR
 10
0.0
 20
1.0
 30
0.0
  9
$USERI1
 70
     0
  9
$USERI2
 70
     0
  9
$USERI3
 70
     0
  9
$USERI4
 70
     0
  9
$USERI5
 70
     0
  9
$USERR1
 40
0.0
  9
$USERR2
 40
0.0
  9
$USERR3
 40
0.0
  9
$USERR4
 40
0.0
  9
$USERR5
 40
0.0
  9
$WORLDVIEW
 70
     1
  9
$SHADEDGE
 70
     3
  9
$SHADEDIF
 70
    70
  9
$TILEMODE
 70
     1
  9
$MAXACTVP
 70
    16
  9
$PLIMCHECK
 70
     0
  9
$PEXTMIN
 10
1.0000000000000000E+020
 20
1.0000000000000000E+020
 30
1.0000000000000000E+020
  9
$PEXTMAX
 10
-1.0000000000000000E+020
 20
-1.0000000000000000E+020
 30
-1.0000000000000000E+020
  9
$PLIMMIN
 10
0.0
 20
0.0
  9
$PLIMMAX
 10
12.0
 20
9.0
  9
$UNITMODE
 70
     0
  9
$VISRETAIN
 70
     0
  9
$PLINEGEN
 70
     1
  9
$PSLTSCALE
 70
     1
  0
ENDSEC
  0
SECTION
  2
TABLES
  0
TABLE
  2
VPORT
 70
     2
  0
VPORT
  2
*ACTIVE
 70
     0
 10
0.0
 20
0.0
 11
1.0
 21
1.0
 12
5.1632227163476818
 22
-7.0958903947345302
 13
0.0
 23
0.0
 14
1.0
 24
1.0
 15
0.0
 25
0.0
 16
0.0
 26
0.0
 36
1.0
 17
0.0
 27
0.0
 37
0.0
 40
24.390235524582749
 41
1.9608247422680409
 42
50.0
 43
0.0
 44
0.0
 50
0.0
 51
0.0
 71
     0
 72
  2000
 73
     1
 74
     1
 75
     0
 76
     0
 77
     0
 78
     0
  0
ENDTAB
  0
TABLE
  2
LTYPE
 70
     1
  0
LTYPE
  2
CONTINUOUS
 70
     0
  3
Solid line
 72
    65
 73
     0
 40
0.0
  0
ENDTAB
  0
TABLE
  2
LAYER
 70
     1
  0
LAYER
  2
0
 70
     0
 62
     7
  6
CONTINUOUS
  0
ENDTAB
  0
TABLE
  2
STYLE
 70
     1
  0
STYLE
  2
STANDARD
 70
     0
 40
0.0
 41
1.0
 50
0.0
 71
     0
 42
0.0
  3
txt
  4

  0
ENDTAB
  0
TABLE
  2
VIEW
 70
     0
  0
ENDTAB
  0
TABLE
  2
UCS
 70
     0
  0
ENDTAB
  0
TABLE
  2
APPID
 70
     2
  0
APPID
  2
ACAD
 70
     0
  0
APPID
  2
DCO15
 70
     0
  0
ENDTAB
  0
TABLE
  2
DIMSTYLE
 70
     1
  0
DIMSTYLE
  2
STANDARD
 70
     0
  3

  4

  5

  6

  7

 40
1.0
 41
0.18
 42
0.0625
 43
0.38
 44
0.18
 45
0.0
 46
0.0
 47
0.0
 48
0.0
140
0.18
141
0.09
142
0.0
143
25.399999999999999
144
1.0
145
0.0
146
1.0
147
0.09
 71
     0
 72
     0
 73
     1
 74
     1
 75
     0
 76
     0
 77
     0
 78
     0
170
     0
171
     2
172
     0
173
     0
174
     0
175
     0
176
     0
177
     0
178
     0
  0
ENDTAB
  0
ENDSEC
  0
SECTION
  2
BLOCKS
  0
BLOCK
  8
0
  2
$MODEL_SPACE
 70
     0
 10
0.0
 20
0.0
 30
0.0
  3
$MODEL_SPACE
  1

  0
ENDBLK
  5
65
  8
0
  0
BLOCK
 67
     1
  8
0
  2
$PAPER_SPACE
 70
     0
 10
0.0
 20
0.0
 30
0.0
  3
$PAPER_SPACE
  1

  0
ENDBLK
  5
6A
 67
     1
  8
0
  0
ENDSEC
  0
SECTION
  2
ENTITIES
  0
LINE
  5
9
  8
0
 10
0.3447292571173719
 20
-6.1384512822210224
 30
0.0
 11
1.0300000000044769
 21
-6.1384512822210224
 31
0.0
  0
LINE
  5
A
  8
0
 10
1.0300000000044769
 20
-12.45095128222102
 30
0.0
 11
0.3447292571173719
 21
-12.45095128222102
 31
0.0
  0
LINE
  5
B
  8
0
 10
1.0300000000044769
 20
-6.1384512822210224
 30
0.0
 11
1.0833663366381421
 21
-8.5447012822210233
 31
0.0
  0
LINE
  5
C
  8
0
 10
1.044913253033193
 20
-11.7785233554798
 30
0.0
 11
1.0300000000044769
 21
-12.45095128222102
 31
0.0
  0
LINE
  5
D
  8
0
 10
1.0833663366381421
 20
-10.04470128222102
 30
0.0
 11
1.060239111737473
 21
-11.087491333545829
 31
0.0
  0
LINE
  5
E
  8
0
 10
0.0000000000044764
 20
-6.1734512822210217
 30
0.0
 11
0.3447292571173719
 21
-6.1734512822210217
 31
0.0
  0
LINE
  5
F
  8
0
 10
0.3447292571173719
 20
-12.41595128222102
 30
0.0
 11
0.0000000000044764
 21
-12.41595128222102
 31
0.0
  0
LINE
  5
10
  8
0
 10
1.0833663366381421
 20
-8.5447012822210233
 30
0.0
 11
3.3070000000044781
 21
-8.5447012822210233
 31
0.0
  0
LINE
  5
11
  8
0
 10
2.797000000004473
 20
-10.04470128222102
 30
0.0
 11
1.0833663366381421
 21
-10.04470128222102
 31
0.0
  0
ARC
  5
12
  8
0
 10
3.3070000000044781
 20
-8.6147012822210236
 30
0.0
 40
0.0700000000000003
 50
359.9999999999996
 51
90.0
  0
LINE
  5
13
  8
0
 10
1.060340557800735
 20
-11.08291720301473
 30
0.0
 11
1.700000000004479
 21
-11.08291720301473
 31
0.0
  0
LINE
  5
14
  8
0
 10
1.700000000004479
 20
-11.78291720301473
 30
0.0
 11
1.044815805325491
 21
-11.78291720301473
 31
0.0
  0
LINE
  5
15
  8
0
 10
0.0000000000044764
 20
-15.84494232560588
 30
0.0
 11
0.1900000000044741
 21
-15.84494232560588
 31
0.0
  0
LINE
  5
16
  8
0
 10
0.1900000000044741
 20
-17.844942325605881
 30
0.0
 11
0.0000000000044764
 21
-17.844942325605881
 31
0.0
  0
ARC
  5
17
  8
0
 10
0.1900000000044741
 20
-15.90494232560588
 30
0.0
 40
0.0600000000000005
 50
359.9999999999996
 51
90.0
  0
ARC
  5
18
  8
0
 10
0.1900000000044741
 20
-17.784942325605879
 30
0.0
 40
0.0600000000000005
 50
269.9999999999992
 51
359.9999999999996
  0
LINE
  5
19
  8
0
 10
0.2500000000044764
 20
-16.419942325605881
 30
0.0
 11
4.4820508075733647
 21
-16.419942325605881
 31
0.0
  0
LINE
  5
1A
  8
0
 10
4.4820508075733647
 20
-17.269942325605879
 30
0.0
 11
0.2500000000044764
 21
-17.269942325605879
 31
0.0
  0
ARC
  5
1B
  8
0
 10
4.4820508075733647
 20
-19.844942325605881
 30
0.0
 40
2.575000000000002
 50
59.999999999999993
 51
90.0
  0
ARC
  5
1C
  8
0
 10
4.4820508075733647
 20
-19.844942325605881
 30
0.0
 40
3.4250000000000012
 50
59.999999999999957
 51
90.0
  0
LINE
  5
1D
  8
0
 10
8.2343911086799224
 20
-19.03800312221427
 30
0.0
 11
5.769550807573367
 21
-17.614926910860952
 31
0.0
  0
LINE
  5
1E
  8
0
 10
6.1945508075733642
 20
-16.878805317644179
 30
0.0
 11
8.6593911086799267
 21
-18.301881528997491
 31
0.0
  0
LINE
  5
1F
  8
0
 10
8.5515922376387081
 20
-19.188594650639448
 30
0.0
 11
8.2484833463141598
 21
-19.013594650639451
 31
0.0
  0
LINE
  5
20
  8
0
 10
8.6452988710456964
 20
-18.32629000057231
 30
0.0
 11
8.9484077623702518
 21
-18.501290000572311
 31
0.0
  0
LINE
  5
21
  8
0
 10
0.0
 20
1.0
 30
0.0
 11
0.25
 21
1.0
 31
0.0
  0
LINE
  5
22
  8
0
 10
0.25
 20
-1.0
 30
0.0
 11
0.0
 21
-1.0
 31
0.0
  0
LINE
  5
23
  8
0
 10
0.25
 20
0.4250000000000003
 30
0.0
 11
2.729968516925239
 21
0.4250000000000003
 31
0.0
  0
LINE
  5
24
  8
0
 10
2.729968516925239
 20
-0.4249999999999999
 30
0.0
 11
0.25
 21
-0.4249999999999999
 31
0.0
  0
ARC
  5
25
  8
0
 10
2.729968516925239
 20
-3.3797532207298082
 30
0.0
 40
2.9547532207298088
 50
45.000000000000327
 51
90.0
  0
ARC
  5
26
  8
0
 10
2.729968516925239
 20
-3.3797532207298082
 30
0.0
 40
3.8047532207298089
 50
45.000000000000327
 51
90.0
  0
LINE
  5
27
  8
0
 10
5.4927450346269993
 20
-1.9638776602098851
 30
0.0
 11
4.8192945560360689
 21
-1.2904271816189561
 31
0.0
  0
LINE
  5
28
  8
0
 10
5.4203353200446278
 20
-0.6893864176103888
 30
0.0
 11
6.0937857986355652
 21
-1.3628368962013171
 31
0.0
  0
LINE
  5
29
  8
0
 10
6.0937857986355652
 20
-1.3628368962013171
 30
0.0
 11
6.0937857986355652
 21
-1.403137797675128
 31
0.0
  0
LINE
  5
2A
  8
0
 10
5.5528331840555998
 20
-1.9638776602098851
 30
0.0
 11
5.4927450346269993
 21
-1.9638776602098851
 31
0.0
  0
LINE
  5
2B
  8
0
 10
6.2686151900779796
 20
-6.2527971223796763
 30
0.0
 11
5.3096801770494499
 21
-5.191974969147588
 31
0.0
  0
LINE
  5
2C
  8
0
 10
9.3675103715805861
 20
-1.523880898332151
 30
0.0
 11
10.32644538460911
 21
-2.5847030515642402
 31
0.0
  0
LINE
  5
2D
  8
0
 10
6.1060602676062947
 20
-4.4720835621034887
 30
0.0
 11
6.2741649652391507
 21
-4.1044427853470218
 31
0.0
  0
LINE
  5
2E
  8
0
 10
8.1884387273285526
 20
-2.3740263065842782
 30
0.0
 11
8.5711302810237342
 21
-2.2437723053762491
 31
0.0
  0
LINE
  5
2F
  8
0
 10
6.2741649652391507
 20
-4.1044427853470218
 30
0.0
 11
6.2261251628939567
 21
-3.644235025809162
 31
0.0
  0
LINE
  5
30
  8
0
 10
7.7354016813598099
 20
-2.2799176484909012
 30
0.0
 11
8.1884387273285526
 21
-2.3740263065842782
 31
0.0
  0
LINE
  5
31
  8
0
 10
6.2261251628939567
 20
-3.644235025809162
 30
0.0
 11
5.6250220020535551
 21
-2.9792644691669099
 31
0.0
  0
LINE
  5
32
  8
0
 10
7.1342985205194083
 20
-1.6149470918486499
 30
0.0
 11
7.7354016813598099
 21
-2.2799176484909012
 31
0.0
  0
LINE
  5
33
  8
0
 10
5.8973539150624532
 20
-2.733088797068048
 30
0.0
 11
5.859341864605895
 21
-2.0855502726406421
 31
0.0
  0
LINE
  5
34
  8
0
 10
6.2215406494918142
 20
-1.7581390327402739
 30
0.0
 11
6.8619666075105101
 21
-1.861122763947511
 31
0.0
  0
ARC
  5
35
  8
0
 10
5.8364872818787097
 20
-1.696220504900793
 30
0.0
 40
0.3899999999999995
 50
223.33796210833069
 51
273.3595430175971
  0
ARC
  5
36
  8
0
 10
5.8364872818787097
 20
-1.696220504900793
 30
0.0
 40
0.3900000000000004
 50
42.112148437235959
 51
48.719969544717479
  0
ARC
  5
37
  8
0
 10
5.8364872818787097
 20
-1.696220504900793
 30
0.0
 40
0.3900000000000002
 50
350.86475385687231
 51
42.112148437235952
  0
LINE
  5
38
  8
0
 10
1.0300000000044769
 20
-6.1384512822210224
 30
0.0
 11
1.0300000000044769
 21
-12.45095128222102
 31
0.0
  0
LINE
  5
39
  8
0
 10
0.3447292571173719
 20
-6.1384512822210224
 30
0.0
 11
0.3447292571173719
 21
-12.45095128222102
 31
0.0
  0
LINE
  5
3A
  8
0
 10
1.0833663366381421
 20
-8.5447012822210233
 30
0.0
 11
1.0833663366381421
 21
-10.04470128222102
 31
0.0
  0
POLYLINE
  5
3B
  8
0
 66
     1
 10
0.0
 20
0.0
 30
0.0
 70
   128
  0
VERTEX
  5
1DD
  8
0
 10
1.0468073296430229
 20
-11.68030775429615
 30
0.0
  0
VERTEX
  5
1DE
  8
0
 10
1.0454793974856571
 20
-11.748307966262271
 30
0.0
  0
VERTEX
  5
1DF
  8
0
 10
1.044856953079857
 20
-11.78075899125281
 30
0.0
  0
VERTEX
  5
1E0
  8
0
 10
1.0448996485957089
 20
-11.77852305375762
 30
0.0
  0
SEQEND
  5
1E1
  8
0
  0
POLYLINE
  5
3C
  8
0
 66
     1
 10
0.0
 20
0.0
 30
0.0
 70
   128
  0
VERTEX
  5
1E2
  8
0
 10
1.060219515940019
 20
-11.08749089894596
 30
0.0
  0
VERTEX
  5
1E3
  8
0
 10
1.0602727664139591
 20
-11.08547571403159
 30
0.0
  0
VERTEX
  5
1E4
  8
0
 10
1.0593943131212169
 20
-11.11902454467284
 30
0.0
  0
VERTEX
  5
1E5
  8
0
 10
1.057646996299858
 20
-11.187937155315559
 30
0.0
  0
VERTEX
  5
1E6
  8
0
 10
1.0553140673736929
 20
-11.284471141384151
 30
0.0
  0
VERTEX
  5
1E7
  8
0
 10
1.052722715765952
 20
-11.39776481389679
 30
0.0
  0
VERTEX
  5
1E8
  8
0
 10
1.0501820614595441
 20
-11.515040665632091
 30
0.0
  0
VERTEX
  5
1E9
  8
0
 10
1.0479516187712929
 20
-11.623056354830741
 30
0.0
  0
VERTEX
  5
1EA
  8
0
 10
1.0468073296430229
 20
-11.68030775429615
 30
0.0
  0
SEQEND
  5
1EB
  8
0
  0
LINE
  5
3D
  8
0
 10
0.0000000000044764
 20
-6.1734512822210217
 30
0.0
 11
0.0000000000044764
 21
-12.41595128222102
 31
0.0
  0
LINE
  5
3E
  8
0
 10
3.3070000000044781
 20
-10.03421125510847
 30
0.0
 11
2.7970000000044801
 21
-10.03421125510847
 31
0.0
  0
POLYLINE
  5
3F
  8
0
 66
     1
 10
0.0
 20
0.0
 30
0.0
 70
   128
  0
VERTEX
  5
1EC
  8
0
 10
3.377000000004478
 20
-9.9631135801330402
 30
0.0
  0
VERTEX
  5
1ED
  8
0
 10
3.3745514015120222
 20
-9.9817755009669433
 30
0.0
  0
VERTEX
  5
1EE
  8
0
 10
3.3643967197180582
 20
-10.00383879677187
 30
0.0
  0
VERTEX
  5
1EF
  8
0
 10
3.3542345721381599
 20
-10.01560580617916
 30
0.0
  0
VERTEX
  5
1F0
  8
0
 10
3.3346743081953738
 20
-10.02842694868381
 30
0.0
  0
VERTEX
  5
1F1
  8
0
 10
3.3119607105951512
 20
-10.034032760650669
 30
0.0
  0
VERTEX
  5
1F2
  8
0
 10
3.3070000000044781
 20
-10.03421125510847
 30
0.0
  0
SEQEND
  5
1F3
  8
0
  0
LINE
  5
40
  8
0
 10
3.377000000004478
 20
-9.9631135801330402
 30
0.0
 11
3.377000000004478
 21
-8.6147012822210236
 31
0.0
  0
LINE
  5
41
  8
0
 10
1.700000000004479
 20
-11.08291720301473
 30
0.0
 11
1.700000000004479
 21
-11.78291720301473
 31
0.0
  0
LINE
  5
42
  8
0
 10
2.86700000000448
 20
-12.16970128222102
 30
0.0
 11
3.3070000000044781
 21
-12.16970128222102
 31
0.0
  0
ARC
  5
43
  8
0
 10
3.3070000000044781
 20
-12.099701282221019
 30
0.0
 40
0.0700000000000021
 50
269.9999999999992
 51
359.9999999999996
  0
LINE
  5
44
  8
0
 10
2.7970000000044801
 20
-10.03421125510847
 30
0.0
 11
2.7970000000044801
 21
-12.099701282221019
 31
0.0
  0
ARC
  5
45
  8
0
 10
2.86700000000448
 20
-12.099701282221019
 30
0.0
 40
0.0700000000000003
 50
180.0
 51
269.9999999999992
  0
LINE
  5
46
  8
0
 10
3.377000000004478
 20
-12.099701282221019
 30
0.0
 11
3.377000000004478
 21
-9.9631135801330402
 31
0.0
  0
LINE
  5
47
  8
0
 10
0.0000000000044764
 20
-15.84494232560588
 30
0.0
 11
0.0000000000044764
 21
-17.844942325605881
 31
0.0
  0
LINE
  5
48
  8
0
 10
0.2500000000044764
 20
-17.784942325605879
 30
0.0
 11
0.2500000000044764
 21
-15.90494232560588
 31
0.0
  0
LINE
  5
49
  8
0
 10
8.2343911086799224
 20
-19.03800312221427
 30
0.0
 11
8.6593911086799267
 21
-18.301881528997491
 31
0.0
  0
LINE
  5
4A
  8
0
 10
8.5515922376387081
 20
-19.188594650639448
 30
0.0
 11
8.9484077623702518
 21
-18.501290000572311
 31
0.0
  0
LINE
  5
4B
  8
0
 10
0.25
 20
1.0
 30
0.0
 11
0.25
 21
-1.0
 31
0.0
  0
LINE
  5
4C
  8
0
 10
0.0
 20
1.0
 30
0.0
 11
0.0
 21
-1.0
 31
0.0
  0
LINE
  5
4D
  8
0
 10
6.0937857986355652
 20
-1.3628368962013171
 30
0.0
 11
5.4927450346269993
 21
-1.9638776602098851
 31
0.0
  0
LINE
  5
4E
  8
0
 10
8.2975302873435623
 20
-4.4187500869719578
 30
0.0
 11
10.32644538460911
 21
-2.5847030515642402
 31
0.0
  0
LINE
  5
4F
  8
0
 10
6.2686151900779796
 20
-6.2527971223796763
 30
0.0
 11
8.2975302873435623
 21
-4.4187500869719578
 31
0.0
  0
LINE
  5
50
  8
0
 10
7.3385952743150247
 20
-3.35792793373987
 30
0.0
 11
9.3675103715805861
 21
-1.523880898332151
 31
0.0
  0
LINE
  5
51
  8
0
 10
5.3096801770494499
 20
-5.191974969147588
 30
0.0
 11
7.3385952743150247
 21
-3.35792793373987
 31
0.0
  0
LINE
  5
52
  8
0
 10
7.2313018462838548
 20
-3.2392345459656511
 30
0.0
 11
8.1884387273285526
 21
-2.3740263065842782
 31
0.0
  0
LINE
  5
53
  8
0
 10
6.2741649652391507
 20
-4.1044427853470218
 30
0.0
 11
7.2313018462838548
 21
-3.2392345459656511
 31
0.0
  0
LINE
  5
54
  8
0
 10
6.9807634221268842
 20
-2.9620763371500312
 30
0.0
 11
7.7354016813598099
 21
-2.2799176484909012
 31
0.0
  0
LINE
  5
55
  8
0
 10
6.2261251628939567
 20
-3.644235025809162
 30
0.0
 11
6.9807634221268842
 21
-2.9620763371500312
 31
0.0
  0
LINE
  5
56
  8
0
 10
6.3796602612864879
 20
-2.2971057805077799
 30
0.0
 11
7.1342985205194083
 21
-1.6149470918486499
 31
0.0
  0
LINE
  5
57
  8
0
 10
5.6250220020535551
 20
-2.9792644691669099
 30
0.0
 11
6.3796602612864879
 21
-2.2971057805077799
 31
0.0
  0
LINE
  5
58
  8
0
 10
6.0404412570488537
 20
-1.921844652690458
 30
0.0
 11
6.2215406494918142
 21
-1.7581390327402739
 31
0.0
  0
LINE
  5
59
  8
0
 10
5.859341864605895
 20
-2.0855502726406421
 30
0.0
 11
6.0404412570488537
 21
-1.921844652690458
 31
0.0
  0
LINE
  5
5A
  8
0
 10
3.3070000000044781
 20
-8.5447012822210233
 30
0.0
 11
3.3070000000044781
 21
-10.03421125510847
 31
0.0
  0
LINE
  5
5B
  8
0
 10
0.1900000000044741
 20
-15.84494232560588
 30
0.0
 11
0.1900000000044741
 21
-17.844942325605881
 31
0.0
  0
LINE
  5
5C
  8
0
 10
4.4820508075733647
 20
-16.419942325605881
 30
0.0
 11
4.4820508075733647
 21
-17.269942325605879
 31
0.0
  0
LINE
  5
5D
  8
0
 10
6.1945508075733642
 20
-16.878805317644179
 30
0.0
 11
5.769550807573367
 21
-17.614926910860952
 31
0.0
  0
LINE
  5
5E
  8
0
 10
2.729968516925239
 20
0.4250000000000003
 30
0.0
 11
2.729968516925239
 21
-0.4249999999999999
 31
0.0
  0
LINE
  5
5F
  8
0
 10
5.4203353200446278
 20
-0.6893864176103888
 30
0.0
 11
4.8192945560360689
 21
-1.2904271816189561
 31
0.0
  0
ATTDEF
  5
60
  8
0
 62
     7
 10
0.0
 20
0.0
 30
0.0
 40
0.001
  1
K-T948-4
  3

  2
MODELNUMBER
 70
     8
  0
ATTDEF
  5
62
  8
0
 62
     7
 10
0.0
 20
-0.0017
 30
0.0
 40
0.001
  1
Stillness
  3

  2
TRADENAME
 70
     8
  0
ATTDEF
  5
63
  8
0
 62
     7
 10
0.0
 20
-0.0034
 30
0.0
 40
0.001
  1
Faucets
  3

  2
PRODUCT
 70
     8
  0
ATTDEF
  5
64
  8
0
 62
     7
 10
0.0
 20
-0.0051
 30
0.0
 40
0.001
  1
Brass
  3

  2
MATERIAL
 70
     8
  0
ENDSEC
  0
EOF
