  0
SECTION
  2
HEADER
  9
$ACADVER
  1
AC1009
  9
$INSBASE
 10
0.0
 20
0.0
 30
0.0
  9
$EXTMIN
 10
-3.1562499999999978
 20
-10.32644538460911
 30
0.0
  9
$EXTMAX
 10
3.15625
 20
0.001
 30
0.0
  9
$LIMMIN
 10
0.0
 20
0.0
  9
$LIMMAX
 10
0.0
 20
0.0
  9
$ORTHOMODE
 70
     0
  9
$REGENMODE
 70
     1
  9
$FILLMODE
 70
     1
  9
$QTEXTMODE
 70
     0
  9
$MIRRTEXT
 70
     1
  9
$DRAGMODE
 70
     2
  9
$LTSCALE
 40
1.0
  9
$OSMODE
 70
    37
  9
$ATTMODE
 70
     1
  9
$TEXTSIZE
 40
0.0
  9
$TRACEWID
 40
0.05
  9
$TEXTSTYLE
  7
STANDARD
  9
$CLAYER
  8
0
  9
$CELTYPE
  6
CONTINUOUS
  9
$CECOLOR
 62
   256
  9
$DIMSCALE
 40
96.0
  9
$DIMASZ
 40
0.2362204724409449
  9
$DIMEXO
 40
0.0393700787401575
  9
$DIMDLI
 40
0.38
  9
$DIMRND
 40
0.0
  9
$DIMDLE
 40
0.0393700787401575
  9
$DIMEXE
 40
0.18
  9
$DIMTP
 40
0.0
  9
$DIMTM
 40
0.0
  9
$DIMTXT
 40
0.25
  9
$DIMCEN
 40
0.09
  9
$DIMTSZ
 40
0.0
  9
$DIMTOL
 70
     0
  9
$DIMLIM
 70
     0
  9
$DIMTIH
 70
     1
  9
$DIMTOH
 70
     1
  9
$DIMSE1
 70
     0
  9
$DIMSE2
 70
     0
  9
$DIMTAD
 70
     1
  9
$DIMZIN
 70
     0
  9
$DIMBLK
  1

  9
$DIMASO
 70
     1
  9
$DIMSHO
 70
     1
  9
$DIMPOST
  1

  9
$DIMAPOST
  1

  9
$DIMALT
 70
     0
  9
$DIMALTD
 70
     2
  9
$DIMALTF
 40
25.399999999999999
  9
$DIMLFAC
 40
1.0
  9
$DIMTOFL
 70
     0
  9
$DIMTVP
 40
0.0
  9
$DIMTIX
 70
     0
  9
$DIMSOXD
 70
     0
  9
$DIMSAH
 70
     0
  9
$DIMBLK1
  1

  9
$DIMBLK2
  1

  9
$DIMSTYLE
  2
STANDARD
  9
$DIMCLRD
 70
     0
  9
$DIMCLRE
 70
     0
  9
$DIMCLRT
 70
     0
  9
$DIMTFAC
 40
1.0
  9
$DIMGAP
 40
0.0393700787401575
  9
$LUNITS
 70
     2
  9
$LUPREC
 70
     3
  9
$SKETCHINC
 40
0.1
  9
$FILLETRAD
 40
0.0
  9
$AUNITS
 70
     0
  9
$AUPREC
 70
     2
  9
$MENU
  1
acad
  9
$ELEVATION
 40
0.0
  9
$PELEVATION
 40
0.0
  9
$THICKNESS
 40
0.0
  9
$LIMCHECK
 70
     0
  9
$BLIPMODE
 70
     0
  9
$CHAMFERA
 40
0.0
  9
$CHAMFERB
 40
0.0
  9
$SKPOLY
 70
     0
  9
$TDCREATE
 40
2444971.75
  9
$TDUPDATE
 40
2453417.6638680901
  9
$TDINDWG
 40
0.001892662
  9
$TDUSRTIMER
 40
0.001892662
  9
$USRTIMER
 70
     1
  9
$ANGBASE
 50
0.0
  9
$ANGDIR
 70
     0
  9
$PDMODE
 70
     0
  9
$PDSIZE
 40
-1.0
  9
$PLINEWID
 40
0.0
  9
$COORDS
 70
     1
  9
$SPLFRAME
 70
     0
  9
$SPLINETYPE
 70
     6
  9
$SPLINESEGS
 70
     8
  9
$ATTDIA
 70
     0
  9
$ATTREQ
 70
     1
  9
$HANDLING
 70
     1
  9
$HANDSEED
  5
352
  9
$SURFTAB1
 70
     6
  9
$SURFTAB2
 70
     6
  9
$SURFTYPE
 70
     6
  9
$SURFU
 70
     6
  9
$SURFV
 70
     6
  9
$UCSNAME
  2

  9
$UCSORG
 10
0.0
 20
0.0
 30
0.0
  9
$UCSXDIR
 10
1.0
 20
0.0
 30
0.0
  9
$UCSYDIR
 10
0.0
 20
1.0
 30
0.0
  9
$PUCSNAME
  2

  9
$PUCSORG
 10
0.0
 20
0.0
 30
0.0
  9
$PUCSXDIR
 10
1.0
 20
0.0
 30
0.0
  9
$PUCSYDIR
 10
0.0
 20
1.0
 30
0.0
  9
$USERI1
 70
     0
  9
$USERI2
 70
     0
  9
$USERI3
 70
     0
  9
$USERI4
 70
     0
  9
$USERI5
 70
     0
  9
$USERR1
 40
0.0
  9
$USERR2
 40
0.0
  9
$USERR3
 40
0.0
  9
$USERR4
 40
0.0
  9
$USERR5
 40
0.0
  9
$WORLDVIEW
 70
     1
  9
$SHADEDGE
 70
     3
  9
$SHADEDIF
 70
    70
  9
$TILEMODE
 70
     1
  9
$MAXACTVP
 70
    16
  9
$PLIMCHECK
 70
     0
  9
$PEXTMIN
 10
1.0000000000000000E+020
 20
1.0000000000000000E+020
 30
1.0000000000000000E+020
  9
$PEXTMAX
 10
-1.0000000000000000E+020
 20
-1.0000000000000000E+020
 30
-1.0000000000000000E+020
  9
$PLIMMIN
 10
0.0
 20
0.0
  9
$PLIMMAX
 10
12.0
 20
9.0
  9
$UNITMODE
 70
     0
  9
$VISRETAIN
 70
     0
  9
$PLINEGEN
 70
     1
  9
$PSLTSCALE
 70
     1
  0
ENDSEC
  0
SECTION
  2
TABLES
  0
TABLE
  2
VPORT
 70
     2
  0
VPORT
  2
*ACTIVE
 70
     0
 10
0.0
 20
0.0
 11
1.0
 21
1.0
 12
0.0000000146974362
 22
-2.406113846316031
 13
0.0
 23
0.0
 14
1.0
 24
1.0
 15
0.0
 25
0.0
 16
0.0
 26
0.0
 36
1.0
 17
0.0
 27
0.0
 37
0.0
 40
15.987790893708221
 41
1.9608247422680409
 42
50.0
 43
0.0
 44
0.0
 50
0.0
 51
0.0
 71
     0
 72
  2000
 73
     1
 74
     1
 75
     0
 76
     0
 77
     0
 78
     0
  0
ENDTAB
  0
TABLE
  2
LTYPE
 70
     1
  0
LTYPE
  2
CONTINUOUS
 70
     0
  3
Solid line
 72
    65
 73
     0
 40
0.0
  0
ENDTAB
  0
TABLE
  2
LAYER
 70
     1
  0
LAYER
  2
0
 70
     0
 62
     7
  6
CONTINUOUS
  0
ENDTAB
  0
TABLE
  2
STYLE
 70
     1
  0
STYLE
  2
STANDARD
 70
     0
 40
0.0
 41
1.0
 50
0.0
 71
     0
 42
0.0
  3
txt
  4

  0
ENDTAB
  0
TABLE
  2
VIEW
 70
     0
  0
ENDTAB
  0
TABLE
  2
UCS
 70
     0
  0
ENDTAB
  0
TABLE
  2
APPID
 70
     2
  0
APPID
  2
ACAD
 70
     0
  0
APPID
  2
DCO15
 70
     0
  0
ENDTAB
  0
TABLE
  2
DIMSTYLE
 70
     1
  0
DIMSTYLE
  2
STANDARD
 70
     0
  3

  4

  5

  6

  7

 40
1.0
 41
0.18
 42
0.0625
 43
0.38
 44
0.18
 45
0.0
 46
0.0
 47
0.0
 48
0.0
140
0.18
141
0.09
142
0.0
143
25.399999999999999
144
1.0
145
0.0
146
1.0
147
0.09
 71
     0
 72
     0
 73
     1
 74
     1
 75
     0
 76
     0
 77
     0
 78
     0
170
     0
171
     2
172
     0
173
     0
174
     0
175
     0
176
     0
177
     0
178
     0
  0
ENDTAB
  0
ENDSEC
  0
SECTION
  2
BLOCKS
  0
BLOCK
  8
0
  2
$MODEL_SPACE
 70
     0
 10
0.0
 20
0.0
 30
0.0
  3
$MODEL_SPACE
  1

  0
ENDBLK
  5
43
  8
0
  0
BLOCK
 67
     1
  8
0
  2
$PAPER_SPACE
 70
     0
 10
0.0
 20
0.0
 30
0.0
  3
$PAPER_SPACE
  1

  0
ENDBLK
  5
48
 67
     1
  8
0
  0
ENDSEC
  0
SECTION
  2
ENTITIES
  0
LINE
  5
9
  8
0
 10
-3.1562499999999978
 20
-0.3447292571173364
 30
0.0
 11
-3.1562499999999978
 21
-1.030000000004442
 31
0.0
  0
LINE
  5
A
  8
0
 10
3.15625
 20
-1.030000000004442
 30
0.0
 11
3.15625
 21
-0.3447292571173364
 31
0.0
  0
LINE
  5
B
  8
0
 10
-3.1562499999999978
 20
-1.030000000004442
 30
0.0
 11
-0.75
 21
-1.083366336638107
 31
0.0
  0
LINE
  5
C
  8
0
 10
0.7500000000000009
 20
-1.083366336638107
 30
0.0
 11
3.15625
 21
-1.030000000004442
 31
0.0
  0
LINE
  5
D
  8
0
 10
-3.121249999999999
 20
-0.0000000000044444
 30
0.0
 11
-3.121249999999999
 21
-0.3447292571173364
 31
0.0
  0
LINE
  5
E
  8
0
 10
3.1212499999999999
 20
-0.3447292571173364
 30
0.0
 11
3.1212500000000021
 21
-0.0000000000044444
 31
0.0
  0
LINE
  5
F
  8
0
 10
-0.75
 20
-1.083366336638107
 30
0.0
 11
-0.75
 21
-3.3070000000044431
 31
0.0
  0
LINE
  5
10
  8
0
 10
0.7500000000000009
 20
-3.3070000000044431
 30
0.0
 11
0.7500000000000009
 21
-1.083366336638107
 31
0.0
  0
ARC
  5
11
  8
0
 10
-0.6799999999999998
 20
-3.3070000000044431
 30
0.0
 40
0.0700000000000021
 50
180.0000000000004
 51
270.0000000000008
  0
ARC
  5
12
  8
0
 10
0.6800000000000006
 20
-3.3070000000044431
 30
0.0
 40
0.0700000000000021
 50
270.0000000000008
 51
0.0
  0
LINE
  5
13
  8
0
 10
-1.0
 20
0.0
 30
0.0
 11
-1.0
 21
-0.25
 31
0.0
  0
LINE
  5
14
  8
0
 10
1.0
 20
-0.25
 30
0.0
 11
1.0
 21
0.0
 31
0.0
  0
LINE
  5
15
  8
0
 10
-0.4249999999999999
 20
-0.25
 30
0.0
 11
-0.4249999999999999
 21
-2.7299685169252341
 31
0.0
  0
LINE
  5
16
  8
0
 10
0.4250000000000007
 20
-2.7299685169252341
 30
0.0
 11
0.4250000000000007
 21
-0.25
 31
0.0
  0
LINE
  5
17
  8
0
 10
-0.4249999999999999
 20
-2.7299685169252341
 30
0.0
 11
-0.4249999999999999
 21
-5.1198149380403404
 31
0.0
  0
LINE
  5
18
  8
0
 10
0.4250000000000007
 20
-5.1198149380403404
 30
0.0
 11
0.4250000000000007
 21
-2.7299685169252341
 31
0.0
  0
LINE
  5
19
  8
0
 10
0.4250000000000007
 20
-5.7932654166312734
 30
0.0
 11
0.4250000000000007
 21
-5.1198149380403404
 31
0.0
  0
LINE
  5
1A
  8
0
 10
-0.4249999999999999
 20
-5.1198149380403404
 30
0.0
 11
-0.4249999999999999
 21
-5.7932654166312734
 31
0.0
  0
ARC
  5
1B
  8
0
 10
0.0000000000000009
 20
-5.8364872818787026
 30
0.0
 40
0.3900000000000023
 50
270.0000000000008
 51
346.1784543469542
  0
ARC
  5
1C
  8
0
 10
0.0000000000000009
 20
-5.8364872818787026
 30
0.0
 40
0.3900000000000023
 50
193.82154565304629
 51
270.0000000000008
  0
LINE
  5
1D
  8
0
 10
2.7349999999999999
 20
-8.2975302873435322
 30
0.0
 11
2.7349999999999999
 21
-7.3385952743150016
 31
0.0
  0
LINE
  5
1E
  8
0
 10
-2.734999999999999
 20
-7.3385952743150016
 30
0.0
 11
-2.734999999999999
 21
-8.2975302873435322
 31
0.0
  0
LINE
  5
1F
  8
0
 10
1.0172607231242381
 20
-6.9807634221268708
 30
0.0
 11
1.0172607231242381
 21
-6.379660261286471
 31
0.0
  0
LINE
  5
20
  8
0
 10
-1.017260723124237
 20
-6.379660261286471
 30
0.0
 11
-1.017260723124237
 21
-6.9807634221268691
 31
0.0
  0
LINE
  5
21
  8
0
 10
-3.1562499999999978
 20
-1.030000000004442
 30
0.0
 11
-0.4249999999999999
 21
-1.030000000004456
 31
0.0
  0
LINE
  5
22
  8
0
 10
0.4250000000000007
 20
-1.030000000004456
 30
0.0
 11
3.15625
 21
-1.030000000004442
 31
0.0
  0
LINE
  5
23
  8
0
 10
-3.1562499999999978
 20
-0.3447292571173364
 30
0.0
 11
-0.4249999999999999
 21
-0.344729257117347
 31
0.0
  0
LINE
  5
24
  8
0
 10
0.4250000000000007
 20
-0.344729257117347
 30
0.0
 11
3.15625
 21
-0.3447292571173364
 31
0.0
  0
LINE
  5
25
  8
0
 10
-0.75
 20
-1.083366336638107
 30
0.0
 11
-0.4249999999999999
 21
-1.0833663366381101
 31
0.0
  0
LINE
  5
26
  8
0
 10
0.4250000000000007
 20
-1.0833663366381101
 30
0.0
 11
0.7500000000000009
 21
-1.083366336638107
 31
0.0
  0
LINE
  5
27
  8
0
 10
-3.121249999999999
 20
-0.0000000000044444
 30
0.0
 11
-1.0
 21
-0.0000000000044551
 31
0.0
  0
LINE
  5
28
  8
0
 10
1.0
 20
-0.0000000000044551
 30
0.0
 11
3.1212500000000021
 21
-0.0000000000044444
 31
0.0
  0
LINE
  5
29
  8
0
 10
0.6800000000000006
 20
-3.3770000000044451
 30
0.0
 11
0.4250000000000007
 21
-3.3770000000044451
 31
0.0
  0
LINE
  5
2A
  8
0
 10
-0.4249999999999999
 20
-3.3770000000044451
 30
0.0
 11
-0.6799999999999998
 21
-3.3770000000044451
 31
0.0
  0
LINE
  5
2B
  8
0
 10
-1.0
 20
-0.25
 30
0.0
 11
1.0
 21
-0.25
 31
0.0
  0
LINE
  5
2C
  8
0
 10
-1.0
 20
0.0
 30
0.0
 11
1.0
 21
0.0
 31
0.0
  0
POLYLINE
  5
2D
  8
0
 66
     1
 10
0.0
 20
0.0
 30
0.0
 70
   128
  0
VERTEX
  5
1BB
  8
0
 10
-0.4249999999999999
 20
-5.7932654166312734
 30
0.0
  0
VERTEX
  5
1BC
  8
0
 10
-0.4231870249253893
 20
-5.8209939392640946
 30
0.0
  0
VERTEX
  5
1BD
  8
0
 10
-0.4087758983484476
 20
-5.8755067229481721
 30
0.0
  0
VERTEX
  5
1BE
  8
0
 10
-0.3804443988259001
 20
-5.9272188775831998
 30
0.0
  0
VERTEX
  5
1BF
  8
0
 10
-0.3391573215940999
 20
-5.9743694077649776
 30
0.0
  0
VERTEX
  5
1C0
  8
0
 10
-0.2863206485497853
 20
-6.0153526587389967
 30
0.0
  0
VERTEX
  5
1C1
  8
0
 10
-0.2237336692228746
 20
-6.048772995047325
 30
0.0
  0
VERTEX
  5
1C2
  8
0
 10
-0.1535277081295376
 20
-6.0734923272202561
 30
0.0
  0
VERTEX
  5
1C3
  8
0
 10
-0.0780935450720399
 20
-6.0886688680482139
 30
0.0
  0
VERTEX
  5
1C4
  8
0
 10
0.0000000000000036
 20
-6.0937857986355564
 30
0.0
  0
VERTEX
  5
1C5
  8
0
 10
0.0780935450720461
 20
-6.0886688680482113
 30
0.0
  0
VERTEX
  5
1C6
  8
0
 10
0.1535277081295439
 20
-6.0734923272202561
 30
0.0
  0
VERTEX
  5
1C7
  8
0
 10
0.2237336692228791
 20
-6.0487729950473241
 30
0.0
  0
VERTEX
  5
1C8
  8
0
 10
0.2863206485497907
 20
-6.0153526587389949
 30
0.0
  0
VERTEX
  5
1C9
  8
0
 10
0.3391573215941044
 20
-5.9743694077649758
 30
0.0
  0
VERTEX
  5
1CA
  8
0
 10
0.3804443988259036
 20
-5.9272188775831971
 30
0.0
  0
VERTEX
  5
1CB
  8
0
 10
0.4087758983484493
 20
-5.8755067229481659
 30
0.0
  0
VERTEX
  5
1CC
  8
0
 10
0.4231870249253902
 20
-5.8209939392640901
 30
0.0
  0
VERTEX
  5
1CD
  8
0
 10
0.4250000000000007
 20
-5.7932654166312734
 30
0.0
  0
SEQEND
  5
1CE
  8
0
  0
POLYLINE
  5
2E
  8
0
 66
     1
 10
0.0
 20
0.0
 30
0.0
 70
   128
  0
VERTEX
  5
1CF
  8
0
 10
0.650154291177846
 20
-6.379660261286471
 30
0.0
  0
VERTEX
  5
1D0
  8
0
 10
0.6432258362023759
 20
-6.4498846285026943
 30
0.0
  0
VERTEX
  5
1D1
  8
0
 10
0.622588139264929
 20
-6.518612285251753
 30
0.0
  0
VERTEX
  5
1D2
  8
0
 10
0.5886810570455863
 20
-6.5843784208515803
 30
0.0
  0
VERTEX
  5
1D3
  8
0
 10
0.5422272601340632
 20
-6.6457813443017537
 30
0.0
  0
VERTEX
  5
1D4
  8
0
 10
0.4842168305607606
 20
-6.7015123588936349
 30
0.0
  0
VERTEX
  5
1D5
  8
0
 10
0.4158861599172106
 20
-6.7503836548086102
 30
0.0
  0
VERTEX
  5
1D6
  8
0
 10
0.338691597815874
 20
-6.7913536252221594
 30
0.0
  0
VERTEX
  5
1D7
  8
0
 10
0.2542784123265847
 20
-6.8235490663449472
 30
0.0
  0
VERTEX
  5
1D8
  8
0
 10
0.164445723944076
 20
-6.8462837882455574
 30
0.0
  0
VERTEX
  5
1D9
  8
0
 10
0.0711081604581789
 20
-6.8590732397975742
 30
0.0
  0
VERTEX
  5
1DA
  8
0
 10
-0.0237449500134357
 20
-6.8616448360455768
 30
0.0
  0
VERTEX
  5
1DB
  8
0
 10
-0.1180919781003142
 20
-6.8539437678802129
 30
0.0
  0
VERTEX
  5
1DC
  8
0
 10
-0.209922080699398
 20
-6.8361341701992187
 30
0.0
  0
VERTEX
  5
1DD
  8
0
 10
-0.2972780586046415
 20
-6.8085956236570278
 30
0.0
  0
VERTEX
  5
1DE
  8
0
 10
-0.3782980708100929
 20
-6.7719150645621333
 30
0.0
  0
VERTEX
  5
1DF
  8
0
 10
-0.4512553164185081
 20
-6.7268742753486768
 30
0.0
  0
VERTEX
  5
1E0
  8
0
 10
-0.5145948384044772
 20
-6.6744332222411753
 30
0.0
  0
VERTEX
  5
1E1
  8
0
 10
-0.5669666648237987
 20
-6.6157095952410643
 30
0.0
  0
VERTEX
  5
1E2
  8
0
 10
-0.6072545811217012
 20
-6.5519549865048123
 30
0.0
  0
VERTEX
  5
1E3
  8
0
 10
-0.634599920308169
 20
-6.4845282148300578
 30
0.0
  0
VERTEX
  5
1E4
  8
0
 10
-0.6484198639540592
 20
-6.4148663647920454
 30
0.0
  0
VERTEX
  5
1E5
  8
0
 10
-0.6484198639540582
 20
-6.3444541577808931
 30
0.0
  0
VERTEX
  5
1E6
  8
0
 10
-0.6345999203081663
 20
-6.2747923077428771
 30
0.0
  0
VERTEX
  5
1E7
  8
0
 10
-0.6072545811216977
 20
-6.2073655360681244
 30
0.0
  0
VERTEX
  5
1E8
  8
0
 10
-0.5669666648237941
 20
-6.1436109273318742
 30
0.0
  0
VERTEX
  5
1E9
  8
0
 10
-0.514594838404472
 20
-6.0848873003317641
 30
0.0
  0
VERTEX
  5
1EA
  8
0
 10
-0.4512553164185001
 20
-6.0324462472242599
 30
0.0
  0
VERTEX
  5
1EB
  8
0
 10
-0.3782980708100858
 20
-5.9874054580108078
 30
0.0
  0
VERTEX
  5
1EC
  8
0
 10
-0.3628502616045637
 20
-5.9794547175187871
 30
0.0
  0
SEQEND
  5
1ED
  8
0
  0
POLYLINE
  5
2F
  8
0
 66
     1
 10
0.0
 20
0.0
 30
0.0
 70
   128
  0
VERTEX
  5
1EE
  8
0
 10
0.3628502616045637
 20
-5.9794547175187871
 30
0.0
  0
VERTEX
  5
1EF
  8
0
 10
0.4158861599172177
 20
-6.008936867764338
 30
0.0
  0
VERTEX
  5
1F0
  8
0
 10
0.484216830560766
 20
-6.0578081636793133
 30
0.0
  0
VERTEX
  5
1F1
  8
0
 10
0.5422272601340678
 20
-6.1135391782711919
 30
0.0
  0
VERTEX
  5
1F2
  8
0
 10
0.5886810570455899
 20
-6.174942101721367
 30
0.0
  0
VERTEX
  5
1F3
  8
0
 10
0.6225881392649315
 20
-6.2407082373211953
 30
0.0
  0
VERTEX
  5
1F4
  8
0
 10
0.6432258362023769
 20
-6.309435894070254
 30
0.0
  0
VERTEX
  5
1F5
  8
0
 10
0.650154291177846
 20
-6.379660261286471
 30
0.0
  0
SEQEND
  5
1F6
  8
0
  0
POLYLINE
  5
30
  8
0
 66
     1
 10
0.0
 20
0.0
 30
0.0
 70
   128
  0
VERTEX
  5
1F7
  8
0
 10
1.6614708263995479
 20
-7.3385952743149998
 30
0.0
  0
VERTEX
  5
1F8
  8
0
 10
1.654383284763183
 20
-7.4523192573651036
 30
0.0
  0
VERTEX
  5
1F9
  8
0
 10
1.633181128260337
 20
-7.5650729874897724
 30
0.0
  0
VERTEX
  5
1FA
  8
0
 10
1.5980452462146191
 20
-7.6758944896194254
 30
0.0
  0
VERTEX
  5
1FB
  8
0
 10
1.549275405583082
 20
-7.7838382737724539
 30
0.0
  0
VERTEX
  5
1FC
  8
0
 10
1.487287693450233
 20
-7.887983401642372
 30
0.0
  0
VERTEX
  5
1FD
  8
0
 10
1.4126109671197371
 20
-7.9874413437187304
 30
0.0
  0
VERTEX
  5
1FE
  8
0
 10
1.3258823420903729
 20
-8.0813635599076168
 30
0.0
  0
VERTEX
  5
1FF
  8
0
 10
1.2278417564112409
 20
-8.1689487389765496
 30
0.0
  0
VERTEX
  5
200
  8
0
 10
1.119325657791217
 20
-8.2494496350593725
 30
0.0
  0
VERTEX
  5
201
  8
0
 10
1.001259867322031
 20
-8.3221794428945284
 30
0.0
  0
VERTEX
  5
202
  8
0
 10
0.874651680699138
 20
-8.3865176574053741
 30
0.0
  0
VERTEX
  5
203
  8
0
 10
0.7405812743300162
 20
-8.4419153676307168
 30
0.0
  0
VERTEX
  5
204
  8
0
 10
0.6001924896499135
 20
-8.4878999398395951
 30
0.0
  0
VERTEX
  5
205
  8
0
 10
0.4546830742700294
 20
-8.5240790498756311
 30
0.0
  0
VERTEX
  5
206
  8
0
 10
0.3052944632172103
 20
-8.5501440303283935
 30
0.0
  0
VERTEX
  5
207
  8
0
 10
0.153301187448017
 20
-8.5658725039749051
 30
0.0
  0
VERTEX
  5
208
  8
0
 10
-0.0000000000000062
 20
-8.5711302810237218
 30
0.0
  0
VERTEX
  5
209
  8
0
 10
-0.1533011874480294
 20
-8.5658725039749033
 30
0.0
  0
VERTEX
  5
20A
  8
0
 10
-0.3052944632172219
 20
-8.5501440303283882
 30
0.0
  0
VERTEX
  5
20B
  8
0
 10
-0.4546830742700419
 20
-8.5240790498756311
 30
0.0
  0
VERTEX
  5
20C
  8
0
 10
-0.6001924896499249
 20
-8.4878999398395933
 30
0.0
  0
VERTEX
  5
20D
  8
0
 10
-0.7405812743300279
 20
-8.4419153676307115
 30
0.0
  0
VERTEX
  5
20E
  8
0
 10
-0.8746516806991486
 20
-8.386517657405367
 30
0.0
  0
VERTEX
  5
20F
  8
0
 10
-1.0012598673220401
 20
-8.322179442894523
 30
0.0
  0
VERTEX
  5
210
  8
0
 10
-1.1193256577912249
 20
-8.2494496350593653
 30
0.0
  0
VERTEX
  5
211
  8
0
 10
-1.227841756411248
 20
-8.1689487389765425
 30
0.0
  0
VERTEX
  5
212
  8
0
 10
-1.32588234209038
 20
-8.0813635599076097
 30
0.0
  0
VERTEX
  5
213
  8
0
 10
-1.4126109671197431
 20
-7.9874413437187206
 30
0.0
  0
VERTEX
  5
214
  8
0
 10
-1.487287693450237
 20
-7.887983401642364
 30
0.0
  0
VERTEX
  5
215
  8
0
 10
-1.549275405583086
 20
-7.783838273772445
 30
0.0
  0
VERTEX
  5
216
  8
0
 10
-1.5980452462146211
 20
-7.6758944896194183
 30
0.0
  0
VERTEX
  5
217
  8
0
 10
-1.633181128260337
 20
-7.5650729874897626
 30
0.0
  0
VERTEX
  5
218
  8
0
 10
-1.6543832847631821
 20
-7.4523192573650947
 30
0.0
  0
VERTEX
  5
219
  8
0
 10
-1.661470826399545
 20
-7.3385952743149909
 30
0.0
  0
VERTEX
  5
21A
  8
0
 10
-1.654383284763181
 20
-7.2248712912648889
 30
0.0
  0
VERTEX
  5
21B
  8
0
 10
-1.6331811282603339
 20
-7.112117561140221
 30
0.0
  0
VERTEX
  5
21C
  8
0
 10
-1.5980452462146131
 20
-7.001296059010568
 30
0.0
  0
VERTEX
  5
21D
  8
0
 10
-1.5492754055830771
 20
-6.8933522748575387
 30
0.0
  0
VERTEX
  5
21E
  8
0
 10
-1.487287693450225
 20
-6.7892071469876214
 30
0.0
  0
VERTEX
  5
21F
  8
0
 10
-1.4126109671197291
 20
-6.689749204911263
 30
0.0
  0
VERTEX
  5
220
  8
0
 10
-1.325882342090364
 20
-6.5958269887223766
 30
0.0
  0
VERTEX
  5
221
  8
0
 10
-1.2278417564112321
 20
-6.5082418096534482
 30
0.0
  0
VERTEX
  5
222
  8
0
 10
-1.1193256577912081
 20
-6.4277409135706227
 30
0.0
  0
VERTEX
  5
223
  8
0
 10
-1.017040594576083
 20
-6.3639619705559731
 30
0.0
  0
SEQEND
  5
224
  8
0
  0
POLYLINE
  5
31
  8
0
 66
     1
 10
0.0
 20
0.0
 30
0.0
 70
   128
  0
VERTEX
  5
225
  8
0
 10
1.0170405945760841
 20
-6.3639619705559731
 30
0.0
  0
VERTEX
  5
226
  8
0
 10
1.1193256577912341
 20
-6.4277409135706431
 30
0.0
  0
VERTEX
  5
227
  8
0
 10
1.227841756411256
 20
-6.5082418096534687
 30
0.0
  0
VERTEX
  5
228
  8
0
 10
1.3258823420903849
 20
-6.5958269887223979
 30
0.0
  0
VERTEX
  5
229
  8
0
 10
1.4126109671197471
 20
-6.6897492049112861
 30
0.0
  0
VERTEX
  5
22A
  8
0
 10
1.487287693450241
 20
-6.7892071469876463
 30
0.0
  0
VERTEX
  5
22B
  8
0
 10
1.5492754055830891
 20
-6.8933522748575662
 30
0.0
  0
VERTEX
  5
22C
  8
0
 10
1.5980452462146231
 20
-7.0012960590105946
 30
0.0
  0
VERTEX
  5
22D
  8
0
 10
1.6331811282603379
 20
-7.1121175611402476
 30
0.0
  0
VERTEX
  5
22E
  8
0
 10
1.6543832847631821
 20
-7.2248712912649156
 30
0.0
  0
VERTEX
  5
22F
  8
0
 10
1.6614708263995479
 20
-7.3385952743149998
 30
0.0
  0
SEQEND
  5
230
  8
0
  0
POLYLINE
  5
32
  8
0
 66
     1
 10
0.0
 20
0.0
 30
0.0
 70
   128
  0
VERTEX
  5
231
  8
0
 10
2.7349999999999999
 20
-7.3385952743150016
 30
0.0
  0
VERTEX
  5
232
  8
0
 10
2.7280315334590428
 20
-7.4833364201345223
 30
0.0
  0
VERTEX
  5
233
  8
0
 10
2.7071616435443508
 20
-7.6273399982525802
 30
0.0
  0
VERTEX
  5
234
  8
0
 10
2.6724966784311199
 20
-7.7698721994436681
 30
0.0
  0
VERTEX
  5
235
  8
0
 10
2.6242132828356501
 20
-7.9102067122818118
 30
0.0
  0
VERTEX
  5
236
  8
0
 10
2.5625574978743471
 20
-8.0476284242571445
 30
0.0
  0
VERTEX
  5
237
  8
0
 10
2.4878435072946061
 20
-8.1814370658253086
 30
0.0
  0
VERTEX
  5
238
  8
0
 10
2.400452036466441
 20
-8.3109507788205583
 30
0.0
  0
VERTEX
  5
239
  8
0
 10
2.3008284122932769
 20
-8.4355095910486693
 30
0.0
  0
VERTEX
  5
23A
  8
0
 10
2.1894802939281219
 20
-8.5544787793539623
 30
0.0
  0
VERTEX
  5
23B
  8
0
 10
2.0669750858588918
 20
-8.6672521040230084
 30
0.0
  0
VERTEX
  5
23C
  8
0
 10
1.9339370465452019
 20
-8.7732548980432572
 30
0.0
  0
VERTEX
  5
23D
  8
0
 10
1.79104410734035
 20
-8.8719469954743921
 30
0.0
  0
VERTEX
  5
23E
  8
0
 10
1.639024417908528
 20
-8.9628254840101587
 30
0.0
  0
VERTEX
  5
23F
  8
0
 10
1.4786526357410521
 20
-9.0454272677041896
 30
0.0
  0
VERTEX
  5
240
  8
0
 10
1.3107459786793489
 20
-9.1193314268008052
 30
0.0
  0
VERTEX
  5
241
  8
0
 10
1.136160060560151
 20
-9.1841613626455967
 30
0.0
  0
VERTEX
  5
242
  8
0
 10
0.955784531203526
 20
-9.2395867167458512
 30
0.0
  0
VERTEX
  5
243
  8
0
 10
0.7705385429613019
 20
-9.2853250542016976
 30
0.0
  0
VERTEX
  5
244
  8
0
 10
0.5813660669273828
 20
-9.3211433029296291
 30
0.0
  0
VERTEX
  5
245
  8
0
 10
0.3892310826774254
 20
-9.3468589413444079
 30
0.0
  0
VERTEX
  5
246
  8
0
 10
0.1951126660498907
 20
-9.3623409284472192
 30
0.0
  0
VERTEX
  5
247
  8
0
 10
-0.0000000000000107
 20
-9.3675103715805772
 30
0.0
  0
VERTEX
  5
248
  8
0
 10
-0.1951126660499103
 20
-9.3623409284472192
 30
0.0
  0
VERTEX
  5
249
  8
0
 10
-0.3892310826774459
 20
-9.3468589413444061
 30
0.0
  0
VERTEX
  5
24A
  8
0
 10
-0.5813660669274025
 20
-9.3211433029296273
 30
0.0
  0
VERTEX
  5
24B
  8
0
 10
-0.7705385429613206
 20
-9.2853250542016941
 30
0.0
  0
VERTEX
  5
24C
  8
0
 10
-0.9557845312035446
 20
-9.2395867167458459
 30
0.0
  0
VERTEX
  5
24D
  8
0
 10
-1.13616006056017
 20
-9.1841613626455896
 30
0.0
  0
VERTEX
  5
24E
  8
0
 10
-1.3107459786793649
 20
-9.1193314268007981
 30
0.0
  0
VERTEX
  5
24F
  8
0
 10
-1.4786526357410681
 20
-9.0454272677041807
 30
0.0
  0
VERTEX
  5
250
  8
0
 10
-1.639024417908544
 20
-8.9628254840101498
 30
0.0
  0
VERTEX
  5
251
  8
0
 10
-1.7910441073403649
 20
-8.8719469954743815
 30
0.0
  0
VERTEX
  5
252
  8
0
 10
-1.933937046545217
 20
-8.7732548980432465
 30
0.0
  0
VERTEX
  5
253
  8
0
 10
-2.0669750858589051
 20
-8.6672521040229977
 30
0.0
  0
VERTEX
  5
254
  8
0
 10
-2.189480293928133
 20
-8.5544787793539498
 30
0.0
  0
VERTEX
  5
255
  8
0
 10
-2.300828412293288
 20
-8.4355095910486568
 30
0.0
  0
VERTEX
  5
256
  8
0
 10
-2.4004520364664499
 20
-8.3109507788205441
 30
0.0
  0
VERTEX
  5
257
  8
0
 10
-2.487843507294611
 20
-8.1814370658252944
 30
0.0
  0
VERTEX
  5
258
  8
0
 10
-2.5625574978743528
 20
-8.0476284242571285
 30
0.0
  0
VERTEX
  5
259
  8
0
 10
-2.6242132828356519
 20
-7.9102067122817976
 30
0.0
  0
VERTEX
  5
25A
  8
0
 10
-2.672496678431123
 20
-7.769872199443653
 30
0.0
  0
VERTEX
  5
25B
  8
0
 10
-2.7071616435443508
 20
-7.627339998252566
 30
0.0
  0
VERTEX
  5
25C
  8
0
 10
-2.728031533459041
 20
-7.4833364201345063
 30
0.0
  0
VERTEX
  5
25D
  8
0
 10
-2.734999999999995
 20
-7.3385952743149883
 30
0.0
  0
VERTEX
  5
25E
  8
0
 10
-2.7280315334590379
 20
-7.1938541284954702
 30
0.0
  0
VERTEX
  5
25F
  8
0
 10
-2.7071616435443442
 20
-7.0498505503774123
 30
0.0
  0
VERTEX
  5
260
  8
0
 10
-2.6724966784311142
 20
-6.9073183491863261
 30
0.0
  0
VERTEX
  5
261
  8
0
 10
-2.6242132828356399
 20
-6.7669838363481807
 30
0.0
  0
VERTEX
  5
262
  8
0
 10
-2.5625574978743368
 20
-6.6295621243728471
 30
0.0
  0
VERTEX
  5
263
  8
0
 10
-2.487843507294595
 20
-6.4957534828046866
 30
0.0
  0
VERTEX
  5
264
  8
0
 10
-2.400452036466429
 20
-6.3662397698094351
 30
0.0
  0
VERTEX
  5
265
  8
0
 10
-2.300828412293265
 20
-6.241680957581325
 30
0.0
  0
VERTEX
  5
266
  8
0
 10
-2.1894802939281082
 20
-6.1227117692760347
 30
0.0
  0
VERTEX
  5
267
  8
0
 10
-2.066975085858878
 20
-6.009938444606985
 30
0.0
  0
VERTEX
  5
268
  8
0
 10
-1.9339370465451871
 20
-5.903935650586738
 30
0.0
  0
VERTEX
  5
269
  8
0
 10
-1.7910441073403329
 20
-5.8052435531556048
 30
0.0
  0
VERTEX
  5
26A
  8
0
 10
-1.6390244179085101
 20
-5.7143650646198392
 30
0.0
  0
VERTEX
  5
26B
  8
0
 10
-1.478652635741033
 20
-5.6317632809258082
 30
0.0
  0
VERTEX
  5
26C
  8
0
 10
-1.3107459786793281
 20
-5.5578591218291944
 30
0.0
  0
VERTEX
  5
26D
  8
0
 10
-1.136160060560133
 20
-5.4930291859844038
 30
0.0
  0
VERTEX
  5
26E
  8
0
 10
-0.9557845312035047
 20
-5.4376038318841511
 30
0.0
  0
VERTEX
  5
26F
  8
0
 10
-0.7705385429612806
 20
-5.3918654944283047
 30
0.0
  0
VERTEX
  5
270
  8
0
 10
-0.5813660669273615
 20
-5.356047245700374
 30
0.0
  0
VERTEX
  5
271
  8
0
 10
-0.4249999999999999
 20
-5.334325974097597
 30
0.0
  0
SEQEND
  5
272
  8
0
  0
POLYLINE
  5
33
  8
0
 66
     1
 10
0.0
 20
0.0
 30
0.0
 70
   128
  0
VERTEX
  5
273
  8
0
 10
0.4250000000000007
 20
-5.334325974097597
 30
0.0
  0
VERTEX
  5
274
  8
0
 10
0.5813660669274237
 20
-5.3560472457003838
 30
0.0
  0
VERTEX
  5
275
  8
0
 10
0.7705385429613419
 20
-5.3918654944283171
 30
0.0
  0
VERTEX
  5
276
  8
0
 10
0.9557845312035651
 20
-5.4376038318841688
 30
0.0
  0
VERTEX
  5
277
  8
0
 10
1.1361600605601889
 20
-5.4930291859844242
 30
0.0
  0
VERTEX
  5
278
  8
0
 10
1.310745978679384
 20
-5.5578591218292148
 30
0.0
  0
VERTEX
  5
279
  8
0
 10
1.478652635741087
 20
-5.631763280925834
 30
0.0
  0
VERTEX
  5
27A
  8
0
 10
1.63902441790856
 20
-5.7143650646198667
 30
0.0
  0
VERTEX
  5
27B
  8
0
 10
1.7910441073403791
 20
-5.805243553155635
 30
0.0
  0
VERTEX
  5
27C
  8
0
 10
1.933937046545231
 20
-5.9039356505867717
 30
0.0
  0
VERTEX
  5
27D
  8
0
 10
2.066975085858918
 20
-6.0099384446070214
 30
0.0
  0
VERTEX
  5
27E
  8
0
 10
2.1894802939281459
 20
-6.1227117692760711
 30
0.0
  0
VERTEX
  5
27F
  8
0
 10
2.3008284122932992
 20
-6.2416809575813641
 30
0.0
  0
VERTEX
  5
280
  8
0
 10
2.4004520364664601
 20
-6.3662397698094759
 30
0.0
  0
VERTEX
  5
281
  8
0
 10
2.4878435072946208
 20
-6.4957534828047283
 30
0.0
  0
VERTEX
  5
282
  8
0
 10
2.562557497874359
 20
-6.6295621243728924
 30
0.0
  0
VERTEX
  5
283
  8
0
 10
2.624213282835659
 20
-6.7669838363482242
 30
0.0
  0
VERTEX
  5
284
  8
0
 10
2.672496678431127
 20
-6.9073183491863697
 30
0.0
  0
VERTEX
  5
285
  8
0
 10
2.7071616435443531
 20
-7.049850550377454
 30
0.0
  0
VERTEX
  5
286
  8
0
 10
2.7280315334590428
 20
-7.1938541284955164
 30
0.0
  0
VERTEX
  5
287
  8
0
 10
2.7349999999999999
 20
-7.3385952743150016
 30
0.0
  0
SEQEND
  5
288
  8
0
  0
POLYLINE
  5
34
  8
0
 66
     1
 10
0.0
 20
0.0
 30
0.0
 70
   128
  0
VERTEX
  5
289
  8
0
 10
2.7349999999999999
 20
-8.2975302873435322
 30
0.0
  0
VERTEX
  5
28A
  8
0
 10
2.7280315334590428
 20
-8.4422714331630502
 30
0.0
  0
VERTEX
  5
28B
  8
0
 10
2.7071616435443508
 20
-8.5862750112811081
 30
0.0
  0
VERTEX
  5
28C
  8
0
 10
2.6724966784311199
 20
-8.728807212472196
 30
0.0
  0
VERTEX
  5
28D
  8
0
 10
2.6242132828356501
 20
-8.8691417253103424
 30
0.0
  0
VERTEX
  5
28E
  8
0
 10
2.5625574978743471
 20
-9.0065634372856724
 30
0.0
  0
VERTEX
  5
28F
  8
0
 10
2.4878435072946061
 20
-9.1403720788538365
 30
0.0
  0
VERTEX
  5
290
  8
0
 10
2.400452036466441
 20
-9.269885791849088
 30
0.0
  0
VERTEX
  5
291
  8
0
 10
2.3008284122932778
 20
-9.3944446040771972
 30
0.0
  0
VERTEX
  5
292
  8
0
 10
2.1894802939281228
 20
-9.5134137923824902
 30
0.0
  0
VERTEX
  5
293
  8
0
 10
2.0669750858588931
 20
-9.6261871170515398
 30
0.0
  0
VERTEX
  5
294
  8
0
 10
1.9339370465452039
 20
-9.7321899110717851
 30
0.0
  0
VERTEX
  5
295
  8
0
 10
1.79104410734035
 20
-9.8308820085029218
 30
0.0
  0
VERTEX
  5
296
  8
0
 10
1.639024417908528
 20
-9.9217604970386883
 30
0.0
  0
VERTEX
  5
297
  8
0
 10
1.478652635741053
 20
-10.004362280732719
 30
0.0
  0
VERTEX
  5
298
  8
0
 10
1.3107459786793489
 20
-10.07826643982933
 30
0.0
  0
VERTEX
  5
299
  8
0
 10
1.136160060560153
 20
-10.143096375674119
 30
0.0
  0
VERTEX
  5
29A
  8
0
 10
0.9557845312035269
 20
-10.198521729774381
 30
0.0
  0
VERTEX
  5
29B
  8
0
 10
0.7705385429613019
 20
-10.244260067230231
 30
0.0
  0
VERTEX
  5
29C
  8
0
 10
0.5813660669273828
 20
-10.280078315958161
 30
0.0
  0
VERTEX
  5
29D
  8
0
 10
0.3892310826774254
 20
-10.30579395437293
 30
0.0
  0
VERTEX
  5
29E
  8
0
 10
0.1951126660498916
 20
-10.321275941475751
 30
0.0
  0
VERTEX
  5
29F
  8
0
 10
-0.0000000000000098
 20
-10.32644538460911
 30
0.0
  0
VERTEX
  5
2A0
  8
0
 10
-0.1951126660499103
 20
-10.32127594147574
 30
0.0
  0
VERTEX
  5
2A1
  8
0
 10
-0.3892310826774459
 20
-10.30579395437293
 30
0.0
  0
VERTEX
  5
2A2
  8
0
 10
-0.5813660669274015
 20
-10.28007831595815
 30
0.0
  0
VERTEX
  5
2A3
  8
0
 10
-0.7705385429613206
 20
-10.24426006723022
 30
0.0
  0
VERTEX
  5
2A4
  8
0
 10
-0.9557845312035446
 20
-10.19852172977437
 30
0.0
  0
VERTEX
  5
2A5
  8
0
 10
-1.13616006056017
 20
-10.143096375674119
 30
0.0
  0
VERTEX
  5
2A6
  8
0
 10
-1.3107459786793649
 20
-10.07826643982933
 30
0.0
  0
VERTEX
  5
2A7
  8
0
 10
-1.4786526357410681
 20
-10.00436228073271
 30
0.0
  0
VERTEX
  5
2A8
  8
0
 10
-1.639024417908542
 20
-9.9217604970386741
 30
0.0
  0
VERTEX
  5
2A9
  8
0
 10
-1.7910441073403649
 20
-9.8308820085029112
 30
0.0
  0
VERTEX
  5
2AA
  8
0
 10
-1.933937046545215
 20
-9.7321899110717744
 30
0.0
  0
VERTEX
  5
2AB
  8
0
 10
-2.0669750858589051
 20
-9.6261871170515256
 30
0.0
  0
VERTEX
  5
2AC
  8
0
 10
-2.189480293928133
 20
-9.5134137923824778
 30
0.0
  0
VERTEX
  5
2AD
  8
0
 10
-2.3008284122932858
 20
-9.3944446040771865
 30
0.0
  0
VERTEX
  5
2AE
  8
0
 10
-2.400452036466449
 20
-9.269885791849072
 30
0.0
  0
VERTEX
  5
2AF
  8
0
 10
-2.487843507294611
 20
-9.1403720788538223
 30
0.0
  0
VERTEX
  5
2B0
  8
0
 10
-2.5625574978743528
 20
-9.0065634372856582
 30
0.0
  0
VERTEX
  5
2B1
  8
0
 10
-2.6242132828356519
 20
-8.8691417253103264
 30
0.0
  0
VERTEX
  5
2B2
  8
0
 10
-2.672496678431123
 20
-8.7288072124721801
 30
0.0
  0
VERTEX
  5
2B3
  8
0
 10
-2.7071616435443508
 20
-8.5862750112810922
 30
0.0
  0
VERTEX
  5
2B4
  8
0
 10
-2.728031533459041
 20
-8.4422714331630342
 30
0.0
  0
VERTEX
  5
2B5
  8
0
 10
-2.734999999999995
 20
-8.2975302873435162
 30
0.0
  0
VERTEX
  5
2B6
  8
0
 10
-2.734999999999999
 20
-8.2975302873435322
 30
0.0
  0
SEQEND
  5
2B7
  8
0
  0
POLYLINE
  5
35
  8
0
 66
     1
 10
0.0
 20
0.0
 30
0.0
 70
   128
  0
VERTEX
  5
2B8
  8
0
 10
1.0172607231242381
 20
-6.379660261286471
 30
0.0
  0
VERTEX
  5
2B9
  8
0
 10
1.010120667779409
 20
-6.4689137211045313
 30
0.0
  0
VERTEX
  5
2BA
  8
0
 10
0.9888007324707679
 20
-6.5569142579927391
 30
0.0
  0
VERTEX
  5
2BB
  8
0
 10
0.9536002023561742
 20
-6.6424265373127449
 30
0.0
  0
VERTEX
  5
2BC
  8
0
 10
0.9050132157179229
 20
-6.7242501541081241
 30
0.0
  0
VERTEX
  5
2BD
  8
0
 10
0.8437218273444253
 20
-6.8012364841586477
 30
0.0
  0
VERTEX
  5
2BE
  8
0
 10
0.7705864339760682
 20
-6.872304808146521
 30
0.0
  0
VERTEX
  5
2BF
  8
0
 10
0.6866336962209827
 20
-6.9364574825866461
 30
0.0
  0
VERTEX
  5
2C0
  8
0
 10
0.5930421264905786
 20
-6.9927939445542773
 30
0.0
  0
VERTEX
  5
2C1
  8
0
 10
0.491125545268619
 20
-7.0405233536144394
 30
0.0
  0
VERTEX
  5
2C2
  8
0
 10
0.3823146379515618
 20
-7.0789756934880792
 30
0.0
  0
VERTEX
  5
2C3
  8
0
 10
0.268136871161686
 20
-7.1076111776119388
 30
0.0
  0
VERTEX
  5
2C4
  8
0
 10
0.15019505046397
 20
-7.1260278265586807
 30
0.0
  0
VERTEX
  5
2C5
  8
0
 10
0.030144820489352
 20
-7.1339671109468776
 30
0.0
  0
VERTEX
  5
2C6
  8
0
 10
-0.0903285766866757
 20
-7.1313175806268516
 30
0.0
  0
VERTEX
  5
2C7
  8
0
 10
-0.2095339586487057
 20
-7.1181164291964514
 30
0.0
  0
VERTEX
  5
2C8
  8
0
 10
-0.3257979431354085
 20
-7.0945489718844756
 30
0.0
  0
VERTEX
  5
2C9
  8
0
 10
-0.4374884386583889
 20
-7.060946044131085
 30
0.0
  0
VERTEX
  5
2CA
  8
0
 10
-0.5430375554890903
 20
-7.01777935738341
 30
0.0
  0
VERTEX
  5
2CB
  8
0
 10
-0.6409636153937273
 20
-6.9656548773008442
 30
0.0
  0
VERTEX
  5
2CC
  8
0
 10
-0.729891951147808
 20
-6.9053043173254753
 30
0.0
  0
VERTEX
  5
2CD
  8
0
 10
-0.8085742038506626
 20
-6.8375748670292982
 30
0.0
  0
VERTEX
  5
2CE
  8
0
 10
-0.8759058471479682
 20
-6.7634172994296904
 30
0.0
  0
VERTEX
  5
2CF
  8
0
 10
-0.9309416923606121
 20
-6.6838726242203501
 30
0.0
  0
VERTEX
  5
2D0
  8
0
 10
-0.9729091568618689
 20
-6.6000574742771452
 30
0.0
  0
VERTEX
  5
2D1
  8
0
 10
-1.0012191094439591
 20
-6.5131484305802001
 30
0.0
  0
VERTEX
  5
2D2
  8
0
 10
-1.015474140428811
 20
-6.424365505596044
 30
0.0
  0
VERTEX
  5
2D3
  8
0
 10
-1.0154741404288099
 20
-6.3349550169768882
 30
0.0
  0
VERTEX
  5
2D4
  8
0
 10
-1.001219109443956
 20
-6.2461720919927339
 30
0.0
  0
VERTEX
  5
2D5
  8
0
 10
-0.9729091568618652
 20
-6.1592630482957871
 30
0.0
  0
VERTEX
  5
2D6
  8
0
 10
-0.9309416923606059
 20
-6.0754478983525821
 30
0.0
  0
VERTEX
  5
2D7
  8
0
 10
-0.8759058471479611
 20
-5.9959032231432463
 30
0.0
  0
VERTEX
  5
2D8
  8
0
 10
-0.8085742038506538
 20
-5.9217456555436341
 30
0.0
  0
VERTEX
  5
2D9
  8
0
 10
-0.7298919511477982
 20
-5.8540162052474614
 30
0.0
  0
VERTEX
  5
2DA
  8
0
 10
-0.6409636153937158
 20
-5.7936656452720943
 30
0.0
  0
VERTEX
  5
2DB
  8
0
 10
-0.543037555489078
 20
-5.7415411651895267
 30
0.0
  0
VERTEX
  5
2DC
  8
0
 10
-0.4374884386583755
 20
-5.6983744784418544
 30
0.0
  0
VERTEX
  5
2DD
  8
0
 10
-0.4249999999999999
 20
-5.694038019684073
 30
0.0
  0
SEQEND
  5
2DE
  8
0
  0
POLYLINE
  5
36
  8
0
 66
     1
 10
0.0
 20
0.0
 30
0.0
 70
   128
  0
VERTEX
  5
2DF
  8
0
 10
0.4250000000000007
 20
-5.694038019684073
 30
0.0
  0
VERTEX
  5
2E0
  8
0
 10
0.4911255452686314
 20
-5.7187971689585106
 30
0.0
  0
VERTEX
  5
2E1
  8
0
 10
0.5930421264905892
 20
-5.766526578018671
 30
0.0
  0
VERTEX
  5
2E2
  8
0
 10
0.6866336962209916
 20
-5.8228630399863048
 30
0.0
  0
VERTEX
  5
2E3
  8
0
 10
0.7705864339760771
 20
-5.8870157144264299
 30
0.0
  0
VERTEX
  5
2E4
  8
0
 10
0.8437218273444334
 20
-5.9580840384143041
 30
0.0
  0
VERTEX
  5
2E5
  8
0
 10
0.9050132157179283
 20
-6.0350703684648286
 30
0.0
  0
VERTEX
  5
2E6
  8
0
 10
0.9536002023561769
 20
-6.1168939852602078
 30
0.0
  0
VERTEX
  5
2E7
  8
0
 10
0.9888007324707697
 20
-6.2024062645802127
 30
0.0
  0
VERTEX
  5
2E8
  8
0
 10
1.010120667779409
 20
-6.2904068014684231
 30
0.0
  0
VERTEX
  5
2E9
  8
0
 10
1.0172607231242381
 20
-6.379660261286471
 30
0.0
  0
SEQEND
  5
2EA
  8
0
  0
POLYLINE
  5
37
  8
0
 66
     1
 10
0.0
 20
0.0
 30
0.0
 70
   128
  0
VERTEX
  5
2EB
  8
0
 10
1.0172607231242381
 20
-6.9807634221268708
 30
0.0
  0
VERTEX
  5
2EC
  8
0
 10
1.010120667779409
 20
-7.0700168819449321
 30
0.0
  0
VERTEX
  5
2ED
  8
0
 10
0.9888007324707679
 20
-7.1580174188331389
 30
0.0
  0
VERTEX
  5
2EE
  8
0
 10
0.9536002023561742
 20
-7.2435296981531456
 30
0.0
  0
VERTEX
  5
2EF
  8
0
 10
0.9050132157179229
 20
-7.3253533149485248
 30
0.0
  0
VERTEX
  5
2F0
  8
0
 10
0.8437218273444263
 20
-7.4023396449990493
 30
0.0
  0
VERTEX
  5
2F1
  8
0
 10
0.7705864339760682
 20
-7.4734079689869217
 30
0.0
  0
VERTEX
  5
2F2
  8
0
 10
0.6866336962209827
 20
-7.5375606434270468
 30
0.0
  0
VERTEX
  5
2F3
  8
0
 10
0.5930421264905786
 20
-7.5938971053946771
 30
0.0
  0
VERTEX
  5
2F4
  8
0
 10
0.491125545268619
 20
-7.6416265144548383
 30
0.0
  0
VERTEX
  5
2F5
  8
0
 10
0.3823146379515618
 20
-7.680078854328479
 30
0.0
  0
VERTEX
  5
2F6
  8
0
 10
0.268136871161686
 20
-7.7087143384523404
 30
0.0
  0
VERTEX
  5
2F7
  8
0
 10
0.15019505046397
 20
-7.7271309873990823
 30
0.0
  0
VERTEX
  5
2F8
  8
0
 10
0.030144820489352
 20
-7.7350702717872792
 30
0.0
  0
VERTEX
  5
2F9
  8
0
 10
-0.0903285766866757
 20
-7.7324207414672532
 30
0.0
  0
VERTEX
  5
2FA
  8
0
 10
-0.2095339586487057
 20
-7.7192195900368521
 30
0.0
  0
VERTEX
  5
2FB
  8
0
 10
-0.3257979431354077
 20
-7.6956521327248772
 30
0.0
  0
VERTEX
  5
2FC
  8
0
 10
-0.4374884386583889
 20
-7.6620492049714857
 30
0.0
  0
VERTEX
  5
2FD
  8
0
 10
-0.5430375554890903
 20
-7.6188825182238089
 30
0.0
  0
VERTEX
  5
2FE
  8
0
 10
-0.6409636153937273
 20
-7.566758038141244
 30
0.0
  0
VERTEX
  5
2FF
  8
0
 10
-0.729891951147808
 20
-7.5064074781658761
 30
0.0
  0
VERTEX
  5
300
  8
0
 10
-0.8085742038506626
 20
-7.4386780278696998
 30
0.0
  0
VERTEX
  5
301
  8
0
 10
-0.8759058471479682
 20
-7.3645204602700911
 30
0.0
  0
VERTEX
  5
302
  8
0
 10
-0.9309416923606121
 20
-7.2849757850607526
 30
0.0
  0
VERTEX
  5
303
  8
0
 10
-0.9729091568618689
 20
-7.2011606351175468
 30
0.0
  0
VERTEX
  5
304
  8
0
 10
-1.0012191094439591
 20
-7.1142515914205999
 30
0.0
  0
VERTEX
  5
305
  8
0
 10
-1.015474140428811
 20
-7.0254686664364447
 30
0.0
  0
VERTEX
  5
306
  8
0
 10
-1.017260723124237
 20
-6.9807634221268691
 30
0.0
  0
SEQEND
  5
307
  8
0
  0
POLYLINE
  5
38
  8
0
 66
     1
 10
0.0
 20
0.0
 30
0.0
 70
   128
  0
VERTEX
  5
308
  8
0
 10
1.2902311058680129
 20
-7.2313018462838388
 30
0.0
  0
VERTEX
  5
309
  8
0
 10
1.2831630848709601
 20
-7.3313498935962356
 30
0.0
  0
VERTEX
  5
30A
  8
0
 10
1.2620364605969221
 20
-7.4303017935658806
 30
0.0
  0
VERTEX
  5
30B
  8
0
 10
1.2270827007624761
 20
-7.5270734084696862
 30
0.0
  0
VERTEX
  5
30C
  8
0
 10
1.1786847660749129
 20
-7.6206044882440054
 30
0.0
  0
VERTEX
  5
30D
  8
0
 10
1.1173729144345881
 20
-7.7098702868061908
 30
0.0
  0
VERTEX
  5
30E
  8
0
 10
1.0438188913184021
 20
-7.793892789387133
 30
0.0
  0
VERTEX
  5
30F
  8
0
 10
0.9588285699957888
 20
-7.8717514278657079
 30
0.0
  0
VERTEX
  5
310
  8
0
 10
0.8633331222125217
 20
-7.9425931667057847
 30
0.0
  0
VERTEX
  5
311
  8
0
 10
0.758378816078225
 20
-8.0056418489920382
 30
0.0
  0
VERTEX
  5
312
  8
0
 10
0.6451155529340049
 20
-8.0602067001675586
 30
0.0
  0
VERTEX
  5
313
  8
0
 10
0.5247842687927307
 20
-8.1056898963044368
 30
0.0
  0
VERTEX
  5
314
  8
0
 10
0.3987033383843945
 20
-8.1415931139878222
 30
0.0
  0
VERTEX
  5
315
  8
0
 10
0.2682541307666826
 20
-8.1675229900515554
 30
0.0
  0
VERTEX
  5
316
  8
0
 10
0.1348658747565041
 20
-8.1831954313472952
 30
0.0
  0
VERTEX
  5
317
  8
0
 10
-0.0000000000000036
 20
-8.1884387273285437
 30
0.0
  0
VERTEX
  5
318
  8
0
 10
-0.134865874756513
 20
-8.1831954313472952
 30
0.0
  0
VERTEX
  5
319
  8
0
 10
-0.2682541307666906
 20
-8.1675229900515536
 30
0.0
  0
VERTEX
  5
31A
  8
0
 10
-0.3987033383844025
 20
-8.1415931139878222
 30
0.0
  0
VERTEX
  5
31B
  8
0
 10
-0.5247842687927387
 20
-8.105689896304435
 30
0.0
  0
VERTEX
  5
31C
  8
0
 10
-0.6451155529340112
 20
-8.060206700167555
 30
0.0
  0
VERTEX
  5
31D
  8
0
 10
-0.7583788160782321
 20
-8.0056418489920365
 30
0.0
  0
VERTEX
  5
31E
  8
0
 10
-0.8633331222125288
 20
-7.9425931667057803
 30
0.0
  0
VERTEX
  5
31F
  8
0
 10
-0.9588285699957941
 20
-7.8717514278657053
 30
0.0
  0
VERTEX
  5
320
  8
0
 10
-1.043818891318409
 20
-7.7938927893871268
 30
0.0
  0
VERTEX
  5
321
  8
0
 10
-1.117372914434591
 20
-7.7098702868061864
 30
0.0
  0
VERTEX
  5
322
  8
0
 10
-1.178684766074916
 20
-7.6206044882439983
 30
0.0
  0
VERTEX
  5
323
  8
0
 10
-1.2270827007624781
 20
-7.5270734084696791
 30
0.0
  0
VERTEX
  5
324
  8
0
 10
-1.2620364605969221
 20
-7.4303017935658744
 30
0.0
  0
VERTEX
  5
325
  8
0
 10
-1.2831630848709601
 20
-7.3313498935962294
 30
0.0
  0
VERTEX
  5
326
  8
0
 10
-1.2902311058680129
 20
-7.2313018462838317
 30
0.0
  0
VERTEX
  5
327
  8
0
 10
-1.2831630848709581
 20
-7.1312537989714331
 30
0.0
  0
VERTEX
  5
328
  8
0
 10
-1.2620364605969181
 20
-7.0323018990017898
 30
0.0
  0
VERTEX
  5
329
  8
0
 10
-1.2270827007624709
 20
-6.9355302840979851
 30
0.0
  0
VERTEX
  5
32A
  8
0
 10
-1.178684766074908
 20
-6.8419992043236659
 30
0.0
  0
VERTEX
  5
32B
  8
0
 10
-1.1173729144345821
 20
-6.7527334057614761
 30
0.0
  0
VERTEX
  5
32C
  8
0
 10
-1.043818891318397
 20
-6.6687109031805392
 30
0.0
  0
VERTEX
  5
32D
  8
0
 10
-1.017260723124237
 20
-6.642547137803402
 30
0.0
  0
SEQEND
  5
32E
  8
0
  0
POLYLINE
  5
39
  8
0
 66
     1
 10
0.0
 20
0.0
 30
0.0
 70
   128
  0
VERTEX
  5
32F
  8
0
 10
1.0172607231242381
 20
-6.642547137803402
 30
0.0
  0
VERTEX
  5
330
  8
0
 10
1.0438188913184121
 20
-6.6687109031805551
 30
0.0
  0
VERTEX
  5
331
  8
0
 10
1.1173729144345961
 20
-6.7527334057614938
 30
0.0
  0
VERTEX
  5
332
  8
0
 10
1.178684766074918
 20
-6.8419992043236837
 30
0.0
  0
VERTEX
  5
333
  8
0
 10
1.2270827007624809
 20
-6.9355302840980029
 30
0.0
  0
VERTEX
  5
334
  8
0
 10
1.262036460596923
 20
-7.0323018990018076
 30
0.0
  0
VERTEX
  5
335
  8
0
 10
1.2831630848709601
 20
-7.1312537989714526
 30
0.0
  0
VERTEX
  5
336
  8
0
 10
1.2902311058680129
 20
-7.2313018462838388
 30
0.0
  0
SEQEND
  5
337
  8
0
  0
LINE
  5
3A
  8
0
 10
-0.75
 20
-3.3070000000044431
 30
0.0
 11
-0.4249999999999999
 21
-3.3070000000044462
 31
0.0
  0
LINE
  5
3B
  8
0
 10
0.4250000000000007
 20
-3.3070000000044462
 30
0.0
 11
0.7500000000000009
 21
-3.3070000000044431
 31
0.0
  0
LINE
  5
3C
  8
0
 10
-0.4249999999999999
 20
-2.7299685169252341
 30
0.0
 11
0.4250000000000007
 21
-2.7299685169252341
 31
0.0
  0
POLYLINE
  5
3D
  8
0
 66
     1
 10
0.0
 20
0.0
 30
0.0
 70
   128
  0
VERTEX
  5
338
  8
0
 10
-0.4249999999999999
 20
-5.1198149380403404
 30
0.0
  0
VERTEX
  5
339
  8
0
 10
-0.4177635673656584
 20
-5.175035413327679
 30
0.0
  0
VERTEX
  5
33A
  8
0
 10
-0.3963006974968506
 20
-5.2283754215587663
 30
0.0
  0
VERTEX
  5
33B
  8
0
 10
-0.3613422826850847
 20
-5.2780185327275841
 30
0.0
  0
VERTEX
  5
33C
  8
0
 10
-0.3140787898187787
 20
-5.3222742102236253
 30
0.0
  0
VERTEX
  5
33D
  8
0
 10
-0.2561197204611831
 20
-5.359635380028597
 30
0.0
  0
VERTEX
  5
33E
  8
0
 10
-0.1894388012050276
 20
-5.3888297523145763
 30
0.0
  0
VERTEX
  5
33F
  8
0
 10
-0.1163067707806329
 20
-5.4088631477481508
 30
0.0
  0
VERTEX
  5
340
  8
0
 10
-0.0392140527719018
 20
-5.4190533530752427
 30
0.0
  0
VERTEX
  5
341
  8
0
 10
0.0392140527719063
 20
-5.4190533530752427
 30
0.0
  0
VERTEX
  5
342
  8
0
 10
0.1163067707806373
 20
-5.4088631477481508
 30
0.0
  0
VERTEX
  5
343
  8
0
 10
0.1894388012050303
 20
-5.3888297523145718
 30
0.0
  0
VERTEX
  5
344
  8
0
 10
0.2561197204611858
 20
-5.3596353800285961
 30
0.0
  0
VERTEX
  5
345
  8
0
 10
0.3140787898187813
 20
-5.3222742102236227
 30
0.0
  0
VERTEX
  5
346
  8
0
 10
0.3613422826850883
 20
-5.2780185327275824
 30
0.0
  0
VERTEX
  5
347
  8
0
 10
0.3963006974968524
 20
-5.2283754215587637
 30
0.0
  0
VERTEX
  5
348
  8
0
 10
0.4177635673656593
 20
-5.1750354133276772
 30
0.0
  0
VERTEX
  5
349
  8
0
 10
0.4250000000000007
 20
-5.1198149380403377
 30
0.0
  0
VERTEX
  5
34A
  8
0
 10
0.4250000000000007
 20
-5.1198149380403404
 30
0.0
  0
SEQEND
  5
34B
  8
0
  0
ATTDEF
  5
3E
  8
0
 62
     7
 10
0.0
 20
0.0
 30
0.0
 40
0.001
  1
K-T948-4
  3

  2
MODELNUMBER
 70
     8
  0
ATTDEF
  5
40
  8
0
 62
     7
 10
0.0
 20
-0.0017
 30
0.0
 40
0.001
  1
Stillness
  3

  2
TRADENAME
 70
     8
  0
ATTDEF
  5
41
  8
0
 62
     7
 10
0.0
 20
-0.0034
 30
0.0
 40
0.001
  1
Faucets
  3

  2
PRODUCT
 70
     8
  0
ATTDEF
  5
42
  8
0
 62
     7
 10
0.0
 20
-0.0051
 30
0.0
 40
0.001
  1
Brass
  3

  2
MATERIAL
 70
     8
  0
ENDSEC
  0
EOF
