  0
SECTION
  2
HEADER
  9
$ACADVER
  1
AC1009
  9
$INSBASE
 10
0.0
 20
0.0
 30
0.0
  9
$EXTMIN
 10
-3.2612174692607701
 20
-4.3964184603859726
 30
-0.0000000002757845
  9
$EXTMAX
 10
3.2563426082759288
 20
0.0019727254765201
 30
0.0000000021133424
  9
$LIMMIN
 10
0.0
 20
0.0
  9
$LIMMAX
 10
12.0
 20
9.0
  9
$ORTHOMODE
 70
     0
  9
$REGENMODE
 70
     1
  9
$FILLMODE
 70
     1
  9
$QTEXTMODE
 70
     0
  9
$MIRRTEXT
 70
     1
  9
$DRAGMODE
 70
     2
  9
$LTSCALE
 40
1.0
  9
$OSMODE
 70
    37
  9
$ATTMODE
 70
     1
  9
$TEXTSIZE
 40
0.001
  9
$TRACEWID
 40
0.05
  9
$TEXTSTYLE
  7
STANDARD
  9
$CLAYER
  8
0
  9
$CELTYPE
  6
BYLAYER
  9
$CECOLOR
 62
   256
  9
$DIMSCALE
 40
1.0
  9
$DIMASZ
 40
0.18
  9
$DIMEXO
 40
0.0625
  9
$DIMDLI
 40
0.38
  9
$DIMRND
 40
0.0
  9
$DIMDLE
 40
0.0
  9
$DIMEXE
 40
0.18
  9
$DIMTP
 40
0.0
  9
$DIMTM
 40
0.0
  9
$DIMTXT
 40
0.18
  9
$DIMCEN
 40
0.09
  9
$DIMTSZ
 40
0.0
  9
$DIMTOL
 70
     0
  9
$DIMLIM
 70
     0
  9
$DIMTIH
 70
     1
  9
$DIMTOH
 70
     1
  9
$DIMSE1
 70
     0
  9
$DIMSE2
 70
     0
  9
$DIMTAD
 70
     0
  9
$DIMZIN
 70
     0
  9
$DIMBLK
  1

  9
$DIMASO
 70
     1
  9
$DIMSHO
 70
     1
  9
$DIMPOST
  1

  9
$DIMAPOST
  1

  9
$DIMALT
 70
     0
  9
$DIMALTD
 70
     2
  9
$DIMALTF
 40
25.399999999999999
  9
$DIMLFAC
 40
1.0
  9
$DIMTOFL
 70
     0
  9
$DIMTVP
 40
0.0
  9
$DIMTIX
 70
     0
  9
$DIMSOXD
 70
     0
  9
$DIMSAH
 70
     0
  9
$DIMBLK1
  1

  9
$DIMBLK2
  1

  9
$DIMSTYLE
  2
STANDARD
  9
$DIMCLRD
 70
     0
  9
$DIMCLRE
 70
     0
  9
$DIMCLRT
 70
     0
  9
$DIMTFAC
 40
1.0
  9
$DIMGAP
 40
0.09
  9
$LUNITS
 70
     2
  9
$LUPREC
 70
     4
  9
$SKETCHINC
 40
0.1
  9
$FILLETRAD
 40
0.0
  9
$AUNITS
 70
     0
  9
$AUPREC
 70
     0
  9
$MENU
  1
.
  9
$ELEVATION
 40
0.0
  9
$PELEVATION
 40
0.0
  9
$THICKNESS
 40
0.0
  9
$LIMCHECK
 70
     0
  9
$BLIPMODE
 70
     0
  9
$CHAMFERA
 40
0.5
  9
$CHAMFERB
 40
0.5
  9
$SKPOLY
 70
     0
  9
$TDCREATE
 40
2451380.5970990621
  9
$TDUPDATE
 40
2456476.511128067
  9
$TDINDWG
 40
0.1513446181
  9
$TDUSRTIMER
 40
0.1513355787
  9
$USRTIMER
 70
     1
  9
$ANGBASE
 50
0.0
  9
$ANGDIR
 70
     0
  9
$PDMODE
 70
     0
  9
$PDSIZE
 40
0.0
  9
$PLINEWID
 40
0.0
  9
$COORDS
 70
     1
  9
$SPLFRAME
 70
     0
  9
$SPLINETYPE
 70
     6
  9
$SPLINESEGS
 70
     8
  9
$ATTDIA
 70
     0
  9
$ATTREQ
 70
     1
  9
$HANDLING
 70
     1
  9
$HANDSEED
  5
FFD
  9
$SURFTAB1
 70
     6
  9
$SURFTAB2
 70
     6
  9
$SURFTYPE
 70
     6
  9
$SURFU
 70
     6
  9
$SURFV
 70
     6
  9
$UCSNAME
  2

  9
$UCSORG
 10
0.0
 20
0.0
 30
0.0
  9
$UCSXDIR
 10
1.0
 20
0.0
 30
0.0
  9
$UCSYDIR
 10
0.0
 20
1.0
 30
0.0
  9
$PUCSNAME
  2

  9
$PUCSORG
 10
0.0
 20
0.0
 30
0.0
  9
$PUCSXDIR
 10
1.0
 20
0.0
 30
0.0
  9
$PUCSYDIR
 10
0.0
 20
1.0
 30
0.0
  9
$USERI1
 70
     0
  9
$USERI2
 70
     0
  9
$USERI3
 70
     0
  9
$USERI4
 70
     0
  9
$USERI5
 70
     0
  9
$USERR1
 40
0.0
  9
$USERR2
 40
0.0
  9
$USERR3
 40
0.0
  9
$USERR4
 40
0.0
  9
$USERR5
 40
0.0
  9
$WORLDVIEW
 70
     1
  9
$SHADEDGE
 70
     3
  9
$SHADEDIF
 70
    70
  9
$TILEMODE
 70
     1
  9
$MAXACTVP
 70
    64
  9
$PLIMCHECK
 70
     0
  9
$PEXTMIN
 10
1.0000000000000000E+020
 20
1.0000000000000000E+020
 30
1.0000000000000000E+020
  9
$PEXTMAX
 10
-1.0000000000000000E+020
 20
-1.0000000000000000E+020
 30
-1.0000000000000000E+020
  9
$PLIMMIN
 10
0.0
 20
0.0
  9
$PLIMMAX
 10
12.0
 20
9.0
  9
$UNITMODE
 70
     0
  9
$VISRETAIN
 70
     1
  9
$PLINEGEN
 70
     0
  9
$PSLTSCALE
 70
     1
  0
ENDSEC
  0
SECTION
  2
TABLES
  0
TABLE
  2
VPORT
 70
     1
  0
VPORT
  2
*ACTIVE
 70
     0
 10
0.0
 20
0.0
 11
1.0
 21
1.0
 12
-0.0024374304924213
 22
-2.1972228674547258
 13
0.0
 23
0.0
 14
0.5
 24
0.5
 15
0.5
 25
0.5
 16
0.0
 26
0.0
 36
1.0
 17
0.0
 27
0.0
 37
0.0
 40
4.4255977292801996
 41
1.9762641898864799
 42
50.0
 43
0.0
 44
0.0
 50
0.0
 51
0.0
 71
     0
 72
  5000
 73
     1
 74
     1
 75
     0
 76
     0
 77
     0
 78
     0
  0
ENDTAB
  0
TABLE
  2
LTYPE
 70
     2
  0
LTYPE
  2
CONTINUOUS
 70
     0
  3
Solid line
 72
    65
 73
     0
 40
0.0
  0
LTYPE
  2
PHANTOM2
 70
     0
  3
Phantom (.5x) ___ _ _ ___ _ _ ___ _ _ ___ _ _
 72
    65
 73
     6
 40
1.25
 49
0.625
 49
-0.125
 49
0.125
 49
-0.125
 49
0.125
 49
-0.125
  0
ENDTAB
  0
TABLE
  2
LAYER
 70
     2
  0
LAYER
  2
0
 70
     0
 62
     7
  6
CONTINUOUS
  0
LAYER
  2
DEFPOINTS
 70
     0
 62
     7
  6
CONTINUOUS
  0
ENDTAB
  0
TABLE
  2
STYLE
 70
     1
  0
STYLE
  2
STANDARD
 70
     0
 40
0.0
 41
1.0
 50
0.0
 71
     0
 42
0.001
  3
txt
  4

  0
ENDTAB
  0
TABLE
  2
VIEW
 70
     0
  0
ENDTAB
  0
TABLE
  2
UCS
 70
     0
  0
ENDTAB
  0
TABLE
  2
APPID
 70
     4
  0
APPID
  2
ACAD
 70
     0
  0
APPID
  2
ACAD_NAV_VCDISPLAY
 70
     0
  0
APPID
  2
AcDbAttr
 70
     0
  0
APPID
  2
ACAD_MLEADERVER
 70
     0
  0
ENDTAB
  0
TABLE
  2
DIMSTYLE
 70
     1
  0
DIMSTYLE
  2
STANDARD
 70
     0
  3

  4

  5

  6

  7

 40
1.0
 41
0.18
 42
0.0625
 43
0.38
 44
0.18
 45
0.0
 46
0.0
 47
0.0
 48
0.0
140
0.18
141
0.09
142
0.0
143
25.399999999999999
144
1.0
145
0.0
146
1.0
147
0.09
 71
     0
 72
     0
 73
     1
 74
     1
 75
     0
 76
     0
 77
     0
 78
     0
170
     0
171
     2
172
     0
173
     0
174
     0
175
     0
176
     0
177
     0
178
     0
  0
ENDTAB
  0
ENDSEC
  0
SECTION
  2
BLOCKS
  0
BLOCK
  8
0
  2
$MODEL_SPACE
 70
     2
 10
0.0
 20
0.0
 30
0.0
  3
$MODEL_SPACE
  1

  0
ENDBLK
  5
16
  8
0
  0
BLOCK
 67
     1
  8
0
  2
$PAPER_SPACE
 70
     0
 10
0.0
 20
0.0
 30
0.0
  3
$PAPER_SPACE
  1

  0
ENDBLK
  5
1D
 67
     1
  8
0
  0
ENDSEC
  0
SECTION
  2
ENTITIES
  0
POLYLINE
  8
0
  5
18D
  66
     1
 10
0.000000
 20
0.000000
 30
0.000000
  70
     8
  0
VERTEX
  8
0
  5
18E
 10
3.17848
 20
-0.738933
 30
0.000000
  70
    32
  0
VERTEX
  8
0
  5
18F
 10
3.17927
 20
-0.738809
 30
0.000000
  70
    32
  0
VERTEX
  8
0
  5
190
 10
3.18006
 20
-0.738677
 30
0.000000
  70
    32
  0
VERTEX
  8
0
  5
191
 10
3.18084
 20
-0.738535
 30
0.000000
  70
    32
  0
VERTEX
  8
0
  5
192
 10
3.18163
 20
-0.738385
 30
0.000000
  70
    32
  0
VERTEX
  8
0
  5
193
 10
3.18241
 20
-0.738227
 30
0.000000
  70
    32
  0
VERTEX
  8
0
  5
194
 10
3.18318
 20
-0.738060
 30
0.000000
  70
    32
  0
VERTEX
  8
0
  5
195
 10
3.18395
 20
-0.737885
 30
0.000000
  70
    32
  0
VERTEX
  8
0
  5
196
 10
3.18472
 20
-0.737702
 30
0.000000
  70
    32
  0
VERTEX
  8
0
  5
197
 10
3.18549
 20
-0.737510
 30
0.000000
  70
    32
  0
VERTEX
  8
0
  5
198
 10
3.18625
 20
-0.737310
 30
0.000000
  70
    32
  0
VERTEX
  8
0
  5
199
 10
3.18701
 20
-0.737102
 30
0.000000
  70
    32
  0
VERTEX
  8
0
  5
19A
 10
3.18776
 20
-0.736886
 30
0.000000
  70
    32
  0
VERTEX
  8
0
  5
19B
 10
3.18851
 20
-0.736662
 30
0.000000
  70
    32
  0
VERTEX
  8
0
  5
19C
 10
3.18926
 20
-0.736430
 30
0.000000
  70
    32
  0
VERTEX
  8
0
  5
19D
 10
3.19000
 20
-0.736190
 30
0.000000
  70
    32
  0
VERTEX
  8
0
  5
19E
 10
3.19074
 20
-0.735942
 30
0.000000
  70
    32
  0
VERTEX
  8
0
  5
19F
 10
3.19148
 20
-0.735686
 30
0.000000
  70
    32
  0
VERTEX
  8
0
  5
1A0
 10
3.19221
 20
-0.735422
 30
0.000000
  70
    32
  0
VERTEX
  8
0
  5
1A1
 10
3.19293
 20
-0.735150
 30
0.000000
  70
    32
  0
VERTEX
  8
0
  5
1A2
 10
3.19366
 20
-0.734871
 30
0.000000
  70
    32
  0
VERTEX
  8
0
  5
1A3
 10
3.19438
 20
-0.734584
 30
0.000000
  70
    32
  0
VERTEX
  8
0
  5
1A4
 10
3.19509
 20
-0.734290
 30
0.000000
  70
    32
  0
VERTEX
  8
0
  5
1A5
 10
3.19580
 20
-0.733988
 30
0.000000
  70
    32
  0
VERTEX
  8
0
  5
1A6
 10
3.19651
 20
-0.733679
 30
0.000000
  70
    32
  0
VERTEX
  8
0
  5
1A7
 10
3.19721
 20
-0.733362
 30
0.000000
  70
    32
  0
VERTEX
  8
0
  5
1A8
 10
3.19791
 20
-0.733038
 30
0.000000
  70
    32
  0
VERTEX
  8
0
  5
1A9
 10
3.19860
 20
-0.732706
 30
0.000000
  70
    32
  0
VERTEX
  8
0
  5
1AA
 10
3.19929
 20
-0.732367
 30
0.000000
  70
    32
  0
VERTEX
  8
0
  5
1AB
 10
3.19997
 20
-0.732021
 30
0.000000
  70
    32
  0
VERTEX
  8
0
  5
1AC
 10
3.20065
 20
-0.731668
 30
0.000000
  70
    32
  0
VERTEX
  8
0
  5
1AD
 10
3.20133
 20
-0.731308
 30
0.000000
  70
    32
  0
VERTEX
  8
0
  5
1AE
 10
3.20200
 20
-0.730940
 30
0.000000
  70
    32
  0
VERTEX
  8
0
  5
1AF
 10
3.20266
 20
-0.730566
 30
0.000000
  70
    32
  0
VERTEX
  8
0
  5
1B0
 10
3.20332
 20
-0.730184
 30
0.000000
  70
    32
  0
VERTEX
  8
0
  5
1B1
 10
3.20398
 20
-0.729796
 30
0.000000
  70
    32
  0
VERTEX
  8
0
  5
1B2
 10
3.20463
 20
-0.729401
 30
0.000000
  70
    32
  0
VERTEX
  8
0
  5
1B3
 10
3.20528
 20
-0.728999
 30
0.000000
  70
    32
  0
VERTEX
  8
0
  5
1B4
 10
3.20592
 20
-0.728590
 30
0.000000
  70
    32
  0
VERTEX
  8
0
  5
1B5
 10
3.20656
 20
-0.728175
 30
0.000000
  70
    32
  0
VERTEX
  8
0
  5
1B6
 10
3.20719
 20
-0.727753
 30
0.000000
  70
    32
  0
VERTEX
  8
0
  5
1B7
 10
3.20781
 20
-0.727324
 30
0.000000
  70
    32
  0
VERTEX
  8
0
  5
1B8
 10
3.20844
 20
-0.726889
 30
0.000000
  70
    32
  0
VERTEX
  8
0
  5
1B9
 10
3.20905
 20
-0.726447
 30
0.000000
  70
    32
  0
VERTEX
  8
0
  5
1BA
 10
3.20966
 20
-0.725999
 30
0.000000
  70
    32
  0
VERTEX
  8
0
  5
1BB
 10
3.21027
 20
-0.725544
 30
0.000000
  70
    32
  0
VERTEX
  8
0
  5
1BC
 10
3.21087
 20
-0.725083
 30
0.000000
  70
    32
  0
VERTEX
  8
0
  5
1BD
 10
3.21146
 20
-0.724616
 30
0.000000
  70
    32
  0
VERTEX
  8
0
  5
1BE
 10
3.21205
 20
-0.724143
 30
0.000000
  70
    32
  0
VERTEX
  8
0
  5
1BF
 10
3.21264
 20
-0.723663
 30
0.000000
  70
    32
  0
VERTEX
  8
0
  5
1C0
 10
3.21322
 20
-0.723177
 30
0.000000
  70
    32
  0
VERTEX
  8
0
  5
1C1
 10
3.21379
 20
-0.722685
 30
0.000000
  70
    32
  0
VERTEX
  8
0
  5
1C2
 10
3.21436
 20
-0.722188
 30
0.000000
  70
    32
  0
VERTEX
  8
0
  5
1C3
 10
3.21492
 20
-0.721684
 30
0.000000
  70
    32
  0
VERTEX
  8
0
  5
1C4
 10
3.21548
 20
-0.721174
 30
0.000000
  70
    32
  0
VERTEX
  8
0
  5
1C5
 10
3.21603
 20
-0.720658
 30
0.000000
  70
    32
  0
VERTEX
  8
0
  5
1C6
 10
3.21657
 20
-0.720137
 30
0.000000
  70
    32
  0
VERTEX
  8
0
  5
1C7
 10
3.21711
 20
-0.719610
 30
0.000000
  70
    32
  0
VERTEX
  8
0
  5
1C8
 10
3.21765
 20
-0.719077
 30
0.000000
  70
    32
  0
VERTEX
  8
0
  5
1C9
 10
3.21817
 20
-0.718538
 30
0.000000
  70
    32
  0
VERTEX
  8
0
  5
1CA
 10
3.21869
 20
-0.717994
 30
0.000000
  70
    32
  0
VERTEX
  8
0
  5
1CB
 10
3.21921
 20
-0.717444
 30
0.000000
  70
    32
  0
VERTEX
  8
0
  5
1CC
 10
3.21972
 20
-0.716889
 30
0.000000
  70
    32
  0
VERTEX
  8
0
  5
1CD
 10
3.22022
 20
-0.716328
 30
0.000000
  70
    32
  0
VERTEX
  8
0
  5
1CE
 10
3.22072
 20
-0.715762
 30
0.000000
  70
    32
  0
VERTEX
  8
0
  5
1CF
 10
3.22121
 20
-0.715191
 30
0.000000
  70
    32
  0
VERTEX
  8
0
  5
1D0
 10
3.22170
 20
-0.714614
 30
0.000000
  70
    32
  0
VERTEX
  8
0
  5
1D1
 10
3.22218
 20
-0.714032
 30
0.000000
  70
    32
  0
VERTEX
  8
0
  5
1D2
 10
3.22265
 20
-0.713444
 30
0.000000
  70
    32
  0
VERTEX
  8
0
  5
1D3
 10
3.22311
 20
-0.712852
 30
0.000000
  70
    32
  0
VERTEX
  8
0
  5
1D4
 10
3.22357
 20
-0.712255
 30
0.000000
  70
    32
  0
VERTEX
  8
0
  5
1D5
 10
3.22403
 20
-0.711652
 30
0.000000
  70
    32
  0
VERTEX
  8
0
  5
1D6
 10
3.22447
 20
-0.711045
 30
0.000000
  70
    32
  0
VERTEX
  8
0
  5
1D7
 10
3.22491
 20
-0.710432
 30
0.000000
  70
    32
  0
VERTEX
  8
0
  5
1D8
 10
3.22535
 20
-0.709815
 30
0.000000
  70
    32
  0
VERTEX
  8
0
  5
1D9
 10
3.22577
 20
-0.709193
 30
0.000000
  70
    32
  0
VERTEX
  8
0
  5
1DA
 10
3.22619
 20
-0.708566
 30
0.000000
  70
    32
  0
VERTEX
  8
0
  5
1DB
 10
3.22661
 20
-0.707934
 30
0.000000
  70
    32
  0
VERTEX
  8
0
  5
1DC
 10
3.22701
 20
-0.707298
 30
0.000000
  70
    32
  0
VERTEX
  8
0
  5
1DD
 10
3.22741
 20
-0.706657
 30
0.000000
  70
    32
  0
VERTEX
  8
0
  5
1DE
 10
3.22781
 20
-0.706011
 30
0.000000
  70
    32
  0
VERTEX
  8
0
  5
1DF
 10
3.22819
 20
-0.705361
 30
0.000000
  70
    32
  0
VERTEX
  8
0
  5
1E0
 10
3.22857
 20
-0.704707
 30
0.000000
  70
    32
  0
VERTEX
  8
0
  5
1E1
 10
3.22894
 20
-0.704048
 30
0.000000
  70
    32
  0
VERTEX
  8
0
  5
1E2
 10
3.22931
 20
-0.703385
 30
0.000000
  70
    32
  0
VERTEX
  8
0
  5
1E3
 10
3.22967
 20
-0.702717
 30
0.000000
  70
    32
  0
VERTEX
  8
0
  5
1E4
 10
3.23002
 20
-0.702045
 30
0.000000
  70
    32
  0
VERTEX
  8
0
  5
1E5
 10
3.23036
 20
-0.701369
 30
0.000000
  70
    32
  0
VERTEX
  8
0
  5
1E6
 10
3.23070
 20
-0.700689
 30
0.000000
  70
    32
  0
VERTEX
  8
0
  5
1E7
 10
3.23103
 20
-0.700005
 30
0.000000
  70
    32
  0
VERTEX
  8
0
  5
1E8
 10
3.23135
 20
-0.699316
 30
0.000000
  70
    32
  0
VERTEX
  8
0
  5
1E9
 10
3.23166
 20
-0.698624
 30
0.000000
  70
    32
  0
VERTEX
  8
0
  5
1EA
 10
3.23197
 20
-0.697928
 30
0.000000
  70
    32
  0
VERTEX
  8
0
  5
1EB
 10
3.23227
 20
-0.697227
 30
0.000000
  70
    32
  0
VERTEX
  8
0
  5
1EC
 10
3.23256
 20
-0.696523
 30
0.000000
  70
    32
  0
VERTEX
  8
0
  5
1ED
 10
3.23285
 20
-0.695816
 30
0.000000
  70
    32
  0
VERTEX
  8
0
  5
1EE
 10
3.23312
 20
-0.695104
 30
0.000000
  70
    32
  0
VERTEX
  8
0
  5
1EF
 10
3.23339
 20
-0.694389
 30
0.000000
  70
    32
  0
VERTEX
  8
0
  5
1F0
 10
3.23365
 20
-0.693670
 30
0.000000
  70
    32
  0
VERTEX
  8
0
  5
1F1
 10
3.23391
 20
-0.692947
 30
0.000000
  70
    32
  0
VERTEX
  8
0
  5
1F2
 10
3.23415
 20
-0.692221
 30
0.000000
  70
    32
  0
VERTEX
  8
0
  5
1F3
 10
3.23439
 20
-0.691492
 30
0.000000
  70
    32
  0
VERTEX
  8
0
  5
1F4
 10
3.23462
 20
-0.690759
 30
0.000000
  70
    32
  0
VERTEX
  8
0
  5
1F5
 10
3.23484
 20
-0.690023
 30
0.000000
  70
    32
  0
VERTEX
  8
0
  5
1F6
 10
3.23506
 20
-0.689283
 30
0.000000
  70
    32
  0
VERTEX
  8
0
  5
1F7
 10
3.23526
 20
-0.688540
 30
0.000000
  70
    32
  0
VERTEX
  8
0
  5
1F8
 10
3.23546
 20
-0.687794
 30
0.000000
  70
    32
  0
VERTEX
  8
0
  5
1F9
 10
3.23565
 20
-0.687045
 30
0.000000
  70
    32
  0
VERTEX
  8
0
  5
1FA
 10
3.23583
 20
-0.686293
 30
0.000000
  70
    32
  0
VERTEX
  8
0
  5
1FB
 10
3.23601
 20
-0.685537
 30
0.000000
  70
    32
  0
VERTEX
  8
0
  5
1FC
 10
3.23617
 20
-0.684779
 30
0.000000
  70
    32
  0
VERTEX
  8
0
  5
1FD
 10
3.23633
 20
-0.684017
 30
0.000000
  70
    32
  0
VERTEX
  8
0
  5
1FE
 10
3.23648
 20
-0.683253
 30
0.000000
  70
    32
  0
VERTEX
  8
0
  5
1FF
 10
3.23662
 20
-0.682486
 30
0.000000
  70
    32
  0
VERTEX
  8
0
  5
200
 10
3.23675
 20
-0.681716
 30
0.000000
  70
    32
  0
VERTEX
  8
0
  5
201
 10
3.23687
 20
-0.680943
 30
0.000000
  70
    32
  0
VERTEX
  8
0
  5
202
 10
3.23699
 20
-0.680168
 30
0.000000
  70
    32
  0
VERTEX
  8
0
  5
203
 10
3.23709
 20
-0.679390
 30
0.000000
  70
    32
  0
VERTEX
  8
0
  5
204
 10
3.23719
 20
-0.678609
 30
0.000000
  70
    32
  0
VERTEX
  8
0
  5
205
 10
3.23728
 20
-0.677826
 30
0.000000
  70
    32
  0
VERTEX
  8
0
  5
206
 10
3.23736
 20
-0.677040
 30
0.000000
  70
    32
  0
VERTEX
  8
0
  5
207
 10
3.23743
 20
-0.676252
 30
0.000000
  70
    32
  0
VERTEX
  8
0
  5
208
 10
3.23749
 20
-0.675462
 30
0.000000
  70
    32
  0
VERTEX
  8
0
  5
209
 10
3.23754
 20
-0.674669
 30
0.000000
  70
    32
  0
VERTEX
  8
0
  5
20A
 10
3.23759
 20
-0.673874
 30
0.000000
  70
    32
  0
VERTEX
  8
0
  5
20B
 10
3.23762
 20
-0.673076
 30
0.000000
  70
    32
  0
VERTEX
  8
0
  5
20C
 10
3.23765
 20
-0.672277
 30
0.000000
  70
    32
  0
VERTEX
  8
0
  5
20D
 10
3.23767
 20
-0.671475
 30
0.000000
  70
    32
  0
SEQEND
  8
0
  5
20E
  0
POLYLINE
  8
0
  5
20F
  66
     1
 10
0.000000
 20
0.000000
 30
0.000000
  70
     8
  0
VERTEX
  8
0
  5
210
 10
0.734138
 20
-4.33833
 30
0.000000
  70
    32
  0
VERTEX
  8
0
  5
211
 10
0.734366
 20
-4.33829
 30
0.000000
  70
    32
  0
VERTEX
  8
0
  5
212
 10
0.734593
 20
-4.33825
 30
0.000000
  70
    32
  0
VERTEX
  8
0
  5
213
 10
0.734820
 20
-4.33821
 30
0.000000
  70
    32
  0
VERTEX
  8
0
  5
214
 10
0.735045
 20
-4.33817
 30
0.000000
  70
    32
  0
VERTEX
  8
0
  5
215
 10
0.735269
 20
-4.33812
 30
0.000000
  70
    32
  0
VERTEX
  8
0
  5
216
 10
0.735493
 20
-4.33807
 30
0.000000
  70
    32
  0
VERTEX
  8
0
  5
217
 10
0.735715
 20
-4.33802
 30
0.000000
  70
    32
  0
VERTEX
  8
0
  5
218
 10
0.735936
 20
-4.33797
 30
0.000000
  70
    32
  0
VERTEX
  8
0
  5
219
 10
0.736156
 20
-4.33791
 30
0.000000
  70
    32
  0
VERTEX
  8
0
  5
21A
 10
0.736375
 20
-4.33785
 30
0.000000
  70
    32
  0
VERTEX
  8
0
  5
21B
 10
0.736593
 20
-4.33779
 30
0.000000
  70
    32
  0
VERTEX
  8
0
  5
21C
 10
0.736810
 20
-4.33773
 30
0.000000
  70
    32
  0
VERTEX
  8
0
  5
21D
 10
0.737026
 20
-4.33766
 30
0.000000
  70
    32
  0
VERTEX
  8
0
  5
21E
 10
0.737241
 20
-4.33760
 30
0.000000
  70
    32
  0
VERTEX
  8
0
  5
21F
 10
0.737455
 20
-4.33753
 30
0.000000
  70
    32
  0
VERTEX
  8
0
  5
220
 10
0.737667
 20
-4.33746
 30
0.000000
  70
    32
  0
VERTEX
  8
0
  5
221
 10
0.737878
 20
-4.33738
 30
0.000000
  70
    32
  0
VERTEX
  8
0
  5
222
 10
0.738089
 20
-4.33731
 30
0.000000
  70
    32
  0
VERTEX
  8
0
  5
223
 10
0.738298
 20
-4.33723
 30
0.000000
  70
    32
  0
VERTEX
  8
0
  5
224
 10
0.738505
 20
-4.33715
 30
0.000000
  70
    32
  0
VERTEX
  8
0
  5
225
 10
0.738712
 20
-4.33707
 30
0.000000
  70
    32
  0
VERTEX
  8
0
  5
226
 10
0.738918
 20
-4.33698
 30
0.000000
  70
    32
  0
VERTEX
  8
0
  5
227
 10
0.739122
 20
-4.33689
 30
0.000000
  70
    32
  0
VERTEX
  8
0
  5
228
 10
0.739325
 20
-4.33681
 30
0.000000
  70
    32
  0
VERTEX
  8
0
  5
229
 10
0.739526
 20
-4.33671
 30
0.000000
  70
    32
  0
VERTEX
  8
0
  5
22A
 10
0.739727
 20
-4.33662
 30
0.000000
  70
    32
  0
VERTEX
  8
0
  5
22B
 10
0.739926
 20
-4.33653
 30
0.000000
  70
    32
  0
VERTEX
  8
0
  5
22C
 10
0.740124
 20
-4.33643
 30
0.000000
  70
    32
  0
VERTEX
  8
0
  5
22D
 10
0.740321
 20
-4.33633
 30
0.000000
  70
    32
  0
VERTEX
  8
0
  5
22E
 10
0.740516
 20
-4.33623
 30
0.000000
  70
    32
  0
VERTEX
  8
0
  5
22F
 10
0.740710
 20
-4.33613
 30
0.000000
  70
    32
  0
VERTEX
  8
0
  5
230
 10
0.740902
 20
-4.33602
 30
0.000000
  70
    32
  0
VERTEX
  8
0
  5
231
 10
0.741094
 20
-4.33591
 30
0.000000
  70
    32
  0
VERTEX
  8
0
  5
232
 10
0.741284
 20
-4.33580
 30
0.000000
  70
    32
  0
VERTEX
  8
0
  5
233
 10
0.741472
 20
-4.33569
 30
0.000000
  70
    32
  0
VERTEX
  8
0
  5
234
 10
0.741659
 20
-4.33558
 30
0.000000
  70
    32
  0
VERTEX
  8
0
  5
235
 10
0.741845
 20
-4.33546
 30
0.000000
  70
    32
  0
VERTEX
  8
0
  5
236
 10
0.742030
 20
-4.33535
 30
0.000000
  70
    32
  0
VERTEX
  8
0
  5
237
 10
0.742213
 20
-4.33523
 30
0.000000
  70
    32
  0
VERTEX
  8
0
  5
238
 10
0.742394
 20
-4.33511
 30
0.000000
  70
    32
  0
VERTEX
  8
0
  5
239
 10
0.742574
 20
-4.33499
 30
0.000000
  70
    32
  0
VERTEX
  8
0
  5
23A
 10
0.742753
 20
-4.33486
 30
0.000000
  70
    32
  0
VERTEX
  8
0
  5
23B
 10
0.742930
 20
-4.33473
 30
0.000000
  70
    32
  0
VERTEX
  8
0
  5
23C
 10
0.743106
 20
-4.33461
 30
0.000000
  70
    32
  0
VERTEX
  8
0
  5
23D
 10
0.743280
 20
-4.33448
 30
0.000000
  70
    32
  0
VERTEX
  8
0
  5
23E
 10
0.743453
 20
-4.33434
 30
0.000000
  70
    32
  0
VERTEX
  8
0
  5
23F
 10
0.743624
 20
-4.33421
 30
0.000000
  70
    32
  0
VERTEX
  8
0
  5
240
 10
0.743793
 20
-4.33408
 30
0.000000
  70
    32
  0
VERTEX
  8
0
  5
241
 10
0.743962
 20
-4.33394
 30
0.000000
  70
    32
  0
VERTEX
  8
0
  5
242
 10
0.744128
 20
-4.33380
 30
0.000000
  70
    32
  0
VERTEX
  8
0
  5
243
 10
0.744293
 20
-4.33366
 30
0.000000
  70
    32
  0
VERTEX
  8
0
  5
244
 10
0.744456
 20
-4.33352
 30
0.000000
  70
    32
  0
VERTEX
  8
0
  5
245
 10
0.744618
 20
-4.33337
 30
0.000000
  70
    32
  0
VERTEX
  8
0
  5
246
 10
0.744778
 20
-4.33323
 30
0.000000
  70
    32
  0
VERTEX
  8
0
  5
247
 10
0.744937
 20
-4.33308
 30
0.000000
  70
    32
  0
VERTEX
  8
0
  5
248
 10
0.745094
 20
-4.33293
 30
0.000000
  70
    32
  0
VERTEX
  8
0
  5
249
 10
0.745249
 20
-4.33278
 30
0.000000
  70
    32
  0
VERTEX
  8
0
  5
24A
 10
0.745403
 20
-4.33263
 30
0.000000
  70
    32
  0
VERTEX
  8
0
  5
24B
 10
0.745555
 20
-4.33247
 30
0.000000
  70
    32
  0
VERTEX
  8
0
  5
24C
 10
0.745705
 20
-4.33232
 30
0.000000
  70
    32
  0
VERTEX
  8
0
  5
24D
 10
0.745854
 20
-4.33216
 30
0.000000
  70
    32
  0
VERTEX
  8
0
  5
24E
 10
0.746001
 20
-4.33200
 30
0.000000
  70
    32
  0
VERTEX
  8
0
  5
24F
 10
0.746146
 20
-4.33184
 30
0.000000
  70
    32
  0
VERTEX
  8
0
  5
250
 10
0.746290
 20
-4.33168
 30
0.000000
  70
    32
  0
VERTEX
  8
0
  5
251
 10
0.746431
 20
-4.33152
 30
0.000000
  70
    32
  0
VERTEX
  8
0
  5
252
 10
0.746571
 20
-4.33135
 30
0.000000
  70
    32
  0
VERTEX
  8
0
  5
253
 10
0.746710
 20
-4.33119
 30
0.000000
  70
    32
  0
VERTEX
  8
0
  5
254
 10
0.746846
 20
-4.33102
 30
0.000000
  70
    32
  0
VERTEX
  8
0
  5
255
 10
0.746981
 20
-4.33085
 30
0.000000
  70
    32
  0
VERTEX
  8
0
  5
256
 10
0.747114
 20
-4.33068
 30
0.000000
  70
    32
  0
VERTEX
  8
0
  5
257
 10
0.747245
 20
-4.33051
 30
0.000000
  70
    32
  0
VERTEX
  8
0
  5
258
 10
0.747374
 20
-4.33033
 30
0.000000
  70
    32
  0
VERTEX
  8
0
  5
259
 10
0.747501
 20
-4.33016
 30
0.000000
  70
    32
  0
VERTEX
  8
0
  5
25A
 10
0.747627
 20
-4.32998
 30
0.000000
  70
    32
  0
VERTEX
  8
0
  5
25B
 10
0.747751
 20
-4.32980
 30
0.000000
  70
    32
  0
VERTEX
  8
0
  5
25C
 10
0.747872
 20
-4.32962
 30
0.000000
  70
    32
  0
VERTEX
  8
0
  5
25D
 10
0.747992
 20
-4.32944
 30
0.000000
  70
    32
  0
VERTEX
  8
0
  5
25E
 10
0.748110
 20
-4.32926
 30
0.000000
  70
    32
  0
VERTEX
  8
0
  5
25F
 10
0.748226
 20
-4.32908
 30
0.000000
  70
    32
  0
VERTEX
  8
0
  5
260
 10
0.748341
 20
-4.32889
 30
0.000000
  70
    32
  0
VERTEX
  8
0
  5
261
 10
0.748453
 20
-4.32871
 30
0.000000
  70
    32
  0
VERTEX
  8
0
  5
262
 10
0.748563
 20
-4.32852
 30
0.000000
  70
    32
  0
VERTEX
  8
0
  5
263
 10
0.748671
 20
-4.32833
 30
0.000000
  70
    32
  0
VERTEX
  8
0
  5
264
 10
0.748778
 20
-4.32814
 30
0.000000
  70
    32
  0
VERTEX
  8
0
  5
265
 10
0.748882
 20
-4.32795
 30
0.000000
  70
    32
  0
VERTEX
  8
0
  5
266
 10
0.748985
 20
-4.32776
 30
0.000000
  70
    32
  0
VERTEX
  8
0
  5
267
 10
0.749085
 20
-4.32756
 30
0.000000
  70
    32
  0
VERTEX
  8
0
  5
268
 10
0.749183
 20
-4.32737
 30
0.000000
  70
    32
  0
VERTEX
  8
0
  5
269
 10
0.749280
 20
-4.32717
 30
0.000000
  70
    32
  0
VERTEX
  8
0
  5
26A
 10
0.749374
 20
-4.32697
 30
0.000000
  70
    32
  0
VERTEX
  8
0
  5
26B
 10
0.749466
 20
-4.32678
 30
0.000000
  70
    32
  0
VERTEX
  8
0
  5
26C
 10
0.749556
 20
-4.32658
 30
0.000000
  70
    32
  0
VERTEX
  8
0
  5
26D
 10
0.749644
 20
-4.32637
 30
0.000000
  70
    32
  0
VERTEX
  8
0
  5
26E
 10
0.749730
 20
-4.32617
 30
0.000000
  70
    32
  0
VERTEX
  8
0
  5
26F
 10
0.749814
 20
-4.32597
 30
0.000000
  70
    32
  0
VERTEX
  8
0
  5
270
 10
0.749896
 20
-4.32577
 30
0.000000
  70
    32
  0
VERTEX
  8
0
  5
271
 10
0.749975
 20
-4.32556
 30
0.000000
  70
    32
  0
VERTEX
  8
0
  5
272
 10
0.750053
 20
-4.32535
 30
0.000000
  70
    32
  0
VERTEX
  8
0
  5
273
 10
0.750128
 20
-4.32515
 30
0.000000
  70
    32
  0
VERTEX
  8
0
  5
274
 10
0.750201
 20
-4.32494
 30
0.000000
  70
    32
  0
VERTEX
  8
0
  5
275
 10
0.750272
 20
-4.32473
 30
0.000000
  70
    32
  0
VERTEX
  8
0
  5
276
 10
0.750341
 20
-4.32452
 30
0.000000
  70
    32
  0
VERTEX
  8
0
  5
277
 10
0.750408
 20
-4.32431
 30
0.000000
  70
    32
  0
VERTEX
  8
0
  5
278
 10
0.750472
 20
-4.32409
 30
0.000000
  70
    32
  0
VERTEX
  8
0
  5
279
 10
0.750534
 20
-4.32388
 30
0.000000
  70
    32
  0
VERTEX
  8
0
  5
27A
 10
0.750594
 20
-4.32367
 30
0.000000
  70
    32
  0
VERTEX
  8
0
  5
27B
 10
0.750651
 20
-4.32345
 30
0.000000
  70
    32
  0
VERTEX
  8
0
  5
27C
 10
0.750707
 20
-4.32323
 30
0.000000
  70
    32
  0
VERTEX
  8
0
  5
27D
 10
0.750760
 20
-4.32302
 30
0.000000
  70
    32
  0
VERTEX
  8
0
  5
27E
 10
0.750811
 20
-4.32280
 30
0.000000
  70
    32
  0
VERTEX
  8
0
  5
27F
 10
0.750859
 20
-4.32258
 30
0.000000
  70
    32
  0
VERTEX
  8
0
  5
280
 10
0.750905
 20
-4.32236
 30
0.000000
  70
    32
  0
VERTEX
  8
0
  5
281
 10
0.750949
 20
-4.32214
 30
0.000000
  70
    32
  0
VERTEX
  8
0
  5
282
 10
0.750990
 20
-4.32192
 30
0.000000
  70
    32
  0
VERTEX
  8
0
  5
283
 10
0.751029
 20
-4.32169
 30
0.000000
  70
    32
  0
VERTEX
  8
0
  5
284
 10
0.751066
 20
-4.32147
 30
0.000000
  70
    32
  0
VERTEX
  8
0
  5
285
 10
0.751101
 20
-4.32125
 30
0.000000
  70
    32
  0
VERTEX
  8
0
  5
286
 10
0.751133
 20
-4.32102
 30
0.000000
  70
    32
  0
VERTEX
  8
0
  5
287
 10
0.751162
 20
-4.32080
 30
0.000000
  70
    32
  0
VERTEX
  8
0
  5
288
 10
0.751189
 20
-4.32057
 30
0.000000
  70
    32
  0
VERTEX
  8
0
  5
289
 10
0.751214
 20
-4.32034
 30
0.000000
  70
    32
  0
VERTEX
  8
0
  5
28A
 10
0.751236
 20
-4.32011
 30
0.000000
  70
    32
  0
VERTEX
  8
0
  5
28B
 10
0.751256
 20
-4.31988
 30
0.000000
  70
    32
  0
VERTEX
  8
0
  5
28C
 10
0.751273
 20
-4.31966
 30
0.000000
  70
    32
  0
VERTEX
  8
0
  5
28D
 10
0.751288
 20
-4.31943
 30
0.000000
  70
    32
  0
VERTEX
  8
0
  5
28E
 10
0.751301
 20
-4.31919
 30
0.000000
  70
    32
  0
VERTEX
  8
0
  5
28F
 10
0.751311
 20
-4.31896
 30
0.000000
  70
    32
  0
SEQEND
  8
0
  5
290
  0
POLYLINE
  8
0
  5
291
  66
     1
 10
0.000000
 20
0.000000
 30
0.000000
  70
     8
  0
VERTEX
  8
0
  5
292
 10
0.774329
 20
-2.97766
 30
0.000000
  70
    32
  0
VERTEX
  8
0
  5
293
 10
0.774329
 20
-2.97757
 30
0.000000
  70
    32
  0
VERTEX
  8
0
  5
294
 10
0.774326
 20
-2.97748
 30
0.000000
  70
    32
  0
VERTEX
  8
0
  5
295
 10
0.774322
 20
-2.97739
 30
0.000000
  70
    32
  0
VERTEX
  8
0
  5
296
 10
0.774317
 20
-2.97729
 30
0.000000
  70
    32
  0
VERTEX
  8
0
  5
297
 10
0.774310
 20
-2.97720
 30
0.000000
  70
    32
  0
VERTEX
  8
0
  5
298
 10
0.774302
 20
-2.97711
 30
0.000000
  70
    32
  0
VERTEX
  8
0
  5
299
 10
0.774292
 20
-2.97702
 30
0.000000
  70
    32
  0
VERTEX
  8
0
  5
29A
 10
0.774281
 20
-2.97692
 30
0.000000
  70
    32
  0
VERTEX
  8
0
  5
29B
 10
0.774269
 20
-2.97683
 30
0.000000
  70
    32
  0
VERTEX
  8
0
  5
29C
 10
0.774255
 20
-2.97673
 30
0.000000
  70
    32
  0
VERTEX
  8
0
  5
29D
 10
0.774240
 20
-2.97663
 30
0.000000
  70
    32
  0
VERTEX
  8
0
  5
29E
 10
0.774223
 20
-2.97654
 30
0.000000
  70
    32
  0
VERTEX
  8
0
  5
29F
 10
0.774206
 20
-2.97644
 30
0.000000
  70
    32
  0
VERTEX
  8
0
  5
2A0
 10
0.774187
 20
-2.97634
 30
0.000000
  70
    32
  0
VERTEX
  8
0
  5
2A1
 10
0.774167
 20
-2.97624
 30
0.000000
  70
    32
  0
VERTEX
  8
0
  5
2A2
 10
0.774146
 20
-2.97614
 30
0.000000
  70
    32
  0
VERTEX
  8
0
  5
2A3
 10
0.774123
 20
-2.97604
 30
0.000000
  70
    32
  0
VERTEX
  8
0
  5
2A4
 10
0.774100
 20
-2.97594
 30
0.000000
  70
    32
  0
VERTEX
  8
0
  5
2A5
 10
0.774076
 20
-2.97584
 30
0.000000
  70
    32
  0
VERTEX
  8
0
  5
2A6
 10
0.774050
 20
-2.97574
 30
0.000000
  70
    32
  0
VERTEX
  8
0
  5
2A7
 10
0.774023
 20
-2.97564
 30
0.000000
  70
    32
  0
VERTEX
  8
0
  5
2A8
 10
0.773996
 20
-2.97554
 30
0.000000
  70
    32
  0
VERTEX
  8
0
  5
2A9
 10
0.773967
 20
-2.97543
 30
0.000000
  70
    32
  0
VERTEX
  8
0
  5
2AA
 10
0.773938
 20
-2.97533
 30
0.000000
  70
    32
  0
VERTEX
  8
0
  5
2AB
 10
0.773908
 20
-2.97523
 30
0.000000
  70
    32
  0
VERTEX
  8
0
  5
2AC
 10
0.773876
 20
-2.97513
 30
0.000000
  70
    32
  0
VERTEX
  8
0
  5
2AD
 10
0.773844
 20
-2.97502
 30
0.000000
  70
    32
  0
VERTEX
  8
0
  5
2AE
 10
0.773811
 20
-2.97492
 30
0.000000
  70
    32
  0
VERTEX
  8
0
  5
2AF
 10
0.773778
 20
-2.97482
 30
0.000000
  70
    32
  0
VERTEX
  8
0
  5
2B0
 10
0.773743
 20
-2.97472
 30
0.000000
  70
    32
  0
VERTEX
  8
0
  5
2B1
 10
0.773708
 20
-2.97461
 30
0.000000
  70
    32
  0
VERTEX
  8
0
  5
2B2
 10
0.773672
 20
-2.97451
 30
0.000000
  70
    32
  0
VERTEX
  8
0
  5
2B3
 10
0.773636
 20
-2.97441
 30
0.000000
  70
    32
  0
VERTEX
  8
0
  5
2B4
 10
0.773599
 20
-2.97430
 30
0.000000
  70
    32
  0
VERTEX
  8
0
  5
2B5
 10
0.773561
 20
-2.97420
 30
0.000000
  70
    32
  0
VERTEX
  8
0
  5
2B6
 10
0.773522
 20
-2.97410
 30
0.000000
  70
    32
  0
VERTEX
  8
0
  5
2B7
 10
0.773483
 20
-2.97400
 30
0.000000
  70
    32
  0
VERTEX
  8
0
  5
2B8
 10
0.773444
 20
-2.97390
 30
0.000000
  70
    32
  0
VERTEX
  8
0
  5
2B9
 10
0.773404
 20
-2.97379
 30
0.000000
  70
    32
  0
VERTEX
  8
0
  5
2BA
 10
0.773363
 20
-2.97369
 30
0.000000
  70
    32
  0
VERTEX
  8
0
  5
2BB
 10
0.773323
 20
-2.97359
 30
0.000000
  70
    32
  0
VERTEX
  8
0
  5
2BC
 10
0.773281
 20
-2.97349
 30
0.000000
  70
    32
  0
VERTEX
  8
0
  5
2BD
 10
0.773239
 20
-2.97339
 30
0.000000
  70
    32
  0
VERTEX
  8
0
  5
2BE
 10
0.773197
 20
-2.97329
 30
0.000000
  70
    32
  0
VERTEX
  8
0
  5
2BF
 10
0.773155
 20
-2.97319
 30
0.000000
  70
    32
  0
VERTEX
  8
0
  5
2C0
 10
0.773112
 20
-2.97309
 30
0.000000
  70
    32
  0
VERTEX
  8
0
  5
2C1
 10
0.773069
 20
-2.97299
 30
0.000000
  70
    32
  0
VERTEX
  8
0
  5
2C2
 10
0.773026
 20
-2.97289
 30
0.000000
  70
    32
  0
VERTEX
  8
0
  5
2C3
 10
0.772982
 20
-2.97280
 30
0.000000
  70
    32
  0
VERTEX
  8
0
  5
2C4
 10
0.772939
 20
-2.97270
 30
0.000000
  70
    32
  0
VERTEX
  8
0
  5
2C5
 10
0.772895
 20
-2.97260
 30
0.000000
  70
    32
  0
VERTEX
  8
0
  5
2C6
 10
0.772851
 20
-2.97251
 30
0.000000
  70
    32
  0
VERTEX
  8
0
  5
2C7
 10
0.772807
 20
-2.97241
 30
0.000000
  70
    32
  0
VERTEX
  8
0
  5
2C8
 10
0.772763
 20
-2.97232
 30
0.000000
  70
    32
  0
VERTEX
  8
0
  5
2C9
 10
0.772718
 20
-2.97222
 30
0.000000
  70
    32
  0
VERTEX
  8
0
  5
2CA
 10
0.772674
 20
-2.97213
 30
0.000000
  70
    32
  0
VERTEX
  8
0
  5
2CB
 10
0.772630
 20
-2.97204
 30
0.000000
  70
    32
  0
VERTEX
  8
0
  5
2CC
 10
0.772586
 20
-2.97195
 30
0.000000
  70
    32
  0
VERTEX
  8
0
  5
2CD
 10
0.772542
 20
-2.97186
 30
0.000000
  70
    32
  0
VERTEX
  8
0
  5
2CE
 10
0.772498
 20
-2.97177
 30
0.000000
  70
    32
  0
VERTEX
  8
0
  5
2CF
 10
0.772454
 20
-2.97168
 30
0.000000
  70
    32
  0
VERTEX
  8
0
  5
2D0
 10
0.772410
 20
-2.97159
 30
0.000000
  70
    32
  0
VERTEX
  8
0
  5
2D1
 10
0.772366
 20
-2.97150
 30
0.000000
  70
    32
  0
VERTEX
  8
0
  5
2D2
 10
0.772323
 20
-2.97142
 30
0.000000
  70
    32
  0
VERTEX
  8
0
  5
2D3
 10
0.772280
 20
-2.97133
 30
0.000000
  70
    32
  0
VERTEX
  8
0
  5
2D4
 10
0.772237
 20
-2.97125
 30
0.000000
  70
    32
  0
VERTEX
  8
0
  5
2D5
 10
0.772194
 20
-2.97117
 30
0.000000
  70
    32
  0
VERTEX
  8
0
  5
2D6
 10
0.772152
 20
-2.97109
 30
0.000000
  70
    32
  0
VERTEX
  8
0
  5
2D7
 10
0.772110
 20
-2.97101
 30
0.000000
  70
    32
  0
VERTEX
  8
0
  5
2D8
 10
0.772069
 20
-2.97093
 30
0.000000
  70
    32
  0
VERTEX
  8
0
  5
2D9
 10
0.772027
 20
-2.97085
 30
0.000000
  70
    32
  0
VERTEX
  8
0
  5
2DA
 10
0.771987
 20
-2.97077
 30
0.000000
  70
    32
  0
VERTEX
  8
0
  5
2DB
 10
0.771946
 20
-2.97070
 30
0.000000
  70
    32
  0
VERTEX
  8
0
  5
2DC
 10
0.771907
 20
-2.97062
 30
0.000000
  70
    32
  0
VERTEX
  8
0
  5
2DD
 10
0.771867
 20
-2.97055
 30
0.000000
  70
    32
  0
VERTEX
  8
0
  5
2DE
 10
0.771829
 20
-2.97048
 30
0.000000
  70
    32
  0
VERTEX
  8
0
  5
2DF
 10
0.771791
 20
-2.97041
 30
0.000000
  70
    32
  0
VERTEX
  8
0
  5
2E0
 10
0.771753
 20
-2.97034
 30
0.000000
  70
    32
  0
VERTEX
  8
0
  5
2E1
 10
0.771716
 20
-2.97028
 30
0.000000
  70
    32
  0
VERTEX
  8
0
  5
2E2
 10
0.771680
 20
-2.97021
 30
0.000000
  70
    32
  0
VERTEX
  8
0
  5
2E3
 10
0.771645
 20
-2.97015
 30
0.000000
  70
    32
  0
VERTEX
  8
0
  5
2E4
 10
0.771610
 20
-2.97008
 30
0.000000
  70
    32
  0
VERTEX
  8
0
  5
2E5
 10
0.771576
 20
-2.97002
 30
0.000000
  70
    32
  0
VERTEX
  8
0
  5
2E6
 10
0.771542
 20
-2.96997
 30
0.000000
  70
    32
  0
VERTEX
  8
0
  5
2E7
 10
0.771510
 20
-2.96991
 30
0.000000
  70
    32
  0
VERTEX
  8
0
  5
2E8
 10
0.771478
 20
-2.96985
 30
0.000000
  70
    32
  0
VERTEX
  8
0
  5
2E9
 10
0.771448
 20
-2.96980
 30
0.000000
  70
    32
  0
VERTEX
  8
0
  5
2EA
 10
0.771418
 20
-2.96975
 30
0.000000
  70
    32
  0
VERTEX
  8
0
  5
2EB
 10
0.771389
 20
-2.96970
 30
0.000000
  70
    32
  0
VERTEX
  8
0
  5
2EC
 10
0.771361
 20
-2.96965
 30
0.000000
  70
    32
  0
VERTEX
  8
0
  5
2ED
 10
0.771334
 20
-2.96960
 30
0.000000
  70
    32
  0
VERTEX
  8
0
  5
2EE
 10
0.771308
 20
-2.96956
 30
0.000000
  70
    32
  0
VERTEX
  8
0
  5
2EF
 10
0.771283
 20
-2.96952
 30
0.000000
  70
    32
  0
VERTEX
  8
0
  5
2F0
 10
0.771259
 20
-2.96948
 30
0.000000
  70
    32
  0
VERTEX
  8
0
  5
2F1
 10
0.771236
 20
-2.96944
 30
0.000000
  70
    32
  0
VERTEX
  8
0
  5
2F2
 10
0.771214
 20
-2.96940
 30
0.000000
  70
    32
  0
VERTEX
  8
0
  5
2F3
 10
0.771193
 20
-2.96937
 30
0.000000
  70
    32
  0
VERTEX
  8
0
  5
2F4
 10
0.771174
 20
-2.96933
 30
0.000000
  70
    32
  0
VERTEX
  8
0
  5
2F5
 10
0.771156
 20
-2.96930
 30
0.000000
  70
    32
  0
VERTEX
  8
0
  5
2F6
 10
0.771139
 20
-2.96928
 30
0.000000
  70
    32
  0
VERTEX
  8
0
  5
2F7
 10
0.771123
 20
-2.96925
 30
0.000000
  70
    32
  0
VERTEX
  8
0
  5
2F8
 10
0.771109
 20
-2.96923
 30
0.000000
  70
    32
  0
VERTEX
  8
0
  5
2F9
 10
0.771095
 20
-2.96920
 30
0.000000
  70
    32
  0
VERTEX
  8
0
  5
2FA
 10
0.771084
 20
-2.96918
 30
0.000000
  70
    32
  0
VERTEX
  8
0
  5
2FB
 10
0.771073
 20
-2.96917
 30
0.000000
  70
    32
  0
VERTEX
  8
0
  5
2FC
 10
0.771064
 20
-2.96915
 30
0.000000
  70
    32
  0
VERTEX
  8
0
  5
2FD
 10
0.771057
 20
-2.96914
 30
0.000000
  70
    32
  0
VERTEX
  8
0
  5
2FE
 10
0.771051
 20
-2.96913
 30
0.000000
  70
    32
  0
VERTEX
  8
0
  5
2FF
 10
0.771046
 20
-2.96912
 30
0.000000
  70
    32
  0
VERTEX
  8
0
  5
300
 10
0.771043
 20
-2.96912
 30
0.000000
  70
    32
  0
VERTEX
  8
0
  5
301
 10
0.771041
 20
-2.96912
 30
0.000000
  70
    32
  0
VERTEX
  8
0
  5
302
 10
0.771041
 20
-2.96912
 30
0.000000
  70
    32
  0
VERTEX
  8
0
  5
303
 10
0.771038
 20
-2.96911
 30
0.000000
  70
    32
  0
VERTEX
  8
0
  5
304
 10
0.771033
 20
-2.96911
 30
0.000000
  70
    32
  0
VERTEX
  8
0
  5
305
 10
0.771025
 20
-2.96910
 30
0.000000
  70
    32
  0
VERTEX
  8
0
  5
306
 10
0.771014
 20
-2.96910
 30
0.000000
  70
    32
  0
VERTEX
  8
0
  5
307
 10
0.771001
 20
-2.96909
 30
0.000000
  70
    32
  0
VERTEX
  8
0
  5
308
 10
0.770986
 20
-2.96908
 30
0.000000
  70
    32
  0
VERTEX
  8
0
  5
309
 10
0.770968
 20
-2.96907
 30
0.000000
  70
    32
  0
VERTEX
  8
0
  5
30A
 10
0.770948
 20
-2.96906
 30
0.000000
  70
    32
  0
VERTEX
  8
0
  5
30B
 10
0.770925
 20
-2.96904
 30
0.000000
  70
    32
  0
VERTEX
  8
0
  5
30C
 10
0.770900
 20
-2.96903
 30
0.000000
  70
    32
  0
VERTEX
  8
0
  5
30D
 10
0.770872
 20
-2.96901
 30
0.000000
  70
    32
  0
VERTEX
  8
0
  5
30E
 10
0.770843
 20
-2.96899
 30
0.000000
  70
    32
  0
VERTEX
  8
0
  5
30F
 10
0.770811
 20
-2.96897
 30
0.000000
  70
    32
  0
VERTEX
  8
0
  5
310
 10
0.770777
 20
-2.96895
 30
0.000000
  70
    32
  0
VERTEX
  8
0
  5
311
 10
0.770740
 20
-2.96893
 30
0.000000
  70
    32
  0
VERTEX
  8
0
  5
312
 10
0.770702
 20
-2.96890
 30
0.000000
  70
    32
  0
VERTEX
  8
0
  5
313
 10
0.770661
 20
-2.96888
 30
0.000000
  70
    32
  0
VERTEX
  8
0
  5
314
 10
0.770619
 20
-2.96885
 30
0.000000
  70
    32
  0
VERTEX
  8
0
  5
315
 10
0.770574
 20
-2.96882
 30
0.000000
  70
    32
  0
VERTEX
  8
0
  5
316
 10
0.770528
 20
-2.96879
 30
0.000000
  70
    32
  0
VERTEX
  8
0
  5
317
 10
0.770479
 20
-2.96876
 30
0.000000
  70
    32
  0
VERTEX
  8
0
  5
318
 10
0.770429
 20
-2.96873
 30
0.000000
  70
    32
  0
VERTEX
  8
0
  5
319
 10
0.770376
 20
-2.96870
 30
0.000000
  70
    32
  0
VERTEX
  8
0
  5
31A
 10
0.770322
 20
-2.96867
 30
0.000000
  70
    32
  0
VERTEX
  8
0
  5
31B
 10
0.770266
 20
-2.96864
 30
0.000000
  70
    32
  0
VERTEX
  8
0
  5
31C
 10
0.770208
 20
-2.96860
 30
0.000000
  70
    32
  0
VERTEX
  8
0
  5
31D
 10
0.770149
 20
-2.96857
 30
0.000000
  70
    32
  0
VERTEX
  8
0
  5
31E
 10
0.770088
 20
-2.96853
 30
0.000000
  70
    32
  0
VERTEX
  8
0
  5
31F
 10
0.770025
 20
-2.96849
 30
0.000000
  70
    32
  0
VERTEX
  8
0
  5
320
 10
0.769960
 20
-2.96845
 30
0.000000
  70
    32
  0
VERTEX
  8
0
  5
321
 10
0.769894
 20
-2.96841
 30
0.000000
  70
    32
  0
VERTEX
  8
0
  5
322
 10
0.769827
 20
-2.96837
 30
0.000000
  70
    32
  0
VERTEX
  8
0
  5
323
 10
0.769758
 20
-2.96833
 30
0.000000
  70
    32
  0
VERTEX
  8
0
  5
324
 10
0.769687
 20
-2.96829
 30
0.000000
  70
    32
  0
VERTEX
  8
0
  5
325
 10
0.769615
 20
-2.96825
 30
0.000000
  70
    32
  0
VERTEX
  8
0
  5
326
 10
0.769541
 20
-2.96821
 30
0.000000
  70
    32
  0
VERTEX
  8
0
  5
327
 10
0.769466
 20
-2.96817
 30
0.000000
  70
    32
  0
VERTEX
  8
0
  5
328
 10
0.769390
 20
-2.96812
 30
0.000000
  70
    32
  0
VERTEX
  8
0
  5
329
 10
0.769313
 20
-2.96808
 30
0.000000
  70
    32
  0
VERTEX
  8
0
  5
32A
 10
0.769234
 20
-2.96803
 30
0.000000
  70
    32
  0
VERTEX
  8
0
  5
32B
 10
0.769154
 20
-2.96799
 30
0.000000
  70
    32
  0
VERTEX
  8
0
  5
32C
 10
0.769073
 20
-2.96794
 30
0.000000
  70
    32
  0
VERTEX
  8
0
  5
32D
 10
0.768990
 20
-2.96790
 30
0.000000
  70
    32
  0
VERTEX
  8
0
  5
32E
 10
0.768907
 20
-2.96785
 30
0.000000
  70
    32
  0
VERTEX
  8
0
  5
32F
 10
0.768822
 20
-2.96780
 30
0.000000
  70
    32
  0
VERTEX
  8
0
  5
330
 10
0.768737
 20
-2.96776
 30
0.000000
  70
    32
  0
VERTEX
  8
0
  5
331
 10
0.768650
 20
-2.96771
 30
0.000000
  70
    32
  0
VERTEX
  8
0
  5
332
 10
0.768562
 20
-2.96766
 30
0.000000
  70
    32
  0
VERTEX
  8
0
  5
333
 10
0.768474
 20
-2.96761
 30
0.000000
  70
    32
  0
VERTEX
  8
0
  5
334
 10
0.768384
 20
-2.96757
 30
0.000000
  70
    32
  0
VERTEX
  8
0
  5
335
 10
0.768294
 20
-2.96752
 30
0.000000
  70
    32
  0
VERTEX
  8
0
  5
336
 10
0.768203
 20
-2.96747
 30
0.000000
  70
    32
  0
VERTEX
  8
0
  5
337
 10
0.768111
 20
-2.96742
 30
0.000000
  70
    32
  0
VERTEX
  8
0
  5
338
 10
0.768018
 20
-2.96737
 30
0.000000
  70
    32
  0
VERTEX
  8
0
  5
339
 10
0.767925
 20
-2.96732
 30
0.000000
  70
    32
  0
VERTEX
  8
0
  5
33A
 10
0.767830
 20
-2.96727
 30
0.000000
  70
    32
  0
VERTEX
  8
0
  5
33B
 10
0.767736
 20
-2.96723
 30
0.000000
  70
    32
  0
VERTEX
  8
0
  5
33C
 10
0.767640
 20
-2.96718
 30
0.000000
  70
    32
  0
VERTEX
  8
0
  5
33D
 10
0.767544
 20
-2.96713
 30
0.000000
  70
    32
  0
VERTEX
  8
0
  5
33E
 10
0.767447
 20
-2.96708
 30
0.000000
  70
    32
  0
VERTEX
  8
0
  5
33F
 10
0.767350
 20
-2.96703
 30
0.000000
  70
    32
  0
VERTEX
  8
0
  5
340
 10
0.767253
 20
-2.96699
 30
0.000000
  70
    32
  0
VERTEX
  8
0
  5
341
 10
0.767155
 20
-2.96694
 30
0.000000
  70
    32
  0
VERTEX
  8
0
  5
342
 10
0.767056
 20
-2.96689
 30
0.000000
  70
    32
  0
VERTEX
  8
0
  5
343
 10
0.766958
 20
-2.96684
 30
0.000000
  70
    32
  0
VERTEX
  8
0
  5
344
 10
0.766858
 20
-2.96680
 30
0.000000
  70
    32
  0
VERTEX
  8
0
  5
345
 10
0.766759
 20
-2.96675
 30
0.000000
  70
    32
  0
VERTEX
  8
0
  5
346
 10
0.766659
 20
-2.96670
 30
0.000000
  70
    32
  0
VERTEX
  8
0
  5
347
 10
0.766559
 20
-2.96666
 30
0.000000
  70
    32
  0
VERTEX
  8
0
  5
348
 10
0.766459
 20
-2.96661
 30
0.000000
  70
    32
  0
VERTEX
  8
0
  5
349
 10
0.766359
 20
-2.96657
 30
0.000000
  70
    32
  0
VERTEX
  8
0
  5
34A
 10
0.766259
 20
-2.96652
 30
0.000000
  70
    32
  0
VERTEX
  8
0
  5
34B
 10
0.766158
 20
-2.96648
 30
0.000000
  70
    32
  0
VERTEX
  8
0
  5
34C
 10
0.766058
 20
-2.96644
 30
0.000000
  70
    32
  0
VERTEX
  8
0
  5
34D
 10
0.765957
 20
-2.96639
 30
0.000000
  70
    32
  0
VERTEX
  8
0
  5
34E
 10
0.765857
 20
-2.96635
 30
0.000000
  70
    32
  0
VERTEX
  8
0
  5
34F
 10
0.765756
 20
-2.96631
 30
0.000000
  70
    32
  0
VERTEX
  8
0
  5
350
 10
0.765656
 20
-2.96627
 30
0.000000
  70
    32
  0
VERTEX
  8
0
  5
351
 10
0.765556
 20
-2.96623
 30
0.000000
  70
    32
  0
VERTEX
  8
0
  5
352
 10
0.765456
 20
-2.96619
 30
0.000000
  70
    32
  0
VERTEX
  8
0
  5
353
 10
0.765356
 20
-2.96615
 30
0.000000
  70
    32
  0
VERTEX
  8
0
  5
354
 10
0.765257
 20
-2.96611
 30
0.000000
  70
    32
  0
VERTEX
  8
0
  5
355
 10
0.765157
 20
-2.96608
 30
0.000000
  70
    32
  0
VERTEX
  8
0
  5
356
 10
0.765058
 20
-2.96604
 30
0.000000
  70
    32
  0
VERTEX
  8
0
  5
357
 10
0.764960
 20
-2.96600
 30
0.000000
  70
    32
  0
VERTEX
  8
0
  5
358
 10
0.764862
 20
-2.96597
 30
0.000000
  70
    32
  0
VERTEX
  8
0
  5
359
 10
0.764764
 20
-2.96594
 30
0.000000
  70
    32
  0
VERTEX
  8
0
  5
35A
 10
0.764667
 20
-2.96590
 30
0.000000
  70
    32
  0
VERTEX
  8
0
  5
35B
 10
0.764570
 20
-2.96587
 30
0.000000
  70
    32
  0
VERTEX
  8
0
  5
35C
 10
0.764473
 20
-2.96584
 30
0.000000
  70
    32
  0
VERTEX
  8
0
  5
35D
 10
0.764378
 20
-2.96581
 30
0.000000
  70
    32
  0
VERTEX
  8
0
  5
35E
 10
0.764282
 20
-2.96579
 30
0.000000
  70
    32
  0
VERTEX
  8
0
  5
35F
 10
0.764188
 20
-2.96576
 30
0.000000
  70
    32
  0
VERTEX
  8
0
  5
360
 10
0.764094
 20
-2.96573
 30
0.000000
  70
    32
  0
VERTEX
  8
0
  5
361
 10
0.764001
 20
-2.96571
 30
0.000000
  70
    32
  0
VERTEX
  8
0
  5
362
 10
0.763909
 20
-2.96569
 30
0.000000
  70
    32
  0
VERTEX
  8
0
  5
363
 10
0.763817
 20
-2.96566
 30
0.000000
  70
    32
  0
VERTEX
  8
0
  5
364
 10
0.763726
 20
-2.96564
 30
0.000000
  70
    32
  0
VERTEX
  8
0
  5
365
 10
0.763636
 20
-2.96562
 30
0.000000
  70
    32
  0
VERTEX
  8
0
  5
366
 10
0.763547
 20
-2.96561
 30
0.000000
  70
    32
  0
VERTEX
  8
0
  5
367
 10
0.763459
 20
-2.96559
 30
0.000000
  70
    32
  0
VERTEX
  8
0
  5
368
 10
0.763372
 20
-2.96557
 30
0.000000
  70
    32
  0
VERTEX
  8
0
  5
369
 10
0.763286
 20
-2.96556
 30
0.000000
  70
    32
  0
VERTEX
  8
0
  5
36A
 10
0.763201
 20
-2.96555
 30
0.000000
  70
    32
  0
VERTEX
  8
0
  5
36B
 10
0.763117
 20
-2.96554
 30
0.000000
  70
    32
  0
VERTEX
  8
0
  5
36C
 10
0.763034
 20
-2.96553
 30
0.000000
  70
    32
  0
VERTEX
  8
0
  5
36D
 10
0.762952
 20
-2.96552
 30
0.000000
  70
    32
  0
VERTEX
  8
0
  5
36E
 10
0.762872
 20
-2.96551
 30
0.000000
  70
    32
  0
VERTEX
  8
0
  5
36F
 10
0.762792
 20
-2.96551
 30
0.000000
  70
    32
  0
VERTEX
  8
0
  5
370
 10
0.762714
 20
-2.96551
 30
0.000000
  70
    32
  0
VERTEX
  8
0
  5
371
 10
0.762637
 20
-2.96551
 30
0.000000
  70
    32
  0
SEQEND
  8
0
  5
372
  0
POLYLINE
  8
0
  5
373
  66
     1
 10
0.000000
 20
0.000000
 30
0.000000
  70
     8
  0
VERTEX
  8
0
  5
374
 10
0.745373
 20
-2.93778
 30
0.000000
  70
    32
  0
VERTEX
  8
0
  5
375
 10
0.745757
 20
-2.93778
 30
0.000000
  70
    32
  0
VERTEX
  8
0
  5
376
 10
0.746139
 20
-2.93777
 30
0.000000
  70
    32
  0
VERTEX
  8
0
  5
377
 10
0.746520
 20
-2.93776
 30
0.000000
  70
    32
  0
VERTEX
  8
0
  5
378
 10
0.746900
 20
-2.93775
 30
0.000000
  70
    32
  0
VERTEX
  8
0
  5
379
 10
0.747279
 20
-2.93772
 30
0.000000
  70
    32
  0
VERTEX
  8
0
  5
37A
 10
0.747656
 20
-2.93770
 30
0.000000
  70
    32
  0
VERTEX
  8
0
  5
37B
 10
0.748033
 20
-2.93767
 30
0.000000
  70
    32
  0
VERTEX
  8
0
  5
37C
 10
0.748407
 20
-2.93763
 30
0.000000
  70
    32
  0
VERTEX
  8
0
  5
37D
 10
0.748781
 20
-2.93759
 30
0.000000
  70
    32
  0
VERTEX
  8
0
  5
37E
 10
0.749153
 20
-2.93755
 30
0.000000
  70
    32
  0
VERTEX
  8
0
  5
37F
 10
0.749524
 20
-2.93750
 30
0.000000
  70
    32
  0
VERTEX
  8
0
  5
380
 10
0.749893
 20
-2.93744
 30
0.000000
  70
    32
  0
VERTEX
  8
0
  5
381
 10
0.750261
 20
-2.93739
 30
0.000000
  70
    32
  0
VERTEX
  8
0
  5
382
 10
0.750627
 20
-2.93732
 30
0.000000
  70
    32
  0
VERTEX
  8
0
  5
383
 10
0.750992
 20
-2.93726
 30
0.000000
  70
    32
  0
VERTEX
  8
0
  5
384
 10
0.751355
 20
-2.93719
 30
0.000000
  70
    32
  0
VERTEX
  8
0
  5
385
 10
0.751717
 20
-2.93711
 30
0.000000
  70
    32
  0
VERTEX
  8
0
  5
386
 10
0.752077
 20
-2.93703
 30
0.000000
  70
    32
  0
VERTEX
  8
0
  5
387
 10
0.752435
 20
-2.93695
 30
0.000000
  70
    32
  0
VERTEX
  8
0
  5
388
 10
0.752792
 20
-2.93686
 30
0.000000
  70
    32
  0
VERTEX
  8
0
  5
389
 10
0.753147
 20
-2.93676
 30
0.000000
  70
    32
  0
VERTEX
  8
0
  5
38A
 10
0.753500
 20
-2.93667
 30
0.000000
  70
    32
  0
VERTEX
  8
0
  5
38B
 10
0.753852
 20
-2.93657
 30
0.000000
  70
    32
  0
VERTEX
  8
0
  5
38C
 10
0.754202
 20
-2.93646
 30
0.000000
  70
    32
  0
VERTEX
  8
0
  5
38D
 10
0.754549
 20
-2.93635
 30
0.000000
  70
    32
  0
VERTEX
  8
0
  5
38E
 10
0.754896
 20
-2.93624
 30
0.000000
  70
    32
  0
VERTEX
  8
0
  5
38F
 10
0.755240
 20
-2.93612
 30
0.000000
  70
    32
  0
VERTEX
  8
0
  5
390
 10
0.755582
 20
-2.93600
 30
0.000000
  70
    32
  0
VERTEX
  8
0
  5
391
 10
0.755922
 20
-2.93587
 30
0.000000
  70
    32
  0
VERTEX
  8
0
  5
392
 10
0.756261
 20
-2.93574
 30
0.000000
  70
    32
  0
VERTEX
  8
0
  5
393
 10
0.756597
 20
-2.93561
 30
0.000000
  70
    32
  0
VERTEX
  8
0
  5
394
 10
0.756932
 20
-2.93547
 30
0.000000
  70
    32
  0
VERTEX
  8
0
  5
395
 10
0.757264
 20
-2.93533
 30
0.000000
  70
    32
  0
VERTEX
  8
0
  5
396
 10
0.757594
 20
-2.93518
 30
0.000000
  70
    32
  0
VERTEX
  8
0
  5
397
 10
0.757923
 20
-2.93503
 30
0.000000
  70
    32
  0
VERTEX
  8
0
  5
398
 10
0.758249
 20
-2.93488
 30
0.000000
  70
    32
  0
VERTEX
  8
0
  5
399
 10
0.758573
 20
-2.93472
 30
0.000000
  70
    32
  0
VERTEX
  8
0
  5
39A
 10
0.758894
 20
-2.93456
 30
0.000000
  70
    32
  0
VERTEX
  8
0
  5
39B
 10
0.759214
 20
-2.93440
 30
0.000000
  70
    32
  0
VERTEX
  8
0
  5
39C
 10
0.759531
 20
-2.93423
 30
0.000000
  70
    32
  0
VERTEX
  8
0
  5
39D
 10
0.759846
 20
-2.93406
 30
0.000000
  70
    32
  0
VERTEX
  8
0
  5
39E
 10
0.760159
 20
-2.93388
 30
0.000000
  70
    32
  0
VERTEX
  8
0
  5
39F
 10
0.760469
 20
-2.93370
 30
0.000000
  70
    32
  0
VERTEX
  8
0
  5
3A0
 10
0.760777
 20
-2.93352
 30
0.000000
  70
    32
  0
VERTEX
  8
0
  5
3A1
 10
0.761082
 20
-2.93333
 30
0.000000
  70
    32
  0
VERTEX
  8
0
  5
3A2
 10
0.761386
 20
-2.93314
 30
0.000000
  70
    32
  0
VERTEX
  8
0
  5
3A3
 10
0.761686
 20
-2.93295
 30
0.000000
  70
    32
  0
VERTEX
  8
0
  5
3A4
 10
0.761985
 20
-2.93275
 30
0.000000
  70
    32
  0
VERTEX
  8
0
  5
3A5
 10
0.762280
 20
-2.93255
 30
0.000000
  70
    32
  0
VERTEX
  8
0
  5
3A6
 10
0.762573
 20
-2.93235
 30
0.000000
  70
    32
  0
VERTEX
  8
0
  5
3A7
 10
0.762864
 20
-2.93214
 30
0.000000
  70
    32
  0
VERTEX
  8
0
  5
3A8
 10
0.763152
 20
-2.93193
 30
0.000000
  70
    32
  0
VERTEX
  8
0
  5
3A9
 10
0.763437
 20
-2.93171
 30
0.000000
  70
    32
  0
VERTEX
  8
0
  5
3AA
 10
0.763720
 20
-2.93150
 30
0.000000
  70
    32
  0
VERTEX
  8
0
  5
3AB
 10
0.764000
 20
-2.93128
 30
0.000000
  70
    32
  0
VERTEX
  8
0
  5
3AC
 10
0.764278
 20
-2.93105
 30
0.000000
  70
    32
  0
VERTEX
  8
0
  5
3AD
 10
0.764552
 20
-2.93083
 30
0.000000
  70
    32
  0
VERTEX
  8
0
  5
3AE
 10
0.764824
 20
-2.93059
 30
0.000000
  70
    32
  0
VERTEX
  8
0
  5
3AF
 10
0.765093
 20
-2.93036
 30
0.000000
  70
    32
  0
VERTEX
  8
0
  5
3B0
 10
0.765359
 20
-2.93012
 30
0.000000
  70
    32
  0
VERTEX
  8
0
  5
3B1
 10
0.765623
 20
-2.92988
 30
0.000000
  70
    32
  0
VERTEX
  8
0
  5
3B2
 10
0.765883
 20
-2.92964
 30
0.000000
  70
    32
  0
VERTEX
  8
0
  5
3B3
 10
0.766141
 20
-2.92940
 30
0.000000
  70
    32
  0
VERTEX
  8
0
  5
3B4
 10
0.766395
 20
-2.92915
 30
0.000000
  70
    32
  0
VERTEX
  8
0
  5
3B5
 10
0.766647
 20
-2.92890
 30
0.000000
  70
    32
  0
VERTEX
  8
0
  5
3B6
 10
0.766895
 20
-2.92864
 30
0.000000
  70
    32
  0
VERTEX
  8
0
  5
3B7
 10
0.767141
 20
-2.92838
 30
0.000000
  70
    32
  0
VERTEX
  8
0
  5
3B8
 10
0.767384
 20
-2.92812
 30
0.000000
  70
    32
  0
VERTEX
  8
0
  5
3B9
 10
0.767623
 20
-2.92786
 30
0.000000
  70
    32
  0
VERTEX
  8
0
  5
3BA
 10
0.767859
 20
-2.92759
 30
0.000000
  70
    32
  0
VERTEX
  8
0
  5
3BB
 10
0.768093
 20
-2.92732
 30
0.000000
  70
    32
  0
VERTEX
  8
0
  5
3BC
 10
0.768323
 20
-2.92705
 30
0.000000
  70
    32
  0
VERTEX
  8
0
  5
3BD
 10
0.768550
 20
-2.92677
 30
0.000000
  70
    32
  0
VERTEX
  8
0
  5
3BE
 10
0.768773
 20
-2.92650
 30
0.000000
  70
    32
  0
VERTEX
  8
0
  5
3BF
 10
0.768994
 20
-2.92622
 30
0.000000
  70
    32
  0
VERTEX
  8
0
  5
3C0
 10
0.769211
 20
-2.92593
 30
0.000000
  70
    32
  0
VERTEX
  8
0
  5
3C1
 10
0.769424
 20
-2.92565
 30
0.000000
  70
    32
  0
VERTEX
  8
0
  5
3C2
 10
0.769635
 20
-2.92536
 30
0.000000
  70
    32
  0
VERTEX
  8
0
  5
3C3
 10
0.769842
 20
-2.92507
 30
0.000000
  70
    32
  0
VERTEX
  8
0
  5
3C4
 10
0.770045
 20
-2.92478
 30
0.000000
  70
    32
  0
VERTEX
  8
0
  5
3C5
 10
0.770246
 20
-2.92448
 30
0.000000
  70
    32
  0
VERTEX
  8
0
  5
3C6
 10
0.770442
 20
-2.92418
 30
0.000000
  70
    32
  0
VERTEX
  8
0
  5
3C7
 10
0.770635
 20
-2.92388
 30
0.000000
  70
    32
  0
VERTEX
  8
0
  5
3C8
 10
0.770825
 20
-2.92358
 30
0.000000
  70
    32
  0
VERTEX
  8
0
  5
3C9
 10
0.771011
 20
-2.92327
 30
0.000000
  70
    32
  0
VERTEX
  8
0
  5
3CA
 10
0.771194
 20
-2.92296
 30
0.000000
  70
    32
  0
VERTEX
  8
0
  5
3CB
 10
0.771373
 20
-2.92265
 30
0.000000
  70
    32
  0
VERTEX
  8
0
  5
3CC
 10
0.771548
 20
-2.92234
 30
0.000000
  70
    32
  0
VERTEX
  8
0
  5
3CD
 10
0.771720
 20
-2.92202
 30
0.000000
  70
    32
  0
VERTEX
  8
0
  5
3CE
 10
0.771888
 20
-2.92170
 30
0.000000
  70
    32
  0
VERTEX
  8
0
  5
3CF
 10
0.772052
 20
-2.92138
 30
0.000000
  70
    32
  0
VERTEX
  8
0
  5
3D0
 10
0.772213
 20
-2.92106
 30
0.000000
  70
    32
  0
VERTEX
  8
0
  5
3D1
 10
0.772369
 20
-2.92074
 30
0.000000
  70
    32
  0
VERTEX
  8
0
  5
3D2
 10
0.772522
 20
-2.92041
 30
0.000000
  70
    32
  0
VERTEX
  8
0
  5
3D3
 10
0.772671
 20
-2.92008
 30
0.000000
  70
    32
  0
VERTEX
  8
0
  5
3D4
 10
0.772817
 20
-2.91975
 30
0.000000
  70
    32
  0
VERTEX
  8
0
  5
3D5
 10
0.772958
 20
-2.91942
 30
0.000000
  70
    32
  0
VERTEX
  8
0
  5
3D6
 10
0.773095
 20
-2.91908
 30
0.000000
  70
    32
  0
VERTEX
  8
0
  5
3D7
 10
0.773229
 20
-2.91875
 30
0.000000
  70
    32
  0
VERTEX
  8
0
  5
3D8
 10
0.773358
 20
-2.91841
 30
0.000000
  70
    32
  0
VERTEX
  8
0
  5
3D9
 10
0.773484
 20
-2.91807
 30
0.000000
  70
    32
  0
VERTEX
  8
0
  5
3DA
 10
0.773605
 20
-2.91772
 30
0.000000
  70
    32
  0
VERTEX
  8
0
  5
3DB
 10
0.773722
 20
-2.91738
 30
0.000000
  70
    32
  0
VERTEX
  8
0
  5
3DC
 10
0.773836
 20
-2.91703
 30
0.000000
  70
    32
  0
VERTEX
  8
0
  5
3DD
 10
0.773945
 20
-2.91668
 30
0.000000
  70
    32
  0
VERTEX
  8
0
  5
3DE
 10
0.774050
 20
-2.91633
 30
0.000000
  70
    32
  0
VERTEX
  8
0
  5
3DF
 10
0.774151
 20
-2.91598
 30
0.000000
  70
    32
  0
VERTEX
  8
0
  5
3E0
 10
0.774247
 20
-2.91563
 30
0.000000
  70
    32
  0
VERTEX
  8
0
  5
3E1
 10
0.774339
 20
-2.91527
 30
0.000000
  70
    32
  0
VERTEX
  8
0
  5
3E2
 10
0.774427
 20
-2.91491
 30
0.000000
  70
    32
  0
VERTEX
  8
0
  5
3E3
 10
0.774511
 20
-2.91455
 30
0.000000
  70
    32
  0
VERTEX
  8
0
  5
3E4
 10
0.774591
 20
-2.91419
 30
0.000000
  70
    32
  0
VERTEX
  8
0
  5
3E5
 10
0.774666
 20
-2.91383
 30
0.000000
  70
    32
  0
VERTEX
  8
0
  5
3E6
 10
0.774736
 20
-2.91347
 30
0.000000
  70
    32
  0
VERTEX
  8
0
  5
3E7
 10
0.774803
 20
-2.91310
 30
0.000000
  70
    32
  0
VERTEX
  8
0
  5
3E8
 10
0.774864
 20
-2.91273
 30
0.000000
  70
    32
  0
VERTEX
  8
0
  5
3E9
 10
0.774922
 20
-2.91236
 30
0.000000
  70
    32
  0
VERTEX
  8
0
  5
3EA
 10
0.774975
 20
-2.91199
 30
0.000000
  70
    32
  0
VERTEX
  8
0
  5
3EB
 10
0.775023
 20
-2.91162
 30
0.000000
  70
    32
  0
VERTEX
  8
0
  5
3EC
 10
0.775067
 20
-2.91125
 30
0.000000
  70
    32
  0
VERTEX
  8
0
  5
3ED
 10
0.775106
 20
-2.91087
 30
0.000000
  70
    32
  0
VERTEX
  8
0
  5
3EE
 10
0.775140
 20
-2.91050
 30
0.000000
  70
    32
  0
VERTEX
  8
0
  5
3EF
 10
0.775170
 20
-2.91012
 30
0.000000
  70
    32
  0
VERTEX
  8
0
  5
3F0
 10
0.775196
 20
-2.90974
 30
0.000000
  70
    32
  0
VERTEX
  8
0
  5
3F1
 10
0.775216
 20
-2.90936
 30
0.000000
  70
    32
  0
VERTEX
  8
0
  5
3F2
 10
0.775232
 20
-2.90898
 30
0.000000
  70
    32
  0
VERTEX
  8
0
  5
3F3
 10
0.775243
 20
-2.90860
 30
0.000000
  70
    32
  0
SEQEND
  8
0
  5
3F4
  0
POLYLINE
  8
0
  5
3F5
  66
     1
 10
0.000000
 20
0.000000
 30
0.000000
  70
     8
  0
VERTEX
  8
0
  5
3F6
 10
0.709657
 20
-2.93778
 30
0.000000
  70
    32
  0
VERTEX
  8
0
  5
3F7
 10
0.709237
 20
-2.93779
 30
0.000000
  70
    32
  0
VERTEX
  8
0
  5
3F8
 10
0.708818
 20
-2.93779
 30
0.000000
  70
    32
  0
VERTEX
  8
0
  5
3F9
 10
0.708400
 20
-2.93780
 30
0.000000
  70
    32
  0
VERTEX
  8
0
  5
3FA
 10
0.707982
 20
-2.93782
 30
0.000000
  70
    32
  0
VERTEX
  8
0
  5
3FB
 10
0.707566
 20
-2.93784
 30
0.000000
  70
    32
  0
VERTEX
  8
0
  5
3FC
 10
0.707151
 20
-2.93786
 30
0.000000
  70
    32
  0
VERTEX
  8
0
  5
3FD
 10
0.706737
 20
-2.93789
 30
0.000000
  70
    32
  0
VERTEX
  8
0
  5
3FE
 10
0.706325
 20
-2.93792
 30
0.000000
  70
    32
  0
VERTEX
  8
0
  5
3FF
 10
0.705913
 20
-2.93796
 30
0.000000
  70
    32
  0
VERTEX
  8
0
  5
400
 10
0.705503
 20
-2.93800
 30
0.000000
  70
    32
  0
VERTEX
  8
0
  5
401
 10
0.705094
 20
-2.93805
 30
0.000000
  70
    32
  0
VERTEX
  8
0
  5
402
 10
0.704686
 20
-2.93810
 30
0.000000
  70
    32
  0
VERTEX
  8
0
  5
403
 10
0.704279
 20
-2.93815
 30
0.000000
  70
    32
  0
VERTEX
  8
0
  5
404
 10
0.703873
 20
-2.93821
 30
0.000000
  70
    32
  0
VERTEX
  8
0
  5
405
 10
0.703469
 20
-2.93827
 30
0.000000
  70
    32
  0
VERTEX
  8
0
  5
406
 10
0.703066
 20
-2.93833
 30
0.000000
  70
    32
  0
VERTEX
  8
0
  5
407
 10
0.702665
 20
-2.93840
 30
0.000000
  70
    32
  0
VERTEX
  8
0
  5
408
 10
0.702265
 20
-2.93848
 30
0.000000
  70
    32
  0
VERTEX
  8
0
  5
409
 10
0.701866
 20
-2.93856
 30
0.000000
  70
    32
  0
VERTEX
  8
0
  5
40A
 10
0.701469
 20
-2.93864
 30
0.000000
  70
    32
  0
VERTEX
  8
0
  5
40B
 10
0.701073
 20
-2.93872
 30
0.000000
  70
    32
  0
VERTEX
  8
0
  5
40C
 10
0.700678
 20
-2.93881
 30
0.000000
  70
    32
  0
VERTEX
  8
0
  5
40D
 10
0.700286
 20
-2.93891
 30
0.000000
  70
    32
  0
VERTEX
  8
0
  5
40E
 10
0.699894
 20
-2.93901
 30
0.000000
  70
    32
  0
VERTEX
  8
0
  5
40F
 10
0.699504
 20
-2.93911
 30
0.000000
  70
    32
  0
VERTEX
  8
0
  5
410
 10
0.699116
 20
-2.93921
 30
0.000000
  70
    32
  0
VERTEX
  8
0
  5
411
 10
0.698729
 20
-2.93932
 30
0.000000
  70
    32
  0
VERTEX
  8
0
  5
412
 10
0.698344
 20
-2.93944
 30
0.000000
  70
    32
  0
VERTEX
  8
0
  5
413
 10
0.697960
 20
-2.93955
 30
0.000000
  70
    32
  0
VERTEX
  8
0
  5
414
 10
0.697578
 20
-2.93967
 30
0.000000
  70
    32
  0
VERTEX
  8
0
  5
415
 10
0.697198
 20
-2.93980
 30
0.000000
  70
    32
  0
VERTEX
  8
0
  5
416
 10
0.696819
 20
-2.93993
 30
0.000000
  70
    32
  0
VERTEX
  8
0
  5
417
 10
0.696442
 20
-2.94006
 30
0.000000
  70
    32
  0
VERTEX
  8
0
  5
418
 10
0.696067
 20
-2.94019
 30
0.000000
  70
    32
  0
VERTEX
  8
0
  5
419
 10
0.695693
 20
-2.94033
 30
0.000000
  70
    32
  0
VERTEX
  8
0
  5
41A
 10
0.695321
 20
-2.94048
 30
0.000000
  70
    32
  0
VERTEX
  8
0
  5
41B
 10
0.694951
 20
-2.94062
 30
0.000000
  70
    32
  0
VERTEX
  8
0
  5
41C
 10
0.694583
 20
-2.94077
 30
0.000000
  70
    32
  0
VERTEX
  8
0
  5
41D
 10
0.694217
 20
-2.94093
 30
0.000000
  70
    32
  0
VERTEX
  8
0
  5
41E
 10
0.693852
 20
-2.94109
 30
0.000000
  70
    32
  0
VERTEX
  8
0
  5
41F
 10
0.693489
 20
-2.94125
 30
0.000000
  70
    32
  0
VERTEX
  8
0
  5
420
 10
0.693129
 20
-2.94141
 30
0.000000
  70
    32
  0
VERTEX
  8
0
  5
421
 10
0.692770
 20
-2.94158
 30
0.000000
  70
    32
  0
VERTEX
  8
0
  5
422
 10
0.692413
 20
-2.94175
 30
0.000000
  70
    32
  0
VERTEX
  8
0
  5
423
 10
0.692058
 20
-2.94193
 30
0.000000
  70
    32
  0
VERTEX
  8
0
  5
424
 10
0.691705
 20
-2.94210
 30
0.000000
  70
    32
  0
VERTEX
  8
0
  5
425
 10
0.691354
 20
-2.94229
 30
0.000000
  70
    32
  0
VERTEX
  8
0
  5
426
 10
0.691005
 20
-2.94247
 30
0.000000
  70
    32
  0
VERTEX
  8
0
  5
427
 10
0.690659
 20
-2.94266
 30
0.000000
  70
    32
  0
VERTEX
  8
0
  5
428
 10
0.690314
 20
-2.94285
 30
0.000000
  70
    32
  0
VERTEX
  8
0
  5
429
 10
0.689971
 20
-2.94305
 30
0.000000
  70
    32
  0
VERTEX
  8
0
  5
42A
 10
0.689631
 20
-2.94325
 30
0.000000
  70
    32
  0
VERTEX
  8
0
  5
42B
 10
0.689292
 20
-2.94345
 30
0.000000
  70
    32
  0
VERTEX
  8
0
  5
42C
 10
0.688956
 20
-2.94365
 30
0.000000
  70
    32
  0
VERTEX
  8
0
  5
42D
 10
0.688622
 20
-2.94386
 30
0.000000
  70
    32
  0
VERTEX
  8
0
  5
42E
 10
0.688290
 20
-2.94407
 30
0.000000
  70
    32
  0
VERTEX
  8
0
  5
42F
 10
0.687960
 20
-2.94429
 30
0.000000
  70
    32
  0
VERTEX
  8
0
  5
430
 10
0.687633
 20
-2.94451
 30
0.000000
  70
    32
  0
VERTEX
  8
0
  5
431
 10
0.687308
 20
-2.94473
 30
0.000000
  70
    32
  0
VERTEX
  8
0
  5
432
 10
0.686985
 20
-2.94495
 30
0.000000
  70
    32
  0
VERTEX
  8
0
  5
433
 10
0.686664
 20
-2.94518
 30
0.000000
  70
    32
  0
VERTEX
  8
0
  5
434
 10
0.686346
 20
-2.94541
 30
0.000000
  70
    32
  0
VERTEX
  8
0
  5
435
 10
0.686030
 20
-2.94564
 30
0.000000
  70
    32
  0
VERTEX
  8
0
  5
436
 10
0.685717
 20
-2.94588
 30
0.000000
  70
    32
  0
VERTEX
  8
0
  5
437
 10
0.685406
 20
-2.94612
 30
0.000000
  70
    32
  0
VERTEX
  8
0
  5
438
 10
0.685097
 20
-2.94636
 30
0.000000
  70
    32
  0
VERTEX
  8
0
  5
439
 10
0.684791
 20
-2.94661
 30
0.000000
  70
    32
  0
VERTEX
  8
0
  5
43A
 10
0.684488
 20
-2.94685
 30
0.000000
  70
    32
  0
VERTEX
  8
0
  5
43B
 10
0.684187
 20
-2.94711
 30
0.000000
  70
    32
  0
VERTEX
  8
0
  5
43C
 10
0.683888
 20
-2.94736
 30
0.000000
  70
    32
  0
VERTEX
  8
0
  5
43D
 10
0.683592
 20
-2.94762
 30
0.000000
  70
    32
  0
VERTEX
  8
0
  5
43E
 10
0.683298
 20
-2.94788
 30
0.000000
  70
    32
  0
VERTEX
  8
0
  5
43F
 10
0.683007
 20
-2.94814
 30
0.000000
  70
    32
  0
VERTEX
  8
0
  5
440
 10
0.682719
 20
-2.94841
 30
0.000000
  70
    32
  0
VERTEX
  8
0
  5
441
 10
0.682433
 20
-2.94867
 30
0.000000
  70
    32
  0
VERTEX
  8
0
  5
442
 10
0.682150
 20
-2.94895
 30
0.000000
  70
    32
  0
VERTEX
  8
0
  5
443
 10
0.681870
 20
-2.94922
 30
0.000000
  70
    32
  0
VERTEX
  8
0
  5
444
 10
0.681592
 20
-2.94950
 30
0.000000
  70
    32
  0
VERTEX
  8
0
  5
445
 10
0.681317
 20
-2.94978
 30
0.000000
  70
    32
  0
VERTEX
  8
0
  5
446
 10
0.681045
 20
-2.95006
 30
0.000000
  70
    32
  0
VERTEX
  8
0
  5
447
 10
0.680775
 20
-2.95034
 30
0.000000
  70
    32
  0
VERTEX
  8
0
  5
448
 10
0.680509
 20
-2.95063
 30
0.000000
  70
    32
  0
VERTEX
  8
0
  5
449
 10
0.680245
 20
-2.95092
 30
0.000000
  70
    32
  0
VERTEX
  8
0
  5
44A
 10
0.679984
 20
-2.95121
 30
0.000000
  70
    32
  0
VERTEX
  8
0
  5
44B
 10
0.679726
 20
-2.95151
 30
0.000000
  70
    32
  0
VERTEX
  8
0
  5
44C
 10
0.679470
 20
-2.95181
 30
0.000000
  70
    32
  0
VERTEX
  8
0
  5
44D
 10
0.679218
 20
-2.95211
 30
0.000000
  70
    32
  0
VERTEX
  8
0
  5
44E
 10
0.678968
 20
-2.95241
 30
0.000000
  70
    32
  0
VERTEX
  8
0
  5
44F
 10
0.678722
 20
-2.95272
 30
0.000000
  70
    32
  0
VERTEX
  8
0
  5
450
 10
0.678478
 20
-2.95303
 30
0.000000
  70
    32
  0
VERTEX
  8
0
  5
451
 10
0.678237
 20
-2.95334
 30
0.000000
  70
    32
  0
VERTEX
  8
0
  5
452
 10
0.678000
 20
-2.95365
 30
0.000000
  70
    32
  0
VERTEX
  8
0
  5
453
 10
0.677765
 20
-2.95396
 30
0.000000
  70
    32
  0
VERTEX
  8
0
  5
454
 10
0.677534
 20
-2.95428
 30
0.000000
  70
    32
  0
VERTEX
  8
0
  5
455
 10
0.677305
 20
-2.95460
 30
0.000000
  70
    32
  0
VERTEX
  8
0
  5
456
 10
0.677080
 20
-2.95492
 30
0.000000
  70
    32
  0
VERTEX
  8
0
  5
457
 10
0.676858
 20
-2.95525
 30
0.000000
  70
    32
  0
VERTEX
  8
0
  5
458
 10
0.676638
 20
-2.95558
 30
0.000000
  70
    32
  0
VERTEX
  8
0
  5
459
 10
0.676422
 20
-2.95591
 30
0.000000
  70
    32
  0
VERTEX
  8
0
  5
45A
 10
0.676210
 20
-2.95624
 30
0.000000
  70
    32
  0
VERTEX
  8
0
  5
45B
 10
0.676000
 20
-2.95657
 30
0.000000
  70
    32
  0
VERTEX
  8
0
  5
45C
 10
0.675794
 20
-2.95691
 30
0.000000
  70
    32
  0
VERTEX
  8
0
  5
45D
 10
0.675591
 20
-2.95725
 30
0.000000
  70
    32
  0
VERTEX
  8
0
  5
45E
 10
0.675391
 20
-2.95759
 30
0.000000
  70
    32
  0
VERTEX
  8
0
  5
45F
 10
0.675194
 20
-2.95793
 30
0.000000
  70
    32
  0
VERTEX
  8
0
  5
460
 10
0.675001
 20
-2.95827
 30
0.000000
  70
    32
  0
VERTEX
  8
0
  5
461
 10
0.674811
 20
-2.95862
 30
0.000000
  70
    32
  0
VERTEX
  8
0
  5
462
 10
0.674625
 20
-2.95897
 30
0.000000
  70
    32
  0
VERTEX
  8
0
  5
463
 10
0.674442
 20
-2.95932
 30
0.000000
  70
    32
  0
VERTEX
  8
0
  5
464
 10
0.674262
 20
-2.95967
 30
0.000000
  70
    32
  0
VERTEX
  8
0
  5
465
 10
0.674086
 20
-2.96003
 30
0.000000
  70
    32
  0
VERTEX
  8
0
  5
466
 10
0.673913
 20
-2.96038
 30
0.000000
  70
    32
  0
VERTEX
  8
0
  5
467
 10
0.673743
 20
-2.96074
 30
0.000000
  70
    32
  0
VERTEX
  8
0
  5
468
 10
0.673577
 20
-2.96110
 30
0.000000
  70
    32
  0
VERTEX
  8
0
  5
469
 10
0.673415
 20
-2.96147
 30
0.000000
  70
    32
  0
VERTEX
  8
0
  5
46A
 10
0.673256
 20
-2.96183
 30
0.000000
  70
    32
  0
VERTEX
  8
0
  5
46B
 10
0.673101
 20
-2.96220
 30
0.000000
  70
    32
  0
VERTEX
  8
0
  5
46C
 10
0.672949
 20
-2.96257
 30
0.000000
  70
    32
  0
VERTEX
  8
0
  5
46D
 10
0.672801
 20
-2.96294
 30
0.000000
  70
    32
  0
VERTEX
  8
0
  5
46E
 10
0.672657
 20
-2.96331
 30
0.000000
  70
    32
  0
VERTEX
  8
0
  5
46F
 10
0.672516
 20
-2.96368
 30
0.000000
  70
    32
  0
VERTEX
  8
0
  5
470
 10
0.672379
 20
-2.96406
 30
0.000000
  70
    32
  0
VERTEX
  8
0
  5
471
 10
0.672246
 20
-2.96444
 30
0.000000
  70
    32
  0
VERTEX
  8
0
  5
472
 10
0.672116
 20
-2.96482
 30
0.000000
  70
    32
  0
VERTEX
  8
0
  5
473
 10
0.671990
 20
-2.96520
 30
0.000000
  70
    32
  0
VERTEX
  8
0
  5
474
 10
0.671868
 20
-2.96558
 30
0.000000
  70
    32
  0
VERTEX
  8
0
  5
475
 10
0.671749
 20
-2.96596
 30
0.000000
  70
    32
  0
SEQEND
  8
0
  5
476
  0
POLYLINE
  8
0
  5
477
  66
     1
 10
0.000000
 20
0.000000
 30
0.000000
  70
     8
  0
VERTEX
  8
0
  5
478
 10
1.04434
 20
-0.974557
 30
0.000000
  70
    32
  0
VERTEX
  8
0
  5
479
 10
1.04435
 20
-0.974333
 30
0.000000
  70
    32
  0
VERTEX
  8
0
  5
47A
 10
1.04435
 20
-0.974108
 30
0.000000
  70
    32
  0
VERTEX
  8
0
  5
47B
 10
1.04436
 20
-0.973883
 30
0.000000
  70
    32
  0
VERTEX
  8
0
  5
47C
 10
1.04436
 20
-0.973659
 30
0.000000
  70
    32
  0
VERTEX
  8
0
  5
47D
 10
1.04437
 20
-0.973434
 30
0.000000
  70
    32
  0
VERTEX
  8
0
  5
47E
 10
1.04437
 20
-0.973210
 30
0.000000
  70
    32
  0
VERTEX
  8
0
  5
47F
 10
1.04437
 20
-0.972985
 30
0.000000
  70
    32
  0
VERTEX
  8
0
  5
480
 10
1.04438
 20
-0.972761
 30
0.000000
  70
    32
  0
VERTEX
  8
0
  5
481
 10
1.04438
 20
-0.972536
 30
0.000000
  70
    32
  0
VERTEX
  8
0
  5
482
 10
1.04439
 20
-0.972312
 30
0.000000
  70
    32
  0
VERTEX
  8
0
  5
483
 10
1.04439
 20
-0.972087
 30
0.000000
  70
    32
  0
VERTEX
  8
0
  5
484
 10
1.04439
 20
-0.971863
 30
0.000000
  70
    32
  0
VERTEX
  8
0
  5
485
 10
1.04440
 20
-0.971638
 30
0.000000
  70
    32
  0
VERTEX
  8
0
  5
486
 10
1.04440
 20
-0.971414
 30
0.000000
  70
    32
  0
VERTEX
  8
0
  5
487
 10
1.04440
 20
-0.971190
 30
0.000000
  70
    32
  0
VERTEX
  8
0
  5
488
 10
1.04441
 20
-0.970965
 30
0.000000
  70
    32
  0
VERTEX
  8
0
  5
489
 10
1.04441
 20
-0.970741
 30
0.000000
  70
    32
  0
VERTEX
  8
0
  5
48A
 10
1.04441
 20
-0.970517
 30
0.000000
  70
    32
  0
VERTEX
  8
0
  5
48B
 10
1.04441
 20
-0.970292
 30
0.000000
  70
    32
  0
VERTEX
  8
0
  5
48C
 10
1.04442
 20
-0.970068
 30
0.000000
  70
    32
  0
VERTEX
  8
0
  5
48D
 10
1.04442
 20
-0.969844
 30
0.000000
  70
    32
  0
VERTEX
  8
0
  5
48E
 10
1.04442
 20
-0.969619
 30
0.000000
  70
    32
  0
VERTEX
  8
0
  5
48F
 10
1.04442
 20
-0.969395
 30
0.000000
  70
    32
  0
VERTEX
  8
0
  5
490
 10
1.04443
 20
-0.969171
 30
0.000000
  70
    32
  0
VERTEX
  8
0
  5
491
 10
1.04443
 20
-0.968947
 30
0.000000
  70
    32
  0
VERTEX
  8
0
  5
492
 10
1.04443
 20
-0.968723
 30
0.000000
  70
    32
  0
VERTEX
  8
0
  5
493
 10
1.04443
 20
-0.968498
 30
0.000000
  70
    32
  0
VERTEX
  8
0
  5
494
 10
1.04443
 20
-0.968274
 30
0.000000
  70
    32
  0
VERTEX
  8
0
  5
495
 10
1.04444
 20
-0.968050
 30
0.000000
  70
    32
  0
VERTEX
  8
0
  5
496
 10
1.04444
 20
-0.967826
 30
0.000000
  70
    32
  0
VERTEX
  8
0
  5
497
 10
1.04444
 20
-0.967602
 30
0.000000
  70
    32
  0
VERTEX
  8
0
  5
498
 10
1.04444
 20
-0.967378
 30
0.000000
  70
    32
  0
VERTEX
  8
0
  5
499
 10
1.04444
 20
-0.967154
 30
0.000000
  70
    32
  0
VERTEX
  8
0
  5
49A
 10
1.04444
 20
-0.966929
 30
0.000000
  70
    32
  0
VERTEX
  8
0
  5
49B
 10
1.04445
 20
-0.966705
 30
0.000000
  70
    32
  0
VERTEX
  8
0
  5
49C
 10
1.04445
 20
-0.966481
 30
0.000000
  70
    32
  0
VERTEX
  8
0
  5
49D
 10
1.04445
 20
-0.966257
 30
0.000000
  70
    32
  0
VERTEX
  8
0
  5
49E
 10
1.04445
 20
-0.966033
 30
0.000000
  70
    32
  0
VERTEX
  8
0
  5
49F
 10
1.04445
 20
-0.965809
 30
0.000000
  70
    32
  0
VERTEX
  8
0
  5
4A0
 10
1.04445
 20
-0.965585
 30
0.000000
  70
    32
  0
VERTEX
  8
0
  5
4A1
 10
1.04445
 20
-0.965361
 30
0.000000
  70
    32
  0
VERTEX
  8
0
  5
4A2
 10
1.04445
 20
-0.965137
 30
0.000000
  70
    32
  0
VERTEX
  8
0
  5
4A3
 10
1.04445
 20
-0.964913
 30
0.000000
  70
    32
  0
VERTEX
  8
0
  5
4A4
 10
1.04445
 20
-0.964689
 30
0.000000
  70
    32
  0
VERTEX
  8
0
  5
4A5
 10
1.04445
 20
-0.964466
 30
0.000000
  70
    32
  0
VERTEX
  8
0
  5
4A6
 10
1.04445
 20
-0.964242
 30
0.000000
  70
    32
  0
VERTEX
  8
0
  5
4A7
 10
1.04445
 20
-0.964018
 30
0.000000
  70
    32
  0
VERTEX
  8
0
  5
4A8
 10
1.04445
 20
-0.963794
 30
0.000000
  70
    32
  0
VERTEX
  8
0
  5
4A9
 10
1.04445
 20
-0.963570
 30
0.000000
  70
    32
  0
VERTEX
  8
0
  5
4AA
 10
1.04445
 20
-0.963346
 30
0.000000
  70
    32
  0
VERTEX
  8
0
  5
4AB
 10
1.04445
 20
-0.963122
 30
0.000000
  70
    32
  0
VERTEX
  8
0
  5
4AC
 10
1.04445
 20
-0.962898
 30
0.000000
  70
    32
  0
VERTEX
  8
0
  5
4AD
 10
1.04445
 20
-0.962675
 30
0.000000
  70
    32
  0
VERTEX
  8
0
  5
4AE
 10
1.04445
 20
-0.962451
 30
0.000000
  70
    32
  0
VERTEX
  8
0
  5
4AF
 10
1.04445
 20
-0.962227
 30
0.000000
  70
    32
  0
VERTEX
  8
0
  5
4B0
 10
1.04445
 20
-0.962003
 30
0.000000
  70
    32
  0
VERTEX
  8
0
  5
4B1
 10
1.04445
 20
-0.961779
 30
0.000000
  70
    32
  0
VERTEX
  8
0
  5
4B2
 10
1.04445
 20
-0.961556
 30
0.000000
  70
    32
  0
VERTEX
  8
0
  5
4B3
 10
1.04445
 20
-0.961332
 30
0.000000
  70
    32
  0
VERTEX
  8
0
  5
4B4
 10
1.04444
 20
-0.961108
 30
0.000000
  70
    32
  0
VERTEX
  8
0
  5
4B5
 10
1.04444
 20
-0.960884
 30
0.000000
  70
    32
  0
VERTEX
  8
0
  5
4B6
 10
1.04444
 20
-0.960661
 30
0.000000
  70
    32
  0
VERTEX
  8
0
  5
4B7
 10
1.04444
 20
-0.960437
 30
0.000000
  70
    32
  0
VERTEX
  8
0
  5
4B8
 10
1.04444
 20
-0.960213
 30
0.000000
  70
    32
  0
VERTEX
  8
0
  5
4B9
 10
1.04444
 20
-0.959989
 30
0.000000
  70
    32
  0
VERTEX
  8
0
  5
4BA
 10
1.04443
 20
-0.959766
 30
0.000000
  70
    32
  0
VERTEX
  8
0
  5
4BB
 10
1.04443
 20
-0.959542
 30
0.000000
  70
    32
  0
VERTEX
  8
0
  5
4BC
 10
1.04443
 20
-0.959318
 30
0.000000
  70
    32
  0
VERTEX
  8
0
  5
4BD
 10
1.04443
 20
-0.959095
 30
0.000000
  70
    32
  0
VERTEX
  8
0
  5
4BE
 10
1.04443
 20
-0.958871
 30
0.000000
  70
    32
  0
VERTEX
  8
0
  5
4BF
 10
1.04442
 20
-0.958647
 30
0.000000
  70
    32
  0
VERTEX
  8
0
  5
4C0
 10
1.04442
 20
-0.958424
 30
0.000000
  70
    32
  0
VERTEX
  8
0
  5
4C1
 10
1.04442
 20
-0.958200
 30
0.000000
  70
    32
  0
VERTEX
  8
0
  5
4C2
 10
1.04442
 20
-0.957977
 30
0.000000
  70
    32
  0
VERTEX
  8
0
  5
4C3
 10
1.04441
 20
-0.957753
 30
0.000000
  70
    32
  0
VERTEX
  8
0
  5
4C4
 10
1.04441
 20
-0.957529
 30
0.000000
  70
    32
  0
VERTEX
  8
0
  5
4C5
 10
1.04441
 20
-0.957306
 30
0.000000
  70
    32
  0
VERTEX
  8
0
  5
4C6
 10
1.04440
 20
-0.957082
 30
0.000000
  70
    32
  0
VERTEX
  8
0
  5
4C7
 10
1.04440
 20
-0.956859
 30
0.000000
  70
    32
  0
VERTEX
  8
0
  5
4C8
 10
1.04440
 20
-0.956635
 30
0.000000
  70
    32
  0
VERTEX
  8
0
  5
4C9
 10
1.04439
 20
-0.956412
 30
0.000000
  70
    32
  0
VERTEX
  8
0
  5
4CA
 10
1.04439
 20
-0.956188
 30
0.000000
  70
    32
  0
VERTEX
  8
0
  5
4CB
 10
1.04439
 20
-0.955964
 30
0.000000
  70
    32
  0
VERTEX
  8
0
  5
4CC
 10
1.04438
 20
-0.955741
 30
0.000000
  70
    32
  0
VERTEX
  8
0
  5
4CD
 10
1.04438
 20
-0.955517
 30
0.000000
  70
    32
  0
VERTEX
  8
0
  5
4CE
 10
1.04438
 20
-0.955294
 30
0.000000
  70
    32
  0
VERTEX
  8
0
  5
4CF
 10
1.04437
 20
-0.955070
 30
0.000000
  70
    32
  0
VERTEX
  8
0
  5
4D0
 10
1.04437
 20
-0.954847
 30
0.000000
  70
    32
  0
VERTEX
  8
0
  5
4D1
 10
1.04436
 20
-0.954623
 30
0.000000
  70
    32
  0
VERTEX
  8
0
  5
4D2
 10
1.04436
 20
-0.954400
 30
0.000000
  70
    32
  0
VERTEX
  8
0
  5
4D3
 10
1.04436
 20
-0.954176
 30
0.000000
  70
    32
  0
VERTEX
  8
0
  5
4D4
 10
1.04435
 20
-0.953953
 30
0.000000
  70
    32
  0
VERTEX
  8
0
  5
4D5
 10
1.04435
 20
-0.953729
 30
0.000000
  70
    32
  0
VERTEX
  8
0
  5
4D6
 10
1.04434
 20
-0.953506
 30
0.000000
  70
    32
  0
VERTEX
  8
0
  5
4D7
 10
1.04434
 20
-0.953282
 30
0.000000
  70
    32
  0
VERTEX
  8
0
  5
4D8
 10
1.04433
 20
-0.953059
 30
0.000000
  70
    32
  0
VERTEX
  8
0
  5
4D9
 10
1.04433
 20
-0.952836
 30
0.000000
  70
    32
  0
VERTEX
  8
0
  5
4DA
 10
1.04432
 20
-0.952612
 30
0.000000
  70
    32
  0
VERTEX
  8
0
  5
4DB
 10
1.04432
 20
-0.952389
 30
0.000000
  70
    32
  0
VERTEX
  8
0
  5
4DC
 10
1.04431
 20
-0.952165
 30
0.000000
  70
    32
  0
VERTEX
  8
0
  5
4DD
 10
1.04431
 20
-0.951942
 30
0.000000
  70
    32
  0
VERTEX
  8
0
  5
4DE
 10
1.04430
 20
-0.951718
 30
0.000000
  70
    32
  0
VERTEX
  8
0
  5
4DF
 10
1.04430
 20
-0.951495
 30
0.000000
  70
    32
  0
VERTEX
  8
0
  5
4E0
 10
1.04429
 20
-0.951272
 30
0.000000
  70
    32
  0
VERTEX
  8
0
  5
4E1
 10
1.04428
 20
-0.951048
 30
0.000000
  70
    32
  0
VERTEX
  8
0
  5
4E2
 10
1.04428
 20
-0.950825
 30
0.000000
  70
    32
  0
VERTEX
  8
0
  5
4E3
 10
1.04427
 20
-0.950601
 30
0.000000
  70
    32
  0
VERTEX
  8
0
  5
4E4
 10
1.04427
 20
-0.950378
 30
0.000000
  70
    32
  0
VERTEX
  8
0
  5
4E5
 10
1.04426
 20
-0.950155
 30
0.000000
  70
    32
  0
VERTEX
  8
0
  5
4E6
 10
1.04425
 20
-0.949931
 30
0.000000
  70
    32
  0
VERTEX
  8
0
  5
4E7
 10
1.04425
 20
-0.949708
 30
0.000000
  70
    32
  0
VERTEX
  8
0
  5
4E8
 10
1.04424
 20
-0.949484
 30
0.000000
  70
    32
  0
VERTEX
  8
0
  5
4E9
 10
1.04423
 20
-0.949261
 30
0.000000
  70
    32
  0
VERTEX
  8
0
  5
4EA
 10
1.04423
 20
-0.949038
 30
0.000000
  70
    32
  0
VERTEX
  8
0
  5
4EB
 10
1.04422
 20
-0.948814
 30
0.000000
  70
    32
  0
VERTEX
  8
0
  5
4EC
 10
1.04421
 20
-0.948591
 30
0.000000
  70
    32
  0
VERTEX
  8
0
  5
4ED
 10
1.04421
 20
-0.948368
 30
0.000000
  70
    32
  0
VERTEX
  8
0
  5
4EE
 10
1.04420
 20
-0.948144
 30
0.000000
  70
    32
  0
VERTEX
  8
0
  5
4EF
 10
1.04419
 20
-0.947921
 30
0.000000
  70
    32
  0
VERTEX
  8
0
  5
4F0
 10
1.04418
 20
-0.947698
 30
0.000000
  70
    32
  0
VERTEX
  8
0
  5
4F1
 10
1.04418
 20
-0.947474
 30
0.000000
  70
    32
  0
VERTEX
  8
0
  5
4F2
 10
1.04417
 20
-0.947251
 30
0.000000
  70
    32
  0
VERTEX
  8
0
  5
4F3
 10
1.04416
 20
-0.947028
 30
0.000000
  70
    32
  0
VERTEX
  8
0
  5
4F4
 10
1.04415
 20
-0.946804
 30
0.000000
  70
    32
  0
VERTEX
  8
0
  5
4F5
 10
1.04415
 20
-0.946581
 30
0.000000
  70
    32
  0
VERTEX
  8
0
  5
4F6
 10
1.04414
 20
-0.946357
 30
0.000000
  70
    32
  0
VERTEX
  8
0
  5
4F7
 10
1.04413
 20
-0.946134
 30
0.000000
  70
    32
  0
SEQEND
  8
0
  5
4F8
  0
POLYLINE
  8
0
  5
4F9
  66
     1
 10
0.000000
 20
0.000000
 30
0.000000
  70
     8
  0
VERTEX
  8
0
  5
4FA
 10
0.734138
 20
-4.33833
 30
0.000000
  70
    32
  0
VERTEX
  8
0
  5
4FB
 10
0.727588
 20
-4.33929
 30
0.000000
  70
    32
  0
VERTEX
  8
0
  5
4FC
 10
0.721038
 20
-4.34024
 30
0.000000
  70
    32
  0
VERTEX
  8
0
  5
4FD
 10
0.714486
 20
-4.34118
 30
0.000000
  70
    32
  0
VERTEX
  8
0
  5
4FE
 10
0.707934
 20
-4.34212
 30
0.000000
  70
    32
  0
VERTEX
  8
0
  5
4FF
 10
0.701381
 20
-4.34305
 30
0.000000
  70
    32
  0
VERTEX
  8
0
  5
500
 10
0.694827
 20
-4.34396
 30
0.000000
  70
    32
  0
VERTEX
  8
0
  5
501
 10
0.688272
 20
-4.34487
 30
0.000000
  70
    32
  0
VERTEX
  8
0
  5
502
 10
0.681716
 20
-4.34577
 30
0.000000
  70
    32
  0
VERTEX
  8
0
  5
503
 10
0.675159
 20
-4.34667
 30
0.000000
  70
    32
  0
VERTEX
  8
0
  5
504
 10
0.668601
 20
-4.34755
 30
0.000000
  70
    32
  0
VERTEX
  8
0
  5
505
 10
0.662043
 20
-4.34843
 30
0.000000
  70
    32
  0
VERTEX
  8
0
  5
506
 10
0.655483
 20
-4.34929
 30
0.000000
  70
    32
  0
VERTEX
  8
0
  5
507
 10
0.648923
 20
-4.35015
 30
0.000000
  70
    32
  0
VERTEX
  8
0
  5
508
 10
0.642362
 20
-4.35100
 30
0.000000
  70
    32
  0
VERTEX
  8
0
  5
509
 10
0.635800
 20
-4.35184
 30
0.000000
  70
    32
  0
VERTEX
  8
0
  5
50A
 10
0.629238
 20
-4.35267
 30
0.000000
  70
    32
  0
VERTEX
  8
0
  5
50B
 10
0.622674
 20
-4.35350
 30
0.000000
  70
    32
  0
VERTEX
  8
0
  5
50C
 10
0.616110
 20
-4.35431
 30
0.000000
  70
    32
  0
VERTEX
  8
0
  5
50D
 10
0.609545
 20
-4.35512
 30
0.000000
  70
    32
  0
VERTEX
  8
0
  5
50E
 10
0.602979
 20
-4.35591
 30
0.000000
  70
    32
  0
VERTEX
  8
0
  5
50F
 10
0.596412
 20
-4.35670
 30
0.000000
  70
    32
  0
VERTEX
  8
0
  5
510
 10
0.589845
 20
-4.35748
 30
0.000000
  70
    32
  0
VERTEX
  8
0
  5
511
 10
0.583277
 20
-4.35826
 30
0.000000
  70
    32
  0
VERTEX
  8
0
  5
512
 10
0.576708
 20
-4.35902
 30
0.000000
  70
    32
  0
VERTEX
  8
0
  5
513
 10
0.570138
 20
-4.35977
 30
0.000000
  70
    32
  0
VERTEX
  8
0
  5
514
 10
0.563568
 20
-4.36052
 30
0.000000
  70
    32
  0
VERTEX
  8
0
  5
515
 10
0.556997
 20
-4.36126
 30
0.000000
  70
    32
  0
VERTEX
  8
0
  5
516
 10
0.550425
 20
-4.36199
 30
0.000000
  70
    32
  0
VERTEX
  8
0
  5
517
 10
0.543852
 20
-4.36271
 30
0.000000
  70
    32
  0
VERTEX
  8
0
  5
518
 10
0.537279
 20
-4.36342
 30
0.000000
  70
    32
  0
VERTEX
  8
0
  5
519
 10
0.530705
 20
-4.36412
 30
0.000000
  70
    32
  0
VERTEX
  8
0
  5
51A
 10
0.524130
 20
-4.36482
 30
0.000000
  70
    32
  0
VERTEX
  8
0
  5
51B
 10
0.517555
 20
-4.36550
 30
0.000000
  70
    32
  0
VERTEX
  8
0
  5
51C
 10
0.510979
 20
-4.36618
 30
0.000000
  70
    32
  0
VERTEX
  8
0
  5
51D
 10
0.504403
 20
-4.36685
 30
0.000000
  70
    32
  0
VERTEX
  8
0
  5
51E
 10
0.497825
 20
-4.36751
 30
0.000000
  70
    32
  0
VERTEX
  8
0
  5
51F
 10
0.491247
 20
-4.36816
 30
0.000000
  70
    32
  0
VERTEX
  8
0
  5
520
 10
0.484669
 20
-4.36881
 30
0.000000
  70
    32
  0
VERTEX
  8
0
  5
521
 10
0.478090
 20
-4.36944
 30
0.000000
  70
    32
  0
VERTEX
  8
0
  5
522
 10
0.471510
 20
-4.37007
 30
0.000000
  70
    32
  0
VERTEX
  8
0
  5
523
 10
0.464930
 20
-4.37068
 30
0.000000
  70
    32
  0
VERTEX
  8
0
  5
524
 10
0.458349
 20
-4.37129
 30
0.000000
  70
    32
  0
VERTEX
  8
0
  5
525
 10
0.451767
 20
-4.37189
 30
0.000000
  70
    32
  0
VERTEX
  8
0
  5
526
 10
0.445185
 20
-4.37248
 30
0.000000
  70
    32
  0
VERTEX
  8
0
  5
527
 10
0.438602
 20
-4.37307
 30
0.000000
  70
    32
  0
VERTEX
  8
0
  5
528
 10
0.432019
 20
-4.37364
 30
0.000000
  70
    32
  0
VERTEX
  8
0
  5
529
 10
0.425435
 20
-4.37421
 30
0.000000
  70
    32
  0
VERTEX
  8
0
  5
52A
 10
0.418851
 20
-4.37476
 30
0.000000
  70
    32
  0
VERTEX
  8
0
  5
52B
 10
0.412266
 20
-4.37531
 30
0.000000
  70
    32
  0
VERTEX
  8
0
  5
52C
 10
0.405680
 20
-4.37585
 30
0.000000
  70
    32
  0
VERTEX
  8
0
  5
52D
 10
0.399094
 20
-4.37638
 30
0.000000
  70
    32
  0
VERTEX
  8
0
  5
52E
 10
0.392508
 20
-4.37691
 30
0.000000
  70
    32
  0
VERTEX
  8
0
  5
52F
 10
0.385921
 20
-4.37742
 30
0.000000
  70
    32
  0
VERTEX
  8
0
  5
530
 10
0.379333
 20
-4.37793
 30
0.000000
  70
    32
  0
VERTEX
  8
0
  5
531
 10
0.372745
 20
-4.37842
 30
0.000000
  70
    32
  0
VERTEX
  8
0
  5
532
 10
0.366157
 20
-4.37891
 30
0.000000
  70
    32
  0
VERTEX
  8
0
  5
533
 10
0.359568
 20
-4.37939
 30
0.000000
  70
    32
  0
VERTEX
  8
0
  5
534
 10
0.352979
 20
-4.37986
 30
0.000000
  70
    32
  0
VERTEX
  8
0
  5
535
 10
0.346389
 20
-4.38033
 30
0.000000
  70
    32
  0
VERTEX
  8
0
  5
536
 10
0.339798
 20
-4.38078
 30
0.000000
  70
    32
  0
VERTEX
  8
0
  5
537
 10
0.333208
 20
-4.38122
 30
0.000000
  70
    32
  0
VERTEX
  8
0
  5
538
 10
0.326617
 20
-4.38166
 30
0.000000
  70
    32
  0
VERTEX
  8
0
  5
539
 10
0.320025
 20
-4.38209
 30
0.000000
  70
    32
  0
VERTEX
  8
0
  5
53A
 10
0.313433
 20
-4.38251
 30
0.000000
  70
    32
  0
VERTEX
  8
0
  5
53B
 10
0.306841
 20
-4.38292
 30
0.000000
  70
    32
  0
VERTEX
  8
0
  5
53C
 10
0.300248
 20
-4.38332
 30
0.000000
  70
    32
  0
VERTEX
  8
0
  5
53D
 10
0.293655
 20
-4.38372
 30
0.000000
  70
    32
  0
VERTEX
  8
0
  5
53E
 10
0.287061
 20
-4.38410
 30
0.000000
  70
    32
  0
VERTEX
  8
0
  5
53F
 10
0.280467
 20
-4.38448
 30
0.000000
  70
    32
  0
VERTEX
  8
0
  5
540
 10
0.273873
 20
-4.38485
 30
0.000000
  70
    32
  0
VERTEX
  8
0
  5
541
 10
0.267278
 20
-4.38521
 30
0.000000
  70
    32
  0
VERTEX
  8
0
  5
542
 10
0.260683
 20
-4.38556
 30
0.000000
  70
    32
  0
VERTEX
  8
0
  5
543
 10
0.254088
 20
-4.38590
 30
0.000000
  70
    32
  0
VERTEX
  8
0
  5
544
 10
0.247492
 20
-4.38623
 30
0.000000
  70
    32
  0
VERTEX
  8
0
  5
545
 10
0.240896
 20
-4.38656
 30
0.000000
  70
    32
  0
VERTEX
  8
0
  5
546
 10
0.234300
 20
-4.38688
 30
0.000000
  70
    32
  0
VERTEX
  8
0
  5
547
 10
0.227704
 20
-4.38718
 30
0.000000
  70
    32
  0
VERTEX
  8
0
  5
548
 10
0.221107
 20
-4.38748
 30
0.000000
  70
    32
  0
VERTEX
  8
0
  5
549
 10
0.214510
 20
-4.38777
 30
0.000000
  70
    32
  0
VERTEX
  8
0
  5
54A
 10
0.207912
 20
-4.38806
 30
0.000000
  70
    32
  0
VERTEX
  8
0
  5
54B
 10
0.201314
 20
-4.38833
 30
0.000000
  70
    32
  0
VERTEX
  8
0
  5
54C
 10
0.194716
 20
-4.38860
 30
0.000000
  70
    32
  0
VERTEX
  8
0
  5
54D
 10
0.188118
 20
-4.38885
 30
0.000000
  70
    32
  0
VERTEX
  8
0
  5
54E
 10
0.181520
 20
-4.38910
 30
0.000000
  70
    32
  0
VERTEX
  8
0
  5
54F
 10
0.174921
 20
-4.38934
 30
0.000000
  70
    32
  0
VERTEX
  8
0
  5
550
 10
0.168322
 20
-4.38957
 30
0.000000
  70
    32
  0
VERTEX
  8
0
  5
551
 10
0.161723
 20
-4.38979
 30
0.000000
  70
    32
  0
VERTEX
  8
0
  5
552
 10
0.155124
 20
-4.39001
 30
0.000000
  70
    32
  0
VERTEX
  8
0
  5
553
 10
0.148524
 20
-4.39021
 30
0.000000
  70
    32
  0
VERTEX
  8
0
  5
554
 10
0.141925
 20
-4.39041
 30
0.000000
  70
    32
  0
VERTEX
  8
0
  5
555
 10
0.135325
 20
-4.39059
 30
0.000000
  70
    32
  0
VERTEX
  8
0
  5
556
 10
0.128725
 20
-4.39077
 30
0.000000
  70
    32
  0
VERTEX
  8
0
  5
557
 10
0.122124
 20
-4.39094
 30
0.000000
  70
    32
  0
VERTEX
  8
0
  5
558
 10
0.115524
 20
-4.39111
 30
0.000000
  70
    32
  0
VERTEX
  8
0
  5
559
 10
0.108923
 20
-4.39126
 30
0.000000
  70
    32
  0
VERTEX
  8
0
  5
55A
 10
0.102323
 20
-4.39140
 30
0.000000
  70
    32
  0
VERTEX
  8
0
  5
55B
 10
0.0957218
 20
-4.39154
 30
0.000000
  70
    32
  0
VERTEX
  8
0
  5
55C
 10
0.0891208
 20
-4.39167
 30
0.000000
  70
    32
  0
VERTEX
  8
0
  5
55D
 10
0.0825197
 20
-4.39179
 30
0.000000
  70
    32
  0
VERTEX
  8
0
  5
55E
 10
0.0759186
 20
-4.39190
 30
0.000000
  70
    32
  0
VERTEX
  8
0
  5
55F
 10
0.0693173
 20
-4.39200
 30
0.000000
  70
    32
  0
VERTEX
  8
0
  5
560
 10
0.0627159
 20
-4.39209
 30
0.000000
  70
    32
  0
VERTEX
  8
0
  5
561
 10
0.0561145
 20
-4.39218
 30
0.000000
  70
    32
  0
VERTEX
  8
0
  5
562
 10
0.0495129
 20
-4.39225
 30
0.000000
  70
    32
  0
VERTEX
  8
0
  5
563
 10
0.0429113
 20
-4.39232
 30
0.000000
  70
    32
  0
VERTEX
  8
0
  5
564
 10
0.0363097
 20
-4.39238
 30
0.000000
  70
    32
  0
VERTEX
  8
0
  5
565
 10
0.0297080
 20
-4.39243
 30
0.000000
  70
    32
  0
VERTEX
  8
0
  5
566
 10
0.0231063
 20
-4.39247
 30
0.000000
  70
    32
  0
VERTEX
  8
0
  5
567
 10
0.0165045
 20
-4.39250
 30
0.000000
  70
    32
  0
VERTEX
  8
0
  5
568
 10
0.00990271
 20
-4.39253
 30
0.000000
  70
    32
  0
VERTEX
  8
0
  5
569
 10
0.00330090
 20
-4.39254
 30
0.000000
  70
    32
  0
VERTEX
  8
0
  5
56A
 10
-0.00330090
 20
-4.39254
 30
0.000000
  70
    32
  0
VERTEX
  8
0
  5
56B
 10
-0.00990271
 20
-4.39253
 30
0.000000
  70
    32
  0
VERTEX
  8
0
  5
56C
 10
-0.0165045
 20
-4.39250
 30
0.000000
  70
    32
  0
VERTEX
  8
0
  5
56D
 10
-0.0231063
 20
-4.39247
 30
0.000000
  70
    32
  0
VERTEX
  8
0
  5
56E
 10
-0.0297080
 20
-4.39243
 30
0.000000
  70
    32
  0
VERTEX
  8
0
  5
56F
 10
-0.0363097
 20
-4.39238
 30
0.000000
  70
    32
  0
VERTEX
  8
0
  5
570
 10
-0.0429113
 20
-4.39232
 30
0.000000
  70
    32
  0
VERTEX
  8
0
  5
571
 10
-0.0495129
 20
-4.39225
 30
0.000000
  70
    32
  0
VERTEX
  8
0
  5
572
 10
-0.0561145
 20
-4.39218
 30
0.000000
  70
    32
  0
VERTEX
  8
0
  5
573
 10
-0.0627159
 20
-4.39209
 30
0.000000
  70
    32
  0
VERTEX
  8
0
  5
574
 10
-0.0693173
 20
-4.39200
 30
0.000000
  70
    32
  0
VERTEX
  8
0
  5
575
 10
-0.0759186
 20
-4.39190
 30
0.000000
  70
    32
  0
VERTEX
  8
0
  5
576
 10
-0.0825197
 20
-4.39179
 30
0.000000
  70
    32
  0
VERTEX
  8
0
  5
577
 10
-0.0891208
 20
-4.39167
 30
0.000000
  70
    32
  0
VERTEX
  8
0
  5
578
 10
-0.0957218
 20
-4.39154
 30
0.000000
  70
    32
  0
VERTEX
  8
0
  5
579
 10
-0.102323
 20
-4.39140
 30
0.000000
  70
    32
  0
VERTEX
  8
0
  5
57A
 10
-0.108923
 20
-4.39126
 30
0.000000
  70
    32
  0
VERTEX
  8
0
  5
57B
 10
-0.115524
 20
-4.39111
 30
0.000000
  70
    32
  0
VERTEX
  8
0
  5
57C
 10
-0.122124
 20
-4.39094
 30
0.000000
  70
    32
  0
VERTEX
  8
0
  5
57D
 10
-0.128725
 20
-4.39077
 30
0.000000
  70
    32
  0
VERTEX
  8
0
  5
57E
 10
-0.135325
 20
-4.39059
 30
0.000000
  70
    32
  0
VERTEX
  8
0
  5
57F
 10
-0.141925
 20
-4.39041
 30
0.000000
  70
    32
  0
VERTEX
  8
0
  5
580
 10
-0.148524
 20
-4.39021
 30
0.000000
  70
    32
  0
VERTEX
  8
0
  5
581
 10
-0.155124
 20
-4.39001
 30
0.000000
  70
    32
  0
VERTEX
  8
0
  5
582
 10
-0.161723
 20
-4.38979
 30
0.000000
  70
    32
  0
VERTEX
  8
0
  5
583
 10
-0.168322
 20
-4.38957
 30
0.000000
  70
    32
  0
VERTEX
  8
0
  5
584
 10
-0.174921
 20
-4.38934
 30
0.000000
  70
    32
  0
VERTEX
  8
0
  5
585
 10
-0.181520
 20
-4.38910
 30
0.000000
  70
    32
  0
VERTEX
  8
0
  5
586
 10
-0.188118
 20
-4.38885
 30
0.000000
  70
    32
  0
VERTEX
  8
0
  5
587
 10
-0.194716
 20
-4.38860
 30
0.000000
  70
    32
  0
VERTEX
  8
0
  5
588
 10
-0.201314
 20
-4.38833
 30
0.000000
  70
    32
  0
VERTEX
  8
0
  5
589
 10
-0.207912
 20
-4.38806
 30
0.000000
  70
    32
  0
VERTEX
  8
0
  5
58A
 10
-0.214510
 20
-4.38777
 30
0.000000
  70
    32
  0
VERTEX
  8
0
  5
58B
 10
-0.221107
 20
-4.38748
 30
0.000000
  70
    32
  0
VERTEX
  8
0
  5
58C
 10
-0.227704
 20
-4.38718
 30
0.000000
  70
    32
  0
VERTEX
  8
0
  5
58D
 10
-0.234300
 20
-4.38688
 30
0.000000
  70
    32
  0
VERTEX
  8
0
  5
58E
 10
-0.240896
 20
-4.38656
 30
0.000000
  70
    32
  0
VERTEX
  8
0
  5
58F
 10
-0.247492
 20
-4.38623
 30
0.000000
  70
    32
  0
VERTEX
  8
0
  5
590
 10
-0.254088
 20
-4.38590
 30
0.000000
  70
    32
  0
VERTEX
  8
0
  5
591
 10
-0.260683
 20
-4.38556
 30
0.000000
  70
    32
  0
VERTEX
  8
0
  5
592
 10
-0.267278
 20
-4.38521
 30
0.000000
  70
    32
  0
VERTEX
  8
0
  5
593
 10
-0.273873
 20
-4.38485
 30
0.000000
  70
    32
  0
VERTEX
  8
0
  5
594
 10
-0.280467
 20
-4.38448
 30
0.000000
  70
    32
  0
VERTEX
  8
0
  5
595
 10
-0.287061
 20
-4.38410
 30
0.000000
  70
    32
  0
VERTEX
  8
0
  5
596
 10
-0.293655
 20
-4.38372
 30
0.000000
  70
    32
  0
VERTEX
  8
0
  5
597
 10
-0.300248
 20
-4.38332
 30
0.000000
  70
    32
  0
VERTEX
  8
0
  5
598
 10
-0.306841
 20
-4.38292
 30
0.000000
  70
    32
  0
VERTEX
  8
0
  5
599
 10
-0.313433
 20
-4.38251
 30
0.000000
  70
    32
  0
VERTEX
  8
0
  5
59A
 10
-0.320025
 20
-4.38209
 30
0.000000
  70
    32
  0
VERTEX
  8
0
  5
59B
 10
-0.326617
 20
-4.38166
 30
0.000000
  70
    32
  0
VERTEX
  8
0
  5
59C
 10
-0.333208
 20
-4.38122
 30
0.000000
  70
    32
  0
VERTEX
  8
0
  5
59D
 10
-0.339798
 20
-4.38078
 30
0.000000
  70
    32
  0
VERTEX
  8
0
  5
59E
 10
-0.346389
 20
-4.38033
 30
0.000000
  70
    32
  0
VERTEX
  8
0
  5
59F
 10
-0.352979
 20
-4.37986
 30
0.000000
  70
    32
  0
VERTEX
  8
0
  5
5A0
 10
-0.359568
 20
-4.37939
 30
0.000000
  70
    32
  0
VERTEX
  8
0
  5
5A1
 10
-0.366157
 20
-4.37891
 30
0.000000
  70
    32
  0
VERTEX
  8
0
  5
5A2
 10
-0.372745
 20
-4.37842
 30
0.000000
  70
    32
  0
VERTEX
  8
0
  5
5A3
 10
-0.379333
 20
-4.37793
 30
0.000000
  70
    32
  0
VERTEX
  8
0
  5
5A4
 10
-0.385921
 20
-4.37742
 30
0.000000
  70
    32
  0
VERTEX
  8
0
  5
5A5
 10
-0.392508
 20
-4.37691
 30
0.000000
  70
    32
  0
VERTEX
  8
0
  5
5A6
 10
-0.399094
 20
-4.37638
 30
0.000000
  70
    32
  0
VERTEX
  8
0
  5
5A7
 10
-0.405680
 20
-4.37585
 30
0.000000
  70
    32
  0
VERTEX
  8
0
  5
5A8
 10
-0.412266
 20
-4.37531
 30
0.000000
  70
    32
  0
VERTEX
  8
0
  5
5A9
 10
-0.418851
 20
-4.37476
 30
0.000000
  70
    32
  0
VERTEX
  8
0
  5
5AA
 10
-0.425435
 20
-4.37421
 30
0.000000
  70
    32
  0
VERTEX
  8
0
  5
5AB
 10
-0.432019
 20
-4.37364
 30
0.000000
  70
    32
  0
VERTEX
  8
0
  5
5AC
 10
-0.438602
 20
-4.37307
 30
0.000000
  70
    32
  0
VERTEX
  8
0
  5
5AD
 10
-0.445185
 20
-4.37248
 30
0.000000
  70
    32
  0
VERTEX
  8
0
  5
5AE
 10
-0.451767
 20
-4.37189
 30
0.000000
  70
    32
  0
VERTEX
  8
0
  5
5AF
 10
-0.458349
 20
-4.37129
 30
0.000000
  70
    32
  0
VERTEX
  8
0
  5
5B0
 10
-0.464930
 20
-4.37068
 30
0.000000
  70
    32
  0
VERTEX
  8
0
  5
5B1
 10
-0.471510
 20
-4.37007
 30
0.000000
  70
    32
  0
VERTEX
  8
0
  5
5B2
 10
-0.478090
 20
-4.36944
 30
0.000000
  70
    32
  0
VERTEX
  8
0
  5
5B3
 10
-0.484669
 20
-4.36881
 30
0.000000
  70
    32
  0
VERTEX
  8
0
  5
5B4
 10
-0.491247
 20
-4.36816
 30
0.000000
  70
    32
  0
VERTEX
  8
0
  5
5B5
 10
-0.497825
 20
-4.36751
 30
0.000000
  70
    32
  0
VERTEX
  8
0
  5
5B6
 10
-0.504403
 20
-4.36685
 30
0.000000
  70
    32
  0
VERTEX
  8
0
  5
5B7
 10
-0.510979
 20
-4.36618
 30
0.000000
  70
    32
  0
VERTEX
  8
0
  5
5B8
 10
-0.517555
 20
-4.36550
 30
0.000000
  70
    32
  0
VERTEX
  8
0
  5
5B9
 10
-0.524130
 20
-4.36482
 30
0.000000
  70
    32
  0
VERTEX
  8
0
  5
5BA
 10
-0.530705
 20
-4.36412
 30
0.000000
  70
    32
  0
VERTEX
  8
0
  5
5BB
 10
-0.537279
 20
-4.36342
 30
0.000000
  70
    32
  0
VERTEX
  8
0
  5
5BC
 10
-0.543852
 20
-4.36271
 30
0.000000
  70
    32
  0
VERTEX
  8
0
  5
5BD
 10
-0.550425
 20
-4.36199
 30
0.000000
  70
    32
  0
VERTEX
  8
0
  5
5BE
 10
-0.556997
 20
-4.36126
 30
0.000000
  70
    32
  0
VERTEX
  8
0
  5
5BF
 10
-0.563568
 20
-4.36052
 30
0.000000
  70
    32
  0
VERTEX
  8
0
  5
5C0
 10
-0.570138
 20
-4.35977
 30
0.000000
  70
    32
  0
VERTEX
  8
0
  5
5C1
 10
-0.576708
 20
-4.35902
 30
0.000000
  70
    32
  0
VERTEX
  8
0
  5
5C2
 10
-0.583277
 20
-4.35826
 30
0.000000
  70
    32
  0
VERTEX
  8
0
  5
5C3
 10
-0.589845
 20
-4.35748
 30
0.000000
  70
    32
  0
VERTEX
  8
0
  5
5C4
 10
-0.596412
 20
-4.35670
 30
0.000000
  70
    32
  0
VERTEX
  8
0
  5
5C5
 10
-0.602979
 20
-4.35591
 30
0.000000
  70
    32
  0
VERTEX
  8
0
  5
5C6
 10
-0.609545
 20
-4.35512
 30
0.000000
  70
    32
  0
VERTEX
  8
0
  5
5C7
 10
-0.616110
 20
-4.35431
 30
0.000000
  70
    32
  0
VERTEX
  8
0
  5
5C8
 10
-0.622674
 20
-4.35350
 30
0.000000
  70
    32
  0
VERTEX
  8
0
  5
5C9
 10
-0.629238
 20
-4.35267
 30
0.000000
  70
    32
  0
VERTEX
  8
0
  5
5CA
 10
-0.635800
 20
-4.35184
 30
0.000000
  70
    32
  0
VERTEX
  8
0
  5
5CB
 10
-0.642362
 20
-4.35100
 30
0.000000
  70
    32
  0
VERTEX
  8
0
  5
5CC
 10
-0.648923
 20
-4.35015
 30
0.000000
  70
    32
  0
VERTEX
  8
0
  5
5CD
 10
-0.655483
 20
-4.34929
 30
0.000000
  70
    32
  0
VERTEX
  8
0
  5
5CE
 10
-0.662043
 20
-4.34843
 30
0.000000
  70
    32
  0
VERTEX
  8
0
  5
5CF
 10
-0.668601
 20
-4.34755
 30
0.000000
  70
    32
  0
VERTEX
  8
0
  5
5D0
 10
-0.675159
 20
-4.34667
 30
0.000000
  70
    32
  0
VERTEX
  8
0
  5
5D1
 10
-0.681716
 20
-4.34577
 30
0.000000
  70
    32
  0
VERTEX
  8
0
  5
5D2
 10
-0.688272
 20
-4.34487
 30
0.000000
  70
    32
  0
VERTEX
  8
0
  5
5D3
 10
-0.694827
 20
-4.34396
 30
0.000000
  70
    32
  0
VERTEX
  8
0
  5
5D4
 10
-0.701381
 20
-4.34305
 30
0.000000
  70
    32
  0
VERTEX
  8
0
  5
5D5
 10
-0.707934
 20
-4.34212
 30
0.000000
  70
    32
  0
VERTEX
  8
0
  5
5D6
 10
-0.714486
 20
-4.34118
 30
0.000000
  70
    32
  0
VERTEX
  8
0
  5
5D7
 10
-0.721038
 20
-4.34024
 30
0.000000
  70
    32
  0
VERTEX
  8
0
  5
5D8
 10
-0.727588
 20
-4.33929
 30
0.000000
  70
    32
  0
VERTEX
  8
0
  5
5D9
 10
-0.734138
 20
-4.33833
 30
0.000000
  70
    32
  0
SEQEND
  8
0
  5
5DA
  0
POLYLINE
  8
0
  5
5DB
  66
     1
 10
0.000000
 20
0.000000
 30
0.000000
  70
     8
  0
VERTEX
  8
0
  5
5DC
 10
1.11066
 20
-0.943774
 30
0.000000
  70
    32
  0
VERTEX
  8
0
  5
5DD
 10
1.12686
 20
-0.942926
 30
0.000000
  70
    32
  0
VERTEX
  8
0
  5
5DE
 10
1.14307
 20
-0.942066
 30
0.000000
  70
    32
  0
VERTEX
  8
0
  5
5DF
 10
1.15929
 20
-0.941194
 30
0.000000
  70
    32
  0
VERTEX
  8
0
  5
5E0
 10
1.17551
 20
-0.940310
 30
0.000000
  70
    32
  0
VERTEX
  8
0
  5
5E1
 10
1.19174
 20
-0.939414
 30
0.000000
  70
    32
  0
VERTEX
  8
0
  5
5E2
 10
1.20797
 20
-0.938505
 30
0.000000
  70
    32
  0
VERTEX
  8
0
  5
5E3
 10
1.22421
 20
-0.937584
 30
0.000000
  70
    32
  0
VERTEX
  8
0
  5
5E4
 10
1.24046
 20
-0.936651
 30
0.000000
  70
    32
  0
VERTEX
  8
0
  5
5E5
 10
1.25671
 20
-0.935706
 30
0.000000
  70
    32
  0
VERTEX
  8
0
  5
5E6
 10
1.27296
 20
-0.934748
 30
0.000000
  70
    32
  0
VERTEX
  8
0
  5
5E7
 10
1.28922
 20
-0.933778
 30
0.000000
  70
    32
  0
VERTEX
  8
0
  5
5E8
 10
1.30549
 20
-0.932797
 30
0.000000
  70
    32
  0
VERTEX
  8
0
  5
5E9
 10
1.32176
 20
-0.931802
 30
0.000000
  70
    32
  0
VERTEX
  8
0
  5
5EA
 10
1.33804
 20
-0.930796
 30
0.000000
  70
    32
  0
VERTEX
  8
0
  5
5EB
 10
1.35432
 20
-0.929778
 30
0.000000
  70
    32
  0
VERTEX
  8
0
  5
5EC
 10
1.37060
 20
-0.928747
 30
0.000000
  70
    32
  0
VERTEX
  8
0
  5
5ED
 10
1.38689
 20
-0.927704
 30
0.000000
  70
    32
  0
VERTEX
  8
0
  5
5EE
 10
1.40318
 20
-0.926649
 30
0.000000
  70
    32
  0
VERTEX
  8
0
  5
5EF
 10
1.41948
 20
-0.925582
 30
0.000000
  70
    32
  0
VERTEX
  8
0
  5
5F0
 10
1.43578
 20
-0.924502
 30
0.000000
  70
    32
  0
VERTEX
  8
0
  5
5F1
 10
1.45209
 20
-0.923410
 30
0.000000
  70
    32
  0
VERTEX
  8
0
  5
5F2
 10
1.46840
 20
-0.922307
 30
0.000000
  70
    32
  0
VERTEX
  8
0
  5
5F3
 10
1.48471
 20
-0.921191
 30
0.000000
  70
    32
  0
VERTEX
  8
0
  5
5F4
 10
1.50103
 20
-0.920062
 30
0.000000
  70
    32
  0
VERTEX
  8
0
  5
5F5
 10
1.51735
 20
-0.918922
 30
0.000000
  70
    32
  0
VERTEX
  8
0
  5
5F6
 10
1.53367
 20
-0.917769
 30
0.000000
  70
    32
  0
VERTEX
  8
0
  5
5F7
 10
1.55000
 20
-0.916605
 30
0.000000
  70
    32
  0
VERTEX
  8
0
  5
5F8
 10
1.56633
 20
-0.915428
 30
0.000000
  70
    32
  0
VERTEX
  8
0
  5
5F9
 10
1.58266
 20
-0.914238
 30
0.000000
  70
    32
  0
VERTEX
  8
0
  5
5FA
 10
1.59900
 20
-0.913037
 30
0.000000
  70
    32
  0
VERTEX
  8
0
  5
5FB
 10
1.61534
 20
-0.911824
 30
0.000000
  70
    32
  0
VERTEX
  8
0
  5
5FC
 10
1.63168
 20
-0.910598
 30
0.000000
  70
    32
  0
VERTEX
  8
0
  5
5FD
 10
1.64802
 20
-0.909360
 30
0.000000
  70
    32
  0
VERTEX
  8
0
  5
5FE
 10
1.66437
 20
-0.908110
 30
0.000000
  70
    32
  0
VERTEX
  8
0
  5
5FF
 10
1.68072
 20
-0.906848
 30
0.000000
  70
    32
  0
VERTEX
  8
0
  5
600
 10
1.69707
 20
-0.905574
 30
0.000000
  70
    32
  0
VERTEX
  8
0
  5
601
 10
1.71342
 20
-0.904287
 30
0.000000
  70
    32
  0
VERTEX
  8
0
  5
602
 10
1.72978
 20
-0.902988
 30
0.000000
  70
    32
  0
VERTEX
  8
0
  5
603
 10
1.74613
 20
-0.901678
 30
0.000000
  70
    32
  0
VERTEX
  8
0
  5
604
 10
1.76249
 20
-0.900355
 30
0.000000
  70
    32
  0
VERTEX
  8
0
  5
605
 10
1.77885
 20
-0.899019
 30
0.000000
  70
    32
  0
VERTEX
  8
0
  5
606
 10
1.79521
 20
-0.897672
 30
0.000000
  70
    32
  0
VERTEX
  8
0
  5
607
 10
1.81158
 20
-0.896313
 30
0.000000
  70
    32
  0
VERTEX
  8
0
  5
608
 10
1.82794
 20
-0.894941
 30
0.000000
  70
    32
  0
VERTEX
  8
0
  5
609
 10
1.84430
 20
-0.893557
 30
0.000000
  70
    32
  0
VERTEX
  8
0
  5
60A
 10
1.86067
 20
-0.892161
 30
0.000000
  70
    32
  0
VERTEX
  8
0
  5
60B
 10
1.87704
 20
-0.890753
 30
0.000000
  70
    32
  0
VERTEX
  8
0
  5
60C
 10
1.89340
 20
-0.889333
 30
0.000000
  70
    32
  0
VERTEX
  8
0
  5
60D
 10
1.90977
 20
-0.887900
 30
0.000000
  70
    32
  0
VERTEX
  8
0
  5
60E
 10
1.92614
 20
-0.886456
 30
0.000000
  70
    32
  0
VERTEX
  8
0
  5
60F
 10
1.94251
 20
-0.884999
 30
0.000000
  70
    32
  0
VERTEX
  8
0
  5
610
 10
1.95888
 20
-0.883530
 30
0.000000
  70
    32
  0
VERTEX
  8
0
  5
611
 10
1.97525
 20
-0.882049
 30
0.000000
  70
    32
  0
VERTEX
  8
0
  5
612
 10
1.99162
 20
-0.880556
 30
0.000000
  70
    32
  0
VERTEX
  8
0
  5
613
 10
2.00799
 20
-0.879051
 30
0.000000
  70
    32
  0
VERTEX
  8
0
  5
614
 10
2.02436
 20
-0.877533
 30
0.000000
  70
    32
  0
VERTEX
  8
0
  5
615
 10
2.04072
 20
-0.876004
 30
0.000000
  70
    32
  0
VERTEX
  8
0
  5
616
 10
2.05709
 20
-0.874462
 30
0.000000
  70
    32
  0
VERTEX
  8
0
  5
617
 10
2.07346
 20
-0.872908
 30
0.000000
  70
    32
  0
VERTEX
  8
0
  5
618
 10
2.08983
 20
-0.871342
 30
0.000000
  70
    32
  0
VERTEX
  8
0
  5
619
 10
2.10619
 20
-0.869764
 30
0.000000
  70
    32
  0
VERTEX
  8
0
  5
61A
 10
2.12256
 20
-0.868174
 30
0.000000
  70
    32
  0
VERTEX
  8
0
  5
61B
 10
2.13892
 20
-0.866571
 30
0.000000
  70
    32
  0
VERTEX
  8
0
  5
61C
 10
2.15528
 20
-0.864957
 30
0.000000
  70
    32
  0
VERTEX
  8
0
  5
61D
 10
2.17165
 20
-0.863330
 30
0.000000
  70
    32
  0
VERTEX
  8
0
  5
61E
 10
2.18801
 20
-0.861691
 30
0.000000
  70
    32
  0
VERTEX
  8
0
  5
61F
 10
2.20436
 20
-0.860040
 30
0.000000
  70
    32
  0
VERTEX
  8
0
  5
620
 10
2.22072
 20
-0.858377
 30
0.000000
  70
    32
  0
VERTEX
  8
0
  5
621
 10
2.23708
 20
-0.856702
 30
0.000000
  70
    32
  0
VERTEX
  8
0
  5
622
 10
2.25343
 20
-0.855015
 30
0.000000
  70
    32
  0
VERTEX
  8
0
  5
623
 10
2.26978
 20
-0.853315
 30
0.000000
  70
    32
  0
VERTEX
  8
0
  5
624
 10
2.28613
 20
-0.851604
 30
0.000000
  70
    32
  0
VERTEX
  8
0
  5
625
 10
2.30248
 20
-0.849880
 30
0.000000
  70
    32
  0
VERTEX
  8
0
  5
626
 10
2.31882
 20
-0.848144
 30
0.000000
  70
    32
  0
VERTEX
  8
0
  5
627
 10
2.33516
 20
-0.846397
 30
0.000000
  70
    32
  0
VERTEX
  8
0
  5
628
 10
2.35150
 20
-0.844637
 30
0.000000
  70
    32
  0
VERTEX
  8
0
  5
629
 10
2.36784
 20
-0.842864
 30
0.000000
  70
    32
  0
VERTEX
  8
0
  5
62A
 10
2.38417
 20
-0.841080
 30
0.000000
  70
    32
  0
VERTEX
  8
0
  5
62B
 10
2.40050
 20
-0.839284
 30
0.000000
  70
    32
  0
VERTEX
  8
0
  5
62C
 10
2.41683
 20
-0.837475
 30
0.000000
  70
    32
  0
VERTEX
  8
0
  5
62D
 10
2.43315
 20
-0.835655
 30
0.000000
  70
    32
  0
VERTEX
  8
0
  5
62E
 10
2.44947
 20
-0.833822
 30
0.000000
  70
    32
  0
VERTEX
  8
0
  5
62F
 10
2.46579
 20
-0.831977
 30
0.000000
  70
    32
  0
VERTEX
  8
0
  5
630
 10
2.48210
 20
-0.830120
 30
0.000000
  70
    32
  0
VERTEX
  8
0
  5
631
 10
2.49841
 20
-0.828251
 30
0.000000
  70
    32
  0
VERTEX
  8
0
  5
632
 10
2.51472
 20
-0.826370
 30
0.000000
  70
    32
  0
VERTEX
  8
0
  5
633
 10
2.53102
 20
-0.824477
 30
0.000000
  70
    32
  0
VERTEX
  8
0
  5
634
 10
2.54732
 20
-0.822572
 30
0.000000
  70
    32
  0
VERTEX
  8
0
  5
635
 10
2.56361
 20
-0.820654
 30
0.000000
  70
    32
  0
VERTEX
  8
0
  5
636
 10
2.57990
 20
-0.818725
 30
0.000000
  70
    32
  0
VERTEX
  8
0
  5
637
 10
2.59619
 20
-0.816783
 30
0.000000
  70
    32
  0
VERTEX
  8
0
  5
638
 10
2.61247
 20
-0.814830
 30
0.000000
  70
    32
  0
VERTEX
  8
0
  5
639
 10
2.62874
 20
-0.812864
 30
0.000000
  70
    32
  0
VERTEX
  8
0
  5
63A
 10
2.64501
 20
-0.810886
 30
0.000000
  70
    32
  0
VERTEX
  8
0
  5
63B
 10
2.66128
 20
-0.808896
 30
0.000000
  70
    32
  0
VERTEX
  8
0
  5
63C
 10
2.67754
 20
-0.806894
 30
0.000000
  70
    32
  0
VERTEX
  8
0
  5
63D
 10
2.69380
 20
-0.804880
 30
0.000000
  70
    32
  0
VERTEX
  8
0
  5
63E
 10
2.71005
 20
-0.802854
 30
0.000000
  70
    32
  0
VERTEX
  8
0
  5
63F
 10
2.72629
 20
-0.800815
 30
0.000000
  70
    32
  0
VERTEX
  8
0
  5
640
 10
2.74253
 20
-0.798765
 30
0.000000
  70
    32
  0
VERTEX
  8
0
  5
641
 10
2.75877
 20
-0.796703
 30
0.000000
  70
    32
  0
VERTEX
  8
0
  5
642
 10
2.77500
 20
-0.794628
 30
0.000000
  70
    32
  0
VERTEX
  8
0
  5
643
 10
2.79122
 20
-0.792541
 30
0.000000
  70
    32
  0
VERTEX
  8
0
  5
644
 10
2.80743
 20
-0.790443
 30
0.000000
  70
    32
  0
VERTEX
  8
0
  5
645
 10
2.82364
 20
-0.788332
 30
0.000000
  70
    32
  0
VERTEX
  8
0
  5
646
 10
2.83985
 20
-0.786209
 30
0.000000
  70
    32
  0
VERTEX
  8
0
  5
647
 10
2.85605
 20
-0.784074
 30
0.000000
  70
    32
  0
VERTEX
  8
0
  5
648
 10
2.87224
 20
-0.781927
 30
0.000000
  70
    32
  0
VERTEX
  8
0
  5
649
 10
2.88842
 20
-0.779768
 30
0.000000
  70
    32
  0
VERTEX
  8
0
  5
64A
 10
2.90460
 20
-0.777597
 30
0.000000
  70
    32
  0
VERTEX
  8
0
  5
64B
 10
2.92077
 20
-0.775414
 30
0.000000
  70
    32
  0
VERTEX
  8
0
  5
64C
 10
2.93693
 20
-0.773218
 30
0.000000
  70
    32
  0
VERTEX
  8
0
  5
64D
 10
2.95309
 20
-0.771011
 30
0.000000
  70
    32
  0
VERTEX
  8
0
  5
64E
 10
2.96924
 20
-0.768792
 30
0.000000
  70
    32
  0
VERTEX
  8
0
  5
64F
 10
2.98538
 20
-0.766560
 30
0.000000
  70
    32
  0
VERTEX
  8
0
  5
650
 10
3.00152
 20
-0.764317
 30
0.000000
  70
    32
  0
VERTEX
  8
0
  5
651
 10
3.01765
 20
-0.762061
 30
0.000000
  70
    32
  0
VERTEX
  8
0
  5
652
 10
3.03377
 20
-0.759793
 30
0.000000
  70
    32
  0
VERTEX
  8
0
  5
653
 10
3.04988
 20
-0.757514
 30
0.000000
  70
    32
  0
VERTEX
  8
0
  5
654
 10
3.06598
 20
-0.755222
 30
0.000000
  70
    32
  0
VERTEX
  8
0
  5
655
 10
3.08208
 20
-0.752918
 30
0.000000
  70
    32
  0
VERTEX
  8
0
  5
656
 10
3.09816
 20
-0.750602
 30
0.000000
  70
    32
  0
VERTEX
  8
0
  5
657
 10
3.11424
 20
-0.748274
 30
0.000000
  70
    32
  0
VERTEX
  8
0
  5
658
 10
3.13032
 20
-0.745934
 30
0.000000
  70
    32
  0
VERTEX
  8
0
  5
659
 10
3.14638
 20
-0.743582
 30
0.000000
  70
    32
  0
VERTEX
  8
0
  5
65A
 10
3.16243
 20
-0.741218
 30
0.000000
  70
    32
  0
VERTEX
  8
0
  5
65B
 10
3.17848
 20
-0.738842
 30
0.000000
  70
    32
  0
SEQEND
  8
0
  5
65C
  0
POLYLINE
  8
0
  5
65D
  66
     1
 10
0.000000
 20
0.000000
 30
0.000000
  70
     8
  0
VERTEX
  8
0
  5
65E
 10
3.23767
 20
-0.671475
 30
0.000000
  70
    32
  0
VERTEX
  8
0
  5
65F
 10
3.23767
 20
-0.671354
 30
0.000000
  70
    32
  0
VERTEX
  8
0
  5
660
 10
3.23768
 20
-0.670991
 30
0.000000
  70
    32
  0
VERTEX
  8
0
  5
661
 10
3.23769
 20
-0.670392
 30
0.000000
  70
    32
  0
VERTEX
  8
0
  5
662
 10
3.23770
 20
-0.669559
 30
0.000000
  70
    32
  0
VERTEX
  8
0
  5
663
 10
3.23772
 20
-0.668497
 30
0.000000
  70
    32
  0
VERTEX
  8
0
  5
664
 10
3.23774
 20
-0.667209
 30
0.000000
  70
    32
  0
VERTEX
  8
0
  5
665
 10
3.23777
 20
-0.665699
 30
0.000000
  70
    32
  0
VERTEX
  8
0
  5
666
 10
3.23780
 20
-0.663972
 30
0.000000
  70
    32
  0
VERTEX
  8
0
  5
667
 10
3.23783
 20
-0.662030
 30
0.000000
  70
    32
  0
VERTEX
  8
0
  5
668
 10
3.23787
 20
-0.659879
 30
0.000000
  70
    32
  0
VERTEX
  8
0
  5
669
 10
3.23791
 20
-0.657520
 30
0.000000
  70
    32
  0
VERTEX
  8
0
  5
66A
 10
3.23795
 20
-0.654959
 30
0.000000
  70
    32
  0
VERTEX
  8
0
  5
66B
 10
3.23800
 20
-0.652199
 30
0.000000
  70
    32
  0
VERTEX
  8
0
  5
66C
 10
3.23805
 20
-0.649244
 30
0.000000
  70
    32
  0
VERTEX
  8
0
  5
66D
 10
3.23810
 20
-0.646097
 30
0.000000
  70
    32
  0
VERTEX
  8
0
  5
66E
 10
3.23816
 20
-0.642764
 30
0.000000
  70
    32
  0
VERTEX
  8
0
  5
66F
 10
3.23822
 20
-0.639246
 30
0.000000
  70
    32
  0
VERTEX
  8
0
  5
670
 10
3.23828
 20
-0.635549
 30
0.000000
  70
    32
  0
VERTEX
  8
0
  5
671
 10
3.23835
 20
-0.631675
 30
0.000000
  70
    32
  0
VERTEX
  8
0
  5
672
 10
3.23842
 20
-0.627630
 30
0.000000
  70
    32
  0
VERTEX
  8
0
  5
673
 10
3.23849
 20
-0.623416
 30
0.000000
  70
    32
  0
VERTEX
  8
0
  5
674
 10
3.23857
 20
-0.619037
 30
0.000000
  70
    32
  0
VERTEX
  8
0
  5
675
 10
3.23865
 20
-0.614498
 30
0.000000
  70
    32
  0
VERTEX
  8
0
  5
676
 10
3.23873
 20
-0.609802
 30
0.000000
  70
    32
  0
VERTEX
  8
0
  5
677
 10
3.23881
 20
-0.604952
 30
0.000000
  70
    32
  0
VERTEX
  8
0
  5
678
 10
3.23890
 20
-0.599953
 30
0.000000
  70
    32
  0
VERTEX
  8
0
  5
679
 10
3.23899
 20
-0.594809
 30
0.000000
  70
    32
  0
VERTEX
  8
0
  5
67A
 10
3.23908
 20
-0.589523
 30
0.000000
  70
    32
  0
VERTEX
  8
0
  5
67B
 10
3.23917
 20
-0.584099
 30
0.000000
  70
    32
  0
VERTEX
  8
0
  5
67C
 10
3.23927
 20
-0.578541
 30
0.000000
  70
    32
  0
VERTEX
  8
0
  5
67D
 10
3.23937
 20
-0.572853
 30
0.000000
  70
    32
  0
VERTEX
  8
0
  5
67E
 10
3.23947
 20
-0.567038
 30
0.000000
  70
    32
  0
VERTEX
  8
0
  5
67F
 10
3.23957
 20
-0.561101
 30
0.000000
  70
    32
  0
VERTEX
  8
0
  5
680
 10
3.23967
 20
-0.555044
 30
0.000000
  70
    32
  0
VERTEX
  8
0
  5
681
 10
3.23978
 20
-0.548873
 30
0.000000
  70
    32
  0
VERTEX
  8
0
  5
682
 10
3.23989
 20
-0.542590
 30
0.000000
  70
    32
  0
VERTEX
  8
0
  5
683
 10
3.24000
 20
-0.536201
 30
0.000000
  70
    32
  0
VERTEX
  8
0
  5
684
 10
3.24011
 20
-0.529707
 30
0.000000
  70
    32
  0
VERTEX
  8
0
  5
685
 10
3.24023
 20
-0.523114
 30
0.000000
  70
    32
  0
VERTEX
  8
0
  5
686
 10
3.24034
 20
-0.516424
 30
0.000000
  70
    32
  0
VERTEX
  8
0
  5
687
 10
3.24046
 20
-0.509643
 30
0.000000
  70
    32
  0
VERTEX
  8
0
  5
688
 10
3.24058
 20
-0.502773
 30
0.000000
  70
    32
  0
VERTEX
  8
0
  5
689
 10
3.24070
 20
-0.495819
 30
0.000000
  70
    32
  0
VERTEX
  8
0
  5
68A
 10
3.24083
 20
-0.488784
 30
0.000000
  70
    32
  0
VERTEX
  8
0
  5
68B
 10
3.24095
 20
-0.481672
 30
0.000000
  70
    32
  0
VERTEX
  8
0
  5
68C
 10
3.24107
 20
-0.474487
 30
0.000000
  70
    32
  0
VERTEX
  8
0
  5
68D
 10
3.24120
 20
-0.467233
 30
0.000000
  70
    32
  0
VERTEX
  8
0
  5
68E
 10
3.24133
 20
-0.459913
 30
0.000000
  70
    32
  0
VERTEX
  8
0
  5
68F
 10
3.24146
 20
-0.452531
 30
0.000000
  70
    32
  0
VERTEX
  8
0
  5
690
 10
3.24159
 20
-0.445092
 30
0.000000
  70
    32
  0
VERTEX
  8
0
  5
691
 10
3.24172
 20
-0.437599
 30
0.000000
  70
    32
  0
VERTEX
  8
0
  5
692
 10
3.24185
 20
-0.430055
 30
0.000000
  70
    32
  0
VERTEX
  8
0
  5
693
 10
3.24199
 20
-0.422465
 30
0.000000
  70
    32
  0
VERTEX
  8
0
  5
694
 10
3.24212
 20
-0.414833
 30
0.000000
  70
    32
  0
VERTEX
  8
0
  5
695
 10
3.24225
 20
-0.407161
 30
0.000000
  70
    32
  0
VERTEX
  8
0
  5
696
 10
3.24239
 20
-0.399455
 30
0.000000
  70
    32
  0
VERTEX
  8
0
  5
697
 10
3.24253
 20
-0.391717
 30
0.000000
  70
    32
  0
VERTEX
  8
0
  5
698
 10
3.24266
 20
-0.383952
 30
0.000000
  70
    32
  0
VERTEX
  8
0
  5
699
 10
3.24280
 20
-0.376164
 30
0.000000
  70
    32
  0
VERTEX
  8
0
  5
69A
 10
3.24294
 20
-0.368356
 30
0.000000
  70
    32
  0
VERTEX
  8
0
  5
69B
 10
3.24308
 20
-0.360532
 30
0.000000
  70
    32
  0
VERTEX
  8
0
  5
69C
 10
3.24321
 20
-0.352696
 30
0.000000
  70
    32
  0
VERTEX
  8
0
  5
69D
 10
3.24335
 20
-0.344851
 30
0.000000
  70
    32
  0
VERTEX
  8
0
  5
69E
 10
3.24349
 20
-0.337002
 30
0.000000
  70
    32
  0
VERTEX
  8
0
  5
69F
 10
3.24363
 20
-0.329153
 30
0.000000
  70
    32
  0
VERTEX
  8
0
  5
6A0
 10
3.24377
 20
-0.321306
 30
0.000000
  70
    32
  0
VERTEX
  8
0
  5
6A1
 10
3.24391
 20
-0.313467
 30
0.000000
  70
    32
  0
VERTEX
  8
0
  5
6A2
 10
3.24405
 20
-0.305638
 30
0.000000
  70
    32
  0
VERTEX
  8
0
  5
6A3
 10
3.24419
 20
-0.297824
 30
0.000000
  70
    32
  0
VERTEX
  8
0
  5
6A4
 10
3.24433
 20
-0.290028
 30
0.000000
  70
    32
  0
VERTEX
  8
0
  5
6A5
 10
3.24447
 20
-0.282255
 30
0.000000
  70
    32
  0
VERTEX
  8
0
  5
6A6
 10
3.24461
 20
-0.274507
 30
0.000000
  70
    32
  0
VERTEX
  8
0
  5
6A7
 10
3.24475
 20
-0.266789
 30
0.000000
  70
    32
  0
VERTEX
  8
0
  5
6A8
 10
3.24488
 20
-0.259105
 30
0.000000
  70
    32
  0
VERTEX
  8
0
  5
6A9
 10
3.24502
 20
-0.251459
 30
0.000000
  70
    32
  0
VERTEX
  8
0
  5
6AA
 10
3.24516
 20
-0.243853
 30
0.000000
  70
    32
  0
VERTEX
  8
0
  5
6AB
 10
3.24529
 20
-0.236293
 30
0.000000
  70
    32
  0
VERTEX
  8
0
  5
6AC
 10
3.24543
 20
-0.228782
 30
0.000000
  70
    32
  0
VERTEX
  8
0
  5
6AD
 10
3.24557
 20
-0.221323
 30
0.000000
  70
    32
  0
VERTEX
  8
0
  5
6AE
 10
3.24570
 20
-0.213921
 30
0.000000
  70
    32
  0
VERTEX
  8
0
  5
6AF
 10
3.24583
 20
-0.206579
 30
0.000000
  70
    32
  0
VERTEX
  8
0
  5
6B0
 10
3.24597
 20
-0.199301
 30
0.000000
  70
    32
  0
VERTEX
  8
0
  5
6B1
 10
3.24610
 20
-0.192092
 30
0.000000
  70
    32
  0
VERTEX
  8
0
  5
6B2
 10
3.24623
 20
-0.184954
 30
0.000000
  70
    32
  0
VERTEX
  8
0
  5
6B3
 10
3.24636
 20
-0.177891
 30
0.000000
  70
    32
  0
VERTEX
  8
0
  5
6B4
 10
3.24649
 20
-0.170908
 30
0.000000
  70
    32
  0
VERTEX
  8
0
  5
6B5
 10
3.24661
 20
-0.164008
 30
0.000000
  70
    32
  0
VERTEX
  8
0
  5
6B6
 10
3.24674
 20
-0.157196
 30
0.000000
  70
    32
  0
VERTEX
  8
0
  5
6B7
 10
3.24687
 20
-0.150474
 30
0.000000
  70
    32
  0
VERTEX
  8
0
  5
6B8
 10
3.24699
 20
-0.143846
 30
0.000000
  70
    32
  0
VERTEX
  8
0
  5
6B9
 10
3.24711
 20
-0.137317
 30
0.000000
  70
    32
  0
VERTEX
  8
0
  5
6BA
 10
3.24723
 20
-0.130891
 30
0.000000
  70
    32
  0
VERTEX
  8
0
  5
6BB
 10
3.24735
 20
-0.124570
 30
0.000000
  70
    32
  0
VERTEX
  8
0
  5
6BC
 10
3.24747
 20
-0.118359
 30
0.000000
  70
    32
  0
VERTEX
  8
0
  5
6BD
 10
3.24758
 20
-0.112262
 30
0.000000
  70
    32
  0
VERTEX
  8
0
  5
6BE
 10
3.24770
 20
-0.106283
 30
0.000000
  70
    32
  0
VERTEX
  8
0
  5
6BF
 10
3.24781
 20
-0.100425
 30
0.000000
  70
    32
  0
VERTEX
  8
0
  5
6C0
 10
3.24792
 20
-0.0946915
 30
0.000000
  70
    32
  0
VERTEX
  8
0
  5
6C1
 10
3.24803
 20
-0.0890874
 30
0.000000
  70
    32
  0
VERTEX
  8
0
  5
6C2
 10
3.24813
 20
-0.0836160
 30
0.000000
  70
    32
  0
VERTEX
  8
0
  5
6C3
 10
3.24824
 20
-0.0782812
 30
0.000000
  70
    32
  0
VERTEX
  8
0
  5
6C4
 10
3.24834
 20
-0.0730868
 30
0.000000
  70
    32
  0
VERTEX
  8
0
  5
6C5
 10
3.24844
 20
-0.0680366
 30
0.000000
  70
    32
  0
VERTEX
  8
0
  5
6C6
 10
3.24853
 20
-0.0631344
 30
0.000000
  70
    32
  0
VERTEX
  8
0
  5
6C7
 10
3.24863
 20
-0.0583840
 30
0.000000
  70
    32
  0
VERTEX
  8
0
  5
6C8
 10
3.24872
 20
-0.0537892
 30
0.000000
  70
    32
  0
VERTEX
  8
0
  5
6C9
 10
3.24881
 20
-0.0493539
 30
0.000000
  70
    32
  0
VERTEX
  8
0
  5
6CA
 10
3.24890
 20
-0.0450818
 30
0.000000
  70
    32
  0
VERTEX
  8
0
  5
6CB
 10
3.24898
 20
-0.0409767
 30
0.000000
  70
    32
  0
VERTEX
  8
0
  5
6CC
 10
3.24907
 20
-0.0370426
 30
0.000000
  70
    32
  0
VERTEX
  8
0
  5
6CD
 10
3.24915
 20
-0.0332831
 30
0.000000
  70
    32
  0
VERTEX
  8
0
  5
6CE
 10
3.24922
 20
-0.0297022
 30
0.000000
  70
    32
  0
VERTEX
  8
0
  5
6CF
 10
3.24930
 20
-0.0263035
 30
0.000000
  70
    32
  0
VERTEX
  8
0
  5
6D0
 10
3.24937
 20
-0.0230910
 30
0.000000
  70
    32
  0
VERTEX
  8
0
  5
6D1
 10
3.24944
 20
-0.0200684
 30
0.000000
  70
    32
  0
VERTEX
  8
0
  5
6D2
 10
3.24950
 20
-0.0172396
 30
0.000000
  70
    32
  0
VERTEX
  8
0
  5
6D3
 10
3.24956
 20
-0.0146083
 30
0.000000
  70
    32
  0
VERTEX
  8
0
  5
6D4
 10
3.24962
 20
-0.0121784
 30
0.000000
  70
    32
  0
VERTEX
  8
0
  5
6D5
 10
3.24968
 20
-0.00995368
 30
0.000000
  70
    32
  0
VERTEX
  8
0
  5
6D6
 10
3.24973
 20
-0.00793795
 30
0.000000
  70
    32
  0
VERTEX
  8
0
  5
6D7
 10
3.24978
 20
-0.00613504
 30
0.000000
  70
    32
  0
VERTEX
  8
0
  5
6D8
 10
3.24982
 20
-0.00454874
 30
0.000000
  70
    32
  0
VERTEX
  8
0
  5
6D9
 10
3.24987
 20
-0.00318288
 30
0.000000
  70
    32
  0
VERTEX
  8
0
  5
6DA
 10
3.24991
 20
-0.00204126
 30
0.000000
  70
    32
  0
VERTEX
  8
0
  5
6DB
 10
3.24994
 20
-0.00112770
 30
0.000000
  70
    32
  0
VERTEX
  8
0
  5
6DC
 10
3.24997
 20
-0.000446010
 30
0.000000
  70
    32
  0
VERTEX
  8
0
  5
6DD
 10
3.25000
 20
-4.15167e-013
 30
0.000000
  70
    32
  0
SEQEND
  8
0
  5
6DE
  0
POLYLINE
  8
0
  5
6DF
  66
     1
 10
0.000000
 20
0.000000
 30
0.000000
  70
     8
  0
VERTEX
  8
0
  5
6E0
 10
0.781454
 20
-2.46489
 30
0.000000
  70
    32
  0
VERTEX
  8
0
  5
6E1
 10
0.781477
 20
-2.45967
 30
0.000000
  70
    32
  0
VERTEX
  8
0
  5
6E2
 10
0.781511
 20
-2.45445
 30
0.000000
  70
    32
  0
VERTEX
  8
0
  5
6E3
 10
0.781557
 20
-2.44924
 30
0.000000
  70
    32
  0
VERTEX
  8
0
  5
6E4
 10
0.781614
 20
-2.44403
 30
0.000000
  70
    32
  0
VERTEX
  8
0
  5
6E5
 10
0.781682
 20
-2.43882
 30
0.000000
  70
    32
  0
VERTEX
  8
0
  5
6E6
 10
0.781763
 20
-2.43362
 30
0.000000
  70
    32
  0
VERTEX
  8
0
  5
6E7
 10
0.781854
 20
-2.42843
 30
0.000000
  70
    32
  0
VERTEX
  8
0
  5
6E8
 10
0.781958
 20
-2.42324
 30
0.000000
  70
    32
  0
VERTEX
  8
0
  5
6E9
 10
0.782074
 20
-2.41805
 30
0.000000
  70
    32
  0
VERTEX
  8
0
  5
6EA
 10
0.782201
 20
-2.41287
 30
0.000000
  70
    32
  0
VERTEX
  8
0
  5
6EB
 10
0.782340
 20
-2.40769
 30
0.000000
  70
    32
  0
VERTEX
  8
0
  5
6EC
 10
0.782492
 20
-2.40252
 30
0.000000
  70
    32
  0
VERTEX
  8
0
  5
6ED
 10
0.782655
 20
-2.39735
 30
0.000000
  70
    32
  0
VERTEX
  8
0
  5
6EE
 10
0.782831
 20
-2.39218
 30
0.000000
  70
    32
  0
VERTEX
  8
0
  5
6EF
 10
0.783019
 20
-2.38702
 30
0.000000
  70
    32
  0
VERTEX
  8
0
  5
6F0
 10
0.783220
 20
-2.38186
 30
0.000000
  70
    32
  0
VERTEX
  8
0
  5
6F1
 10
0.783433
 20
-2.37671
 30
0.000000
  70
    32
  0
VERTEX
  8
0
  5
6F2
 10
0.783658
 20
-2.37156
 30
0.000000
  70
    32
  0
VERTEX
  8
0
  5
6F3
 10
0.783896
 20
-2.36641
 30
0.000000
  70
    32
  0
VERTEX
  8
0
  5
6F4
 10
0.784147
 20
-2.36127
 30
0.000000
  70
    32
  0
VERTEX
  8
0
  5
6F5
 10
0.784410
 20
-2.35613
 30
0.000000
  70
    32
  0
VERTEX
  8
0
  5
6F6
 10
0.784687
 20
-2.35100
 30
0.000000
  70
    32
  0
VERTEX
  8
0
  5
6F7
 10
0.784976
 20
-2.34587
 30
0.000000
  70
    32
  0
VERTEX
  8
0
  5
6F8
 10
0.785278
 20
-2.34074
 30
0.000000
  70
    32
  0
VERTEX
  8
0
  5
6F9
 10
0.785593
 20
-2.33562
 30
0.000000
  70
    32
  0
VERTEX
  8
0
  5
6FA
 10
0.785921
 20
-2.33050
 30
0.000000
  70
    32
  0
VERTEX
  8
0
  5
6FB
 10
0.786263
 20
-2.32538
 30
0.000000
  70
    32
  0
VERTEX
  8
0
  5
6FC
 10
0.786618
 20
-2.32027
 30
0.000000
  70
    32
  0
VERTEX
  8
0
  5
6FD
 10
0.786986
 20
-2.31516
 30
0.000000
  70
    32
  0
VERTEX
  8
0
  5
6FE
 10
0.787367
 20
-2.31006
 30
0.000000
  70
    32
  0
VERTEX
  8
0
  5
6FF
 10
0.787762
 20
-2.30496
 30
0.000000
  70
    32
  0
VERTEX
  8
0
  5
700
 10
0.788171
 20
-2.29986
 30
0.000000
  70
    32
  0
VERTEX
  8
0
  5
701
 10
0.788593
 20
-2.29477
 30
0.000000
  70
    32
  0
VERTEX
  8
0
  5
702
 10
0.789029
 20
-2.28968
 30
0.000000
  70
    32
  0
VERTEX
  8
0
  5
703
 10
0.789479
 20
-2.28459
 30
0.000000
  70
    32
  0
VERTEX
  8
0
  5
704
 10
0.789942
 20
-2.27950
 30
0.000000
  70
    32
  0
VERTEX
  8
0
  5
705
 10
0.790420
 20
-2.27442
 30
0.000000
  70
    32
  0
VERTEX
  8
0
  5
706
 10
0.790911
 20
-2.26935
 30
0.000000
  70
    32
  0
VERTEX
  8
0
  5
707
 10
0.791417
 20
-2.26427
 30
0.000000
  70
    32
  0
VERTEX
  8
0
  5
708
 10
0.791937
 20
-2.25920
 30
0.000000
  70
    32
  0
VERTEX
  8
0
  5
709
 10
0.792471
 20
-2.25413
 30
0.000000
  70
    32
  0
VERTEX
  8
0
  5
70A
 10
0.793020
 20
-2.24907
 30
0.000000
  70
    32
  0
VERTEX
  8
0
  5
70B
 10
0.793582
 20
-2.24401
 30
0.000000
  70
    32
  0
VERTEX
  8
0
  5
70C
 10
0.794160
 20
-2.23895
 30
0.000000
  70
    32
  0
VERTEX
  8
0
  5
70D
 10
0.794751
 20
-2.23389
 30
0.000000
  70
    32
  0
VERTEX
  8
0
  5
70E
 10
0.795358
 20
-2.22884
 30
0.000000
  70
    32
  0
VERTEX
  8
0
  5
70F
 10
0.795979
 20
-2.22379
 30
0.000000
  70
    32
  0
VERTEX
  8
0
  5
710
 10
0.796615
 20
-2.21874
 30
0.000000
  70
    32
  0
VERTEX
  8
0
  5
711
 10
0.797266
 20
-2.21369
 30
0.000000
  70
    32
  0
VERTEX
  8
0
  5
712
 10
0.797931
 20
-2.20865
 30
0.000000
  70
    32
  0
VERTEX
  8
0
  5
713
 10
0.798612
 20
-2.20361
 30
0.000000
  70
    32
  0
VERTEX
  8
0
  5
714
 10
0.799308
 20
-2.19858
 30
0.000000
  70
    32
  0
VERTEX
  8
0
  5
715
 10
0.800019
 20
-2.19354
 30
0.000000
  70
    32
  0
VERTEX
  8
0
  5
716
 10
0.800745
 20
-2.18851
 30
0.000000
  70
    32
  0
VERTEX
  8
0
  5
717
 10
0.801486
 20
-2.18348
 30
0.000000
  70
    32
  0
VERTEX
  8
0
  5
718
 10
0.802243
 20
-2.17846
 30
0.000000
  70
    32
  0
VERTEX
  8
0
  5
719
 10
0.803015
 20
-2.17343
 30
0.000000
  70
    32
  0
VERTEX
  8
0
  5
71A
 10
0.803803
 20
-2.16841
 30
0.000000
  70
    32
  0
VERTEX
  8
0
  5
71B
 10
0.804607
 20
-2.16339
 30
0.000000
  70
    32
  0
VERTEX
  8
0
  5
71C
 10
0.805426
 20
-2.15838
 30
0.000000
  70
    32
  0
VERTEX
  8
0
  5
71D
 10
0.806260
 20
-2.15336
 30
0.000000
  70
    32
  0
VERTEX
  8
0
  5
71E
 10
0.807111
 20
-2.14835
 30
0.000000
  70
    32
  0
VERTEX
  8
0
  5
71F
 10
0.807978
 20
-2.14334
 30
0.000000
  70
    32
  0
VERTEX
  8
0
  5
720
 10
0.808860
 20
-2.13834
 30
0.000000
  70
    32
  0
VERTEX
  8
0
  5
721
 10
0.809759
 20
-2.13333
 30
0.000000
  70
    32
  0
VERTEX
  8
0
  5
722
 10
0.810673
 20
-2.12833
 30
0.000000
  70
    32
  0
VERTEX
  8
0
  5
723
 10
0.811604
 20
-2.12333
 30
0.000000
  70
    32
  0
VERTEX
  8
0
  5
724
 10
0.812551
 20
-2.11833
 30
0.000000
  70
    32
  0
VERTEX
  8
0
  5
725
 10
0.813515
 20
-2.11333
 30
0.000000
  70
    32
  0
VERTEX
  8
0
  5
726
 10
0.814495
 20
-2.10834
 30
0.000000
  70
    32
  0
VERTEX
  8
0
  5
727
 10
0.815491
 20
-2.10335
 30
0.000000
  70
    32
  0
VERTEX
  8
0
  5
728
 10
0.816504
 20
-2.09836
 30
0.000000
  70
    32
  0
VERTEX
  8
0
  5
729
 10
0.817534
 20
-2.09337
 30
0.000000
  70
    32
  0
VERTEX
  8
0
  5
72A
 10
0.818580
 20
-2.08838
 30
0.000000
  70
    32
  0
VERTEX
  8
0
  5
72B
 10
0.819643
 20
-2.08340
 30
0.000000
  70
    32
  0
VERTEX
  8
0
  5
72C
 10
0.820723
 20
-2.07841
 30
0.000000
  70
    32
  0
VERTEX
  8
0
  5
72D
 10
0.821820
 20
-2.07343
 30
0.000000
  70
    32
  0
VERTEX
  8
0
  5
72E
 10
0.822934
 20
-2.06845
 30
0.000000
  70
    32
  0
VERTEX
  8
0
  5
72F
 10
0.824066
 20
-2.06347
 30
0.000000
  70
    32
  0
VERTEX
  8
0
  5
730
 10
0.825214
 20
-2.05850
 30
0.000000
  70
    32
  0
VERTEX
  8
0
  5
731
 10
0.826379
 20
-2.05352
 30
0.000000
  70
    32
  0
VERTEX
  8
0
  5
732
 10
0.827562
 20
-2.04855
 30
0.000000
  70
    32
  0
VERTEX
  8
0
  5
733
 10
0.828763
 20
-2.04358
 30
0.000000
  70
    32
  0
VERTEX
  8
0
  5
734
 10
0.829980
 20
-2.03861
 30
0.000000
  70
    32
  0
VERTEX
  8
0
  5
735
 10
0.831216
 20
-2.03364
 30
0.000000
  70
    32
  0
VERTEX
  8
0
  5
736
 10
0.832469
 20
-2.02867
 30
0.000000
  70
    32
  0
VERTEX
  8
0
  5
737
 10
0.833739
 20
-2.02370
 30
0.000000
  70
    32
  0
VERTEX
  8
0
  5
738
 10
0.835028
 20
-2.01874
 30
0.000000
  70
    32
  0
VERTEX
  8
0
  5
739
 10
0.836334
 20
-2.01377
 30
0.000000
  70
    32
  0
VERTEX
  8
0
  5
73A
 10
0.837658
 20
-2.00881
 30
0.000000
  70
    32
  0
VERTEX
  8
0
  5
73B
 10
0.839000
 20
-2.00385
 30
0.000000
  70
    32
  0
VERTEX
  8
0
  5
73C
 10
0.840361
 20
-1.99889
 30
0.000000
  70
    32
  0
VERTEX
  8
0
  5
73D
 10
0.841739
 20
-1.99393
 30
0.000000
  70
    32
  0
VERTEX
  8
0
  5
73E
 10
0.843136
 20
-1.98897
 30
0.000000
  70
    32
  0
VERTEX
  8
0
  5
73F
 10
0.844551
 20
-1.98402
 30
0.000000
  70
    32
  0
VERTEX
  8
0
  5
740
 10
0.845984
 20
-1.97906
 30
0.000000
  70
    32
  0
VERTEX
  8
0
  5
741
 10
0.847436
 20
-1.97411
 30
0.000000
  70
    32
  0
VERTEX
  8
0
  5
742
 10
0.848906
 20
-1.96915
 30
0.000000
  70
    32
  0
VERTEX
  8
0
  5
743
 10
0.850395
 20
-1.96420
 30
0.000000
  70
    32
  0
VERTEX
  8
0
  5
744
 10
0.851903
 20
-1.95925
 30
0.000000
  70
    32
  0
VERTEX
  8
0
  5
745
 10
0.853429
 20
-1.95430
 30
0.000000
  70
    32
  0
VERTEX
  8
0
  5
746
 10
0.854974
 20
-1.94934
 30
0.000000
  70
    32
  0
VERTEX
  8
0
  5
747
 10
0.856538
 20
-1.94439
 30
0.000000
  70
    32
  0
VERTEX
  8
0
  5
748
 10
0.858121
 20
-1.93945
 30
0.000000
  70
    32
  0
VERTEX
  8
0
  5
749
 10
0.859723
 20
-1.93450
 30
0.000000
  70
    32
  0
VERTEX
  8
0
  5
74A
 10
0.861345
 20
-1.92955
 30
0.000000
  70
    32
  0
VERTEX
  8
0
  5
74B
 10
0.862985
 20
-1.92460
 30
0.000000
  70
    32
  0
VERTEX
  8
0
  5
74C
 10
0.864645
 20
-1.91966
 30
0.000000
  70
    32
  0
VERTEX
  8
0
  5
74D
 10
0.866324
 20
-1.91471
 30
0.000000
  70
    32
  0
VERTEX
  8
0
  5
74E
 10
0.868022
 20
-1.90976
 30
0.000000
  70
    32
  0
VERTEX
  8
0
  5
74F
 10
0.869740
 20
-1.90482
 30
0.000000
  70
    32
  0
VERTEX
  8
0
  5
750
 10
0.871762
 20
-1.89921
 30
0.000000
  70
    32
  0
VERTEX
  8
0
  5
751
 10
0.874074
 20
-1.89299
 30
0.000000
  70
    32
  0
VERTEX
  8
0
  5
752
 10
0.876386
 20
-1.88683
 30
0.000000
  70
    32
  0
VERTEX
  8
0
  5
753
 10
0.878698
 20
-1.88074
 30
0.000000
  70
    32
  0
VERTEX
  8
0
  5
754
 10
0.881011
 20
-1.87470
 30
0.000000
  70
    32
  0
VERTEX
  8
0
  5
755
 10
0.883323
 20
-1.86872
 30
0.000000
  70
    32
  0
VERTEX
  8
0
  5
756
 10
0.885634
 20
-1.86280
 30
0.000000
  70
    32
  0
VERTEX
  8
0
  5
757
 10
0.887943
 20
-1.85694
 30
0.000000
  70
    32
  0
VERTEX
  8
0
  5
758
 10
0.890251
 20
-1.85113
 30
0.000000
  70
    32
  0
VERTEX
  8
0
  5
759
 10
0.892557
 20
-1.84537
 30
0.000000
  70
    32
  0
VERTEX
  8
0
  5
75A
 10
0.894860
 20
-1.83967
 30
0.000000
  70
    32
  0
VERTEX
  8
0
  5
75B
 10
0.897160
 20
-1.83402
 30
0.000000
  70
    32
  0
VERTEX
  8
0
  5
75C
 10
0.899456
 20
-1.82841
 30
0.000000
  70
    32
  0
VERTEX
  8
0
  5
75D
 10
0.901749
 20
-1.82286
 30
0.000000
  70
    32
  0
VERTEX
  8
0
  5
75E
 10
0.904037
 20
-1.81735
 30
0.000000
  70
    32
  0
VERTEX
  8
0
  5
75F
 10
0.906321
 20
-1.81189
 30
0.000000
  70
    32
  0
VERTEX
  8
0
  5
760
 10
0.908599
 20
-1.80647
 30
0.000000
  70
    32
  0
VERTEX
  8
0
  5
761
 10
0.910872
 20
-1.80109
 30
0.000000
  70
    32
  0
VERTEX
  8
0
  5
762
 10
0.913138
 20
-1.79576
 30
0.000000
  70
    32
  0
VERTEX
  8
0
  5
763
 10
0.915399
 20
-1.79047
 30
0.000000
  70
    32
  0
VERTEX
  8
0
  5
764
 10
0.917652
 20
-1.78522
 30
0.000000
  70
    32
  0
VERTEX
  8
0
  5
765
 10
0.919898
 20
-1.78000
 30
0.000000
  70
    32
  0
VERTEX
  8
0
  5
766
 10
0.922136
 20
-1.77482
 30
0.000000
  70
    32
  0
VERTEX
  8
0
  5
767
 10
0.924366
 20
-1.76968
 30
0.000000
  70
    32
  0
VERTEX
  8
0
  5
768
 10
0.926587
 20
-1.76457
 30
0.000000
  70
    32
  0
VERTEX
  8
0
  5
769
 10
0.928800
 20
-1.75949
 30
0.000000
  70
    32
  0
VERTEX
  8
0
  5
76A
 10
0.931003
 20
-1.75445
 30
0.000000
  70
    32
  0
VERTEX
  8
0
  5
76B
 10
0.933196
 20
-1.74943
 30
0.000000
  70
    32
  0
VERTEX
  8
0
  5
76C
 10
0.935379
 20
-1.74445
 30
0.000000
  70
    32
  0
VERTEX
  8
0
  5
76D
 10
0.937551
 20
-1.73949
 30
0.000000
  70
    32
  0
VERTEX
  8
0
  5
76E
 10
0.939712
 20
-1.73456
 30
0.000000
  70
    32
  0
VERTEX
  8
0
  5
76F
 10
0.941861
 20
-1.72965
 30
0.000000
  70
    32
  0
VERTEX
  8
0
  5
770
 10
0.943998
 20
-1.72477
 30
0.000000
  70
    32
  0
VERTEX
  8
0
  5
771
 10
0.946123
 20
-1.71991
 30
0.000000
  70
    32
  0
VERTEX
  8
0
  5
772
 10
0.948235
 20
-1.71506
 30
0.000000
  70
    32
  0
VERTEX
  8
0
  5
773
 10
0.950334
 20
-1.71024
 30
0.000000
  70
    32
  0
VERTEX
  8
0
  5
774
 10
0.952419
 20
-1.70544
 30
0.000000
  70
    32
  0
VERTEX
  8
0
  5
775
 10
0.954490
 20
-1.70066
 30
0.000000
  70
    32
  0
VERTEX
  8
0
  5
776
 10
0.956547
 20
-1.69589
 30
0.000000
  70
    32
  0
VERTEX
  8
0
  5
777
 10
0.958588
 20
-1.69113
 30
0.000000
  70
    32
  0
VERTEX
  8
0
  5
778
 10
0.960614
 20
-1.68639
 30
0.000000
  70
    32
  0
VERTEX
  8
0
  5
779
 10
0.962624
 20
-1.68166
 30
0.000000
  70
    32
  0
VERTEX
  8
0
  5
77A
 10
0.964618
 20
-1.67694
 30
0.000000
  70
    32
  0
VERTEX
  8
0
  5
77B
 10
0.966595
 20
-1.67223
 30
0.000000
  70
    32
  0
VERTEX
  8
0
  5
77C
 10
0.968555
 20
-1.66753
 30
0.000000
  70
    32
  0
VERTEX
  8
0
  5
77D
 10
0.970498
 20
-1.66284
 30
0.000000
  70
    32
  0
VERTEX
  8
0
  5
77E
 10
0.972423
 20
-1.65815
 30
0.000000
  70
    32
  0
VERTEX
  8
0
  5
77F
 10
0.974329
 20
-1.65346
 30
0.000000
  70
    32
  0
VERTEX
  8
0
  5
780
 10
0.976216
 20
-1.64878
 30
0.000000
  70
    32
  0
VERTEX
  8
0
  5
781
 10
0.978084
 20
-1.64410
 30
0.000000
  70
    32
  0
VERTEX
  8
0
  5
782
 10
0.979933
 20
-1.63942
 30
0.000000
  70
    32
  0
VERTEX
  8
0
  5
783
 10
0.981761
 20
-1.63474
 30
0.000000
  70
    32
  0
VERTEX
  8
0
  5
784
 10
0.983569
 20
-1.63005
 30
0.000000
  70
    32
  0
VERTEX
  8
0
  5
785
 10
0.985356
 20
-1.62537
 30
0.000000
  70
    32
  0
VERTEX
  8
0
  5
786
 10
0.987122
 20
-1.62067
 30
0.000000
  70
    32
  0
VERTEX
  8
0
  5
787
 10
0.988865
 20
-1.61597
 30
0.000000
  70
    32
  0
VERTEX
  8
0
  5
788
 10
0.990587
 20
-1.61127
 30
0.000000
  70
    32
  0
VERTEX
  8
0
  5
789
 10
0.992286
 20
-1.60655
 30
0.000000
  70
    32
  0
VERTEX
  8
0
  5
78A
 10
0.993962
 20
-1.60183
 30
0.000000
  70
    32
  0
VERTEX
  8
0
  5
78B
 10
0.995614
 20
-1.59709
 30
0.000000
  70
    32
  0
VERTEX
  8
0
  5
78C
 10
0.997242
 20
-1.59234
 30
0.000000
  70
    32
  0
VERTEX
  8
0
  5
78D
 10
0.998846
 20
-1.58758
 30
0.000000
  70
    32
  0
VERTEX
  8
0
  5
78E
 10
1.00043
 20
-1.58280
 30
0.000000
  70
    32
  0
VERTEX
  8
0
  5
78F
 10
1.00198
 20
-1.57800
 30
0.000000
  70
    32
  0
VERTEX
  8
0
  5
790
 10
1.00351
 20
-1.57319
 30
0.000000
  70
    32
  0
VERTEX
  8
0
  5
791
 10
1.00501
 20
-1.56836
 30
0.000000
  70
    32
  0
VERTEX
  8
0
  5
792
 10
1.00649
 20
-1.56350
 30
0.000000
  70
    32
  0
VERTEX
  8
0
  5
793
 10
1.00794
 20
-1.55863
 30
0.000000
  70
    32
  0
VERTEX
  8
0
  5
794
 10
1.00936
 20
-1.55373
 30
0.000000
  70
    32
  0
VERTEX
  8
0
  5
795
 10
1.01075
 20
-1.54881
 30
0.000000
  70
    32
  0
VERTEX
  8
0
  5
796
 10
1.01212
 20
-1.54386
 30
0.000000
  70
    32
  0
VERTEX
  8
0
  5
797
 10
1.01345
 20
-1.53888
 30
0.000000
  70
    32
  0
VERTEX
  8
0
  5
798
 10
1.01476
 20
-1.53388
 30
0.000000
  70
    32
  0
VERTEX
  8
0
  5
799
 10
1.01604
 20
-1.52884
 30
0.000000
  70
    32
  0
VERTEX
  8
0
  5
79A
 10
1.01729
 20
-1.52378
 30
0.000000
  70
    32
  0
VERTEX
  8
0
  5
79B
 10
1.01851
 20
-1.51868
 30
0.000000
  70
    32
  0
VERTEX
  8
0
  5
79C
 10
1.01970
 20
-1.51355
 30
0.000000
  70
    32
  0
VERTEX
  8
0
  5
79D
 10
1.02085
 20
-1.50839
 30
0.000000
  70
    32
  0
VERTEX
  8
0
  5
79E
 10
1.02198
 20
-1.50318
 30
0.000000
  70
    32
  0
VERTEX
  8
0
  5
79F
 10
1.02307
 20
-1.49795
 30
0.000000
  70
    32
  0
VERTEX
  8
0
  5
7A0
 10
1.02413
 20
-1.49267
 30
0.000000
  70
    32
  0
VERTEX
  8
0
  5
7A1
 10
1.02516
 20
-1.48735
 30
0.000000
  70
    32
  0
VERTEX
  8
0
  5
7A2
 10
1.02615
 20
-1.48199
 30
0.000000
  70
    32
  0
VERTEX
  8
0
  5
7A3
 10
1.02711
 20
-1.47659
 30
0.000000
  70
    32
  0
VERTEX
  8
0
  5
7A4
 10
1.02804
 20
-1.47114
 30
0.000000
  70
    32
  0
VERTEX
  8
0
  5
7A5
 10
1.02893
 20
-1.46565
 30
0.000000
  70
    32
  0
VERTEX
  8
0
  5
7A6
 10
1.02979
 20
-1.46012
 30
0.000000
  70
    32
  0
VERTEX
  8
0
  5
7A7
 10
1.03061
 20
-1.45453
 30
0.000000
  70
    32
  0
VERTEX
  8
0
  5
7A8
 10
1.03139
 20
-1.44890
 30
0.000000
  70
    32
  0
VERTEX
  8
0
  5
7A9
 10
1.03214
 20
-1.44321
 30
0.000000
  70
    32
  0
VERTEX
  8
0
  5
7AA
 10
1.03286
 20
-1.43748
 30
0.000000
  70
    32
  0
VERTEX
  8
0
  5
7AB
 10
1.03353
 20
-1.43169
 30
0.000000
  70
    32
  0
VERTEX
  8
0
  5
7AC
 10
1.03417
 20
-1.42584
 30
0.000000
  70
    32
  0
VERTEX
  8
0
  5
7AD
 10
1.03477
 20
-1.41994
 30
0.000000
  70
    32
  0
VERTEX
  8
0
  5
7AE
 10
1.03533
 20
-1.41399
 30
0.000000
  70
    32
  0
VERTEX
  8
0
  5
7AF
 10
1.03585
 20
-1.40797
 30
0.000000
  70
    32
  0
VERTEX
  8
0
  5
7B0
 10
1.03634
 20
-1.40190
 30
0.000000
  70
    32
  0
VERTEX
  8
0
  5
7B1
 10
1.03678
 20
-1.39576
 30
0.000000
  70
    32
  0
VERTEX
  8
0
  5
7B2
 10
1.03719
 20
-1.38957
 30
0.000000
  70
    32
  0
VERTEX
  8
0
  5
7B3
 10
1.03755
 20
-1.38331
 30
0.000000
  70
    32
  0
VERTEX
  8
0
  5
7B4
 10
1.03787
 20
-1.37698
 30
0.000000
  70
    32
  0
VERTEX
  8
0
  5
7B5
 10
1.03815
 20
-1.37059
 30
0.000000
  70
    32
  0
VERTEX
  8
0
  5
7B6
 10
1.03839
 20
-1.36413
 30
0.000000
  70
    32
  0
VERTEX
  8
0
  5
7B7
 10
1.03859
 20
-1.35760
 30
0.000000
  70
    32
  0
VERTEX
  8
0
  5
7B8
 10
1.03874
 20
-1.35101
 30
0.000000
  70
    32
  0
VERTEX
  8
0
  5
7B9
 10
1.03885
 20
-1.34434
 30
0.000000
  70
    32
  0
VERTEX
  8
0
  5
7BA
 10
1.03892
 20
-1.33760
 30
0.000000
  70
    32
  0
VERTEX
  8
0
  5
7BB
 10
1.03894
 20
-1.33078
 30
0.000000
  70
    32
  0
VERTEX
  8
0
  5
7BC
 10
1.03892
 20
-1.32389
 30
0.000000
  70
    32
  0
VERTEX
  8
0
  5
7BD
 10
1.03886
 20
-1.31693
 30
0.000000
  70
    32
  0
VERTEX
  8
0
  5
7BE
 10
1.03875
 20
-1.30988
 30
0.000000
  70
    32
  0
VERTEX
  8
0
  5
7BF
 10
1.03859
 20
-1.30276
 30
0.000000
  70
    32
  0
SEQEND
  8
0
  5
7C0
  0
POLYLINE
  8
0
  5
7C1
  66
     1
 10
0.000000
 20
0.000000
 30
0.000000
  70
     8
  0
VERTEX
  8
0
  5
7C2
 10
0.781454
 20
-2.45676
 30
0.000000
  70
    32
  0
VERTEX
  8
0
  5
7C3
 10
0.781491
 20
-2.45031
 30
0.000000
  70
    32
  0
VERTEX
  8
0
  5
7C4
 10
0.781546
 20
-2.44387
 30
0.000000
  70
    32
  0
VERTEX
  8
0
  5
7C5
 10
0.781619
 20
-2.43746
 30
0.000000
  70
    32
  0
VERTEX
  8
0
  5
7C6
 10
0.781709
 20
-2.43106
 30
0.000000
  70
    32
  0
VERTEX
  8
0
  5
7C7
 10
0.781818
 20
-2.42467
 30
0.000000
  70
    32
  0
VERTEX
  8
0
  5
7C8
 10
0.781945
 20
-2.41831
 30
0.000000
  70
    32
  0
VERTEX
  8
0
  5
7C9
 10
0.782089
 20
-2.41196
 30
0.000000
  70
    32
  0
VERTEX
  8
0
  5
7CA
 10
0.782252
 20
-2.40564
 30
0.000000
  70
    32
  0
VERTEX
  8
0
  5
7CB
 10
0.782434
 20
-2.39932
 30
0.000000
  70
    32
  0
VERTEX
  8
0
  5
7CC
 10
0.782633
 20
-2.39303
 30
0.000000
  70
    32
  0
VERTEX
  8
0
  5
7CD
 10
0.782851
 20
-2.38675
 30
0.000000
  70
    32
  0
VERTEX
  8
0
  5
7CE
 10
0.783088
 20
-2.38049
 30
0.000000
  70
    32
  0
VERTEX
  8
0
  5
7CF
 10
0.783342
 20
-2.37424
 30
0.000000
  70
    32
  0
VERTEX
  8
0
  5
7D0
 10
0.783616
 20
-2.36801
 30
0.000000
  70
    32
  0
VERTEX
  8
0
  5
7D1
 10
0.783908
 20
-2.36180
 30
0.000000
  70
    32
  0
VERTEX
  8
0
  5
7D2
 10
0.784218
 20
-2.35560
 30
0.000000
  70
    32
  0
VERTEX
  8
0
  5
7D3
 10
0.784548
 20
-2.34942
 30
0.000000
  70
    32
  0
VERTEX
  8
0
  5
7D4
 10
0.784896
 20
-2.34325
 30
0.000000
  70
    32
  0
VERTEX
  8
0
  5
7D5
 10
0.785263
 20
-2.33709
 30
0.000000
  70
    32
  0
VERTEX
  8
0
  5
7D6
 10
0.785649
 20
-2.33096
 30
0.000000
  70
    32
  0
VERTEX
  8
0
  5
7D7
 10
0.786053
 20
-2.32483
 30
0.000000
  70
    32
  0
VERTEX
  8
0
  5
7D8
 10
0.786477
 20
-2.31872
 30
0.000000
  70
    32
  0
VERTEX
  8
0
  5
7D9
 10
0.786920
 20
-2.31263
 30
0.000000
  70
    32
  0
VERTEX
  8
0
  5
7DA
 10
0.787382
 20
-2.30654
 30
0.000000
  70
    32
  0
VERTEX
  8
0
  5
7DB
 10
0.787863
 20
-2.30048
 30
0.000000
  70
    32
  0
VERTEX
  8
0
  5
7DC
 10
0.788364
 20
-2.29442
 30
0.000000
  70
    32
  0
VERTEX
  8
0
  5
7DD
 10
0.788883
 20
-2.28838
 30
0.000000
  70
    32
  0
VERTEX
  8
0
  5
7DE
 10
0.789423
 20
-2.28235
 30
0.000000
  70
    32
  0
VERTEX
  8
0
  5
7DF
 10
0.789981
 20
-2.27634
 30
0.000000
  70
    32
  0
VERTEX
  8
0
  5
7E0
 10
0.790559
 20
-2.27033
 30
0.000000
  70
    32
  0
VERTEX
  8
0
  5
7E1
 10
0.791157
 20
-2.26434
 30
0.000000
  70
    32
  0
VERTEX
  8
0
  5
7E2
 10
0.791774
 20
-2.25836
 30
0.000000
  70
    32
  0
VERTEX
  8
0
  5
7E3
 10
0.792411
 20
-2.25240
 30
0.000000
  70
    32
  0
VERTEX
  8
0
  5
7E4
 10
0.793067
 20
-2.24644
 30
0.000000
  70
    32
  0
VERTEX
  8
0
  5
7E5
 10
0.793744
 20
-2.24050
 30
0.000000
  70
    32
  0
VERTEX
  8
0
  5
7E6
 10
0.794440
 20
-2.23456
 30
0.000000
  70
    32
  0
VERTEX
  8
0
  5
7E7
 10
0.795156
 20
-2.22864
 30
0.000000
  70
    32
  0
VERTEX
  8
0
  5
7E8
 10
0.795892
 20
-2.22273
 30
0.000000
  70
    32
  0
VERTEX
  8
0
  5
7E9
 10
0.796648
 20
-2.21683
 30
0.000000
  70
    32
  0
VERTEX
  8
0
  5
7EA
 10
0.797424
 20
-2.21094
 30
0.000000
  70
    32
  0
VERTEX
  8
0
  5
7EB
 10
0.798221
 20
-2.20506
 30
0.000000
  70
    32
  0
VERTEX
  8
0
  5
7EC
 10
0.799037
 20
-2.19919
 30
0.000000
  70
    32
  0
VERTEX
  8
0
  5
7ED
 10
0.799874
 20
-2.19334
 30
0.000000
  70
    32
  0
VERTEX
  8
0
  5
7EE
 10
0.800731
 20
-2.18749
 30
0.000000
  70
    32
  0
VERTEX
  8
0
  5
7EF
 10
0.801609
 20
-2.18165
 30
0.000000
  70
    32
  0
VERTEX
  8
0
  5
7F0
 10
0.802506
 20
-2.17581
 30
0.000000
  70
    32
  0
VERTEX
  8
0
  5
7F1
 10
0.803425
 20
-2.16999
 30
0.000000
  70
    32
  0
VERTEX
  8
0
  5
7F2
 10
0.804364
 20
-2.16418
 30
0.000000
  70
    32
  0
VERTEX
  8
0
  5
7F3
 10
0.805323
 20
-2.15837
 30
0.000000
  70
    32
  0
VERTEX
  8
0
  5
7F4
 10
0.806303
 20
-2.15258
 30
0.000000
  70
    32
  0
VERTEX
  8
0
  5
7F5
 10
0.807304
 20
-2.14679
 30
0.000000
  70
    32
  0
VERTEX
  8
0
  5
7F6
 10
0.808326
 20
-2.14101
 30
0.000000
  70
    32
  0
VERTEX
  8
0
  5
7F7
 10
0.809369
 20
-2.13523
 30
0.000000
  70
    32
  0
VERTEX
  8
0
  5
7F8
 10
0.810432
 20
-2.12947
 30
0.000000
  70
    32
  0
VERTEX
  8
0
  5
7F9
 10
0.811516
 20
-2.12371
 30
0.000000
  70
    32
  0
VERTEX
  8
0
  5
7FA
 10
0.812622
 20
-2.11796
 30
0.000000
  70
    32
  0
VERTEX
  8
0
  5
7FB
 10
0.813748
 20
-2.11221
 30
0.000000
  70
    32
  0
VERTEX
  8
0
  5
7FC
 10
0.814896
 20
-2.10648
 30
0.000000
  70
    32
  0
VERTEX
  8
0
  5
7FD
 10
0.816065
 20
-2.10075
 30
0.000000
  70
    32
  0
VERTEX
  8
0
  5
7FE
 10
0.817255
 20
-2.09502
 30
0.000000
  70
    32
  0
VERTEX
  8
0
  5
7FF
 10
0.818467
 20
-2.08930
 30
0.000000
  70
    32
  0
VERTEX
  8
0
  5
800
 10
0.819699
 20
-2.08359
 30
0.000000
  70
    32
  0
VERTEX
  8
0
  5
801
 10
0.820954
 20
-2.07788
 30
0.000000
  70
    32
  0
VERTEX
  8
0
  5
802
 10
0.822230
 20
-2.07218
 30
0.000000
  70
    32
  0
VERTEX
  8
0
  5
803
 10
0.823527
 20
-2.06648
 30
0.000000
  70
    32
  0
VERTEX
  8
0
  5
804
 10
0.824846
 20
-2.06079
 30
0.000000
  70
    32
  0
VERTEX
  8
0
  5
805
 10
0.826186
 20
-2.05510
 30
0.000000
  70
    32
  0
VERTEX
  8
0
  5
806
 10
0.827549
 20
-2.04941
 30
0.000000
  70
    32
  0
VERTEX
  8
0
  5
807
 10
0.828933
 20
-2.04374
 30
0.000000
  70
    32
  0
VERTEX
  8
0
  5
808
 10
0.830339
 20
-2.03806
 30
0.000000
  70
    32
  0
VERTEX
  8
0
  5
809
 10
0.831767
 20
-2.03239
 30
0.000000
  70
    32
  0
VERTEX
  8
0
  5
80A
 10
0.833217
 20
-2.02672
 30
0.000000
  70
    32
  0
VERTEX
  8
0
  5
80B
 10
0.834689
 20
-2.02106
 30
0.000000
  70
    32
  0
VERTEX
  8
0
  5
80C
 10
0.836183
 20
-2.01540
 30
0.000000
  70
    32
  0
VERTEX
  8
0
  5
80D
 10
0.837699
 20
-2.00974
 30
0.000000
  70
    32
  0
VERTEX
  8
0
  5
80E
 10
0.839237
 20
-2.00408
 30
0.000000
  70
    32
  0
VERTEX
  8
0
  5
80F
 10
0.840798
 20
-1.99843
 30
0.000000
  70
    32
  0
VERTEX
  8
0
  5
810
 10
0.842381
 20
-1.99278
 30
0.000000
  70
    32
  0
VERTEX
  8
0
  5
811
 10
0.843986
 20
-1.98713
 30
0.000000
  70
    32
  0
VERTEX
  8
0
  5
812
 10
0.845614
 20
-1.98149
 30
0.000000
  70
    32
  0
VERTEX
  8
0
  5
813
 10
0.847264
 20
-1.97584
 30
0.000000
  70
    32
  0
VERTEX
  8
0
  5
814
 10
0.848937
 20
-1.97020
 30
0.000000
  70
    32
  0
VERTEX
  8
0
  5
815
 10
0.850632
 20
-1.96456
 30
0.000000
  70
    32
  0
VERTEX
  8
0
  5
816
 10
0.852350
 20
-1.95891
 30
0.000000
  70
    32
  0
VERTEX
  8
0
  5
817
 10
0.854091
 20
-1.95327
 30
0.000000
  70
    32
  0
VERTEX
  8
0
  5
818
 10
0.855855
 20
-1.94764
 30
0.000000
  70
    32
  0
VERTEX
  8
0
  5
819
 10
0.857641
 20
-1.94200
 30
0.000000
  70
    32
  0
VERTEX
  8
0
  5
81A
 10
0.859451
 20
-1.93636
 30
0.000000
  70
    32
  0
VERTEX
  8
0
  5
81B
 10
0.861283
 20
-1.93072
 30
0.000000
  70
    32
  0
VERTEX
  8
0
  5
81C
 10
0.863139
 20
-1.92508
 30
0.000000
  70
    32
  0
VERTEX
  8
0
  5
81D
 10
0.865017
 20
-1.91944
 30
0.000000
  70
    32
  0
VERTEX
  8
0
  5
81E
 10
0.866919
 20
-1.91380
 30
0.000000
  70
    32
  0
VERTEX
  8
0
  5
81F
 10
0.868844
 20
-1.90816
 30
0.000000
  70
    32
  0
VERTEX
  8
0
  5
820
 10
0.870792
 20
-1.90252
 30
0.000000
  70
    32
  0
VERTEX
  8
0
  5
821
 10
0.872764
 20
-1.89688
 30
0.000000
  70
    32
  0
VERTEX
  8
0
  5
822
 10
0.874758
 20
-1.89123
 30
0.000000
  70
    32
  0
VERTEX
  8
0
  5
823
 10
0.876777
 20
-1.88559
 30
0.000000
  70
    32
  0
VERTEX
  8
0
  5
824
 10
0.878819
 20
-1.87994
 30
0.000000
  70
    32
  0
VERTEX
  8
0
  5
825
 10
0.880884
 20
-1.87429
 30
0.000000
  70
    32
  0
VERTEX
  8
0
  5
826
 10
0.882973
 20
-1.86864
 30
0.000000
  70
    32
  0
VERTEX
  8
0
  5
827
 10
0.885086
 20
-1.86298
 30
0.000000
  70
    32
  0
VERTEX
  8
0
  5
828
 10
0.887222
 20
-1.85732
 30
0.000000
  70
    32
  0
VERTEX
  8
0
  5
829
 10
0.889383
 20
-1.85166
 30
0.000000
  70
    32
  0
VERTEX
  8
0
  5
82A
 10
0.891567
 20
-1.84600
 30
0.000000
  70
    32
  0
VERTEX
  8
0
  5
82B
 10
0.893775
 20
-1.84033
 30
0.000000
  70
    32
  0
VERTEX
  8
0
  5
82C
 10
0.896007
 20
-1.83466
 30
0.000000
  70
    32
  0
VERTEX
  8
0
  5
82D
 10
0.898263
 20
-1.82898
 30
0.000000
  70
    32
  0
VERTEX
  8
0
  5
82E
 10
0.900543
 20
-1.82331
 30
0.000000
  70
    32
  0
VERTEX
  8
0
  5
82F
 10
0.902847
 20
-1.81762
 30
0.000000
  70
    32
  0
VERTEX
  8
0
  5
830
 10
0.905176
 20
-1.81194
 30
0.000000
  70
    32
  0
VERTEX
  8
0
  5
831
 10
0.907529
 20
-1.80624
 30
0.000000
  70
    32
  0
VERTEX
  8
0
  5
832
 10
0.909906
 20
-1.80055
 30
0.000000
  70
    32
  0
VERTEX
  8
0
  5
833
 10
0.912308
 20
-1.79484
 30
0.000000
  70
    32
  0
VERTEX
  8
0
  5
834
 10
0.914734
 20
-1.78914
 30
0.000000
  70
    32
  0
VERTEX
  8
0
  5
835
 10
0.917184
 20
-1.78342
 30
0.000000
  70
    32
  0
VERTEX
  8
0
  5
836
 10
0.919659
 20
-1.77770
 30
0.000000
  70
    32
  0
VERTEX
  8
0
  5
837
 10
0.922159
 20
-1.77198
 30
0.000000
  70
    32
  0
VERTEX
  8
0
  5
838
 10
0.924683
 20
-1.76625
 30
0.000000
  70
    32
  0
VERTEX
  8
0
  5
839
 10
0.927232
 20
-1.76051
 30
0.000000
  70
    32
  0
VERTEX
  8
0
  5
83A
 10
0.929806
 20
-1.75477
 30
0.000000
  70
    32
  0
VERTEX
  8
0
  5
83B
 10
0.932405
 20
-1.74902
 30
0.000000
  70
    32
  0
VERTEX
  8
0
  5
83C
 10
0.935029
 20
-1.74326
 30
0.000000
  70
    32
  0
VERTEX
  8
0
  5
83D
 10
0.937678
 20
-1.73749
 30
0.000000
  70
    32
  0
VERTEX
  8
0
  5
83E
 10
0.940352
 20
-1.73172
 30
0.000000
  70
    32
  0
VERTEX
  8
0
  5
83F
 10
0.943051
 20
-1.72594
 30
0.000000
  70
    32
  0
VERTEX
  8
0
  5
840
 10
0.945775
 20
-1.72015
 30
0.000000
  70
    32
  0
VERTEX
  8
0
  5
841
 10
0.948524
 20
-1.71436
 30
0.000000
  70
    32
  0
SEQEND
  8
0
  5
842
  0
POLYLINE
  5
7B
  8
0
 66
     1
 10
0.0
 20
0.0
 30
0.0
  0
VERTEX
  5
7C
  8
0
 10
1.0385898007589269
 20
-1.3027588160443879
 30
0.0
  0
VERTEX
  5
7D
  8
0
 10
1.044344519971673
 20
-0.9745571314247172
 30
0.0
  0
SEQEND
  5
7E
  8
0
  0
POLYLINE
  5
7F
  8
0
 66
     1
 10
0.0
 20
0.0
 30
0.0
  0
VERTEX
  5
80
  8
0
 10
0.7509451848759455
 20
-4.3189624414676473
 30
0.0
  0
VERTEX
  5
81
  8
0
 10
0.7743294407241593
 20
-2.9776561411731559
 30
0.0
  0
SEQEND
  5
82
  8
0
  0
POLYLINE
  5
83
  8
0
 66
     1
 10
0.0
 20
0.0
 30
0.0
  0
VERTEX
  5
84
  8
0
 10
0.7752428882181448
 20
-2.9085995106215701
 30
0.0
  0
VERTEX
  5
85
  8
0
 10
0.7798101256885275
 20
-2.6356613993930291
 30
0.0
  0
SEQEND
  5
86
  8
0
  0
POLYLINE
  5
87
  8
0
 66
     1
 10
0.0
 20
0.0
 30
0.0
  0
VERTEX
  5
88
  8
0
 10
0.7812716416792683
 20
-2.487134836856967
 30
0.0
  0
VERTEX
  5
89
  8
0
 10
0.7814543311778835
 20
-2.45676270767899
 30
0.0
  0
SEQEND
  5
8A
  8
0
  0
POLYLINE
  5
8B
  8
0
 66
     1
 10
0.0
 20
0.0
 30
0.0
  0
VERTEX
  5
8C
  8
0
 10
0.7798101256885275
 20
-2.6356613993930291
 30
0.0
  0
VERTEX
  5
8D
  8
0
 10
0.7803581941852827
 20
-2.5788906376365039
 30
0.0
  0
SEQEND
  5
8E
  8
0
  0
POLYLINE
  5
8F
  8
0
 66
     1
 10
0.0
 20
0.0
 30
0.0
  0
VERTEX
  5
90
  8
0
 10
0.7798101256885275
 20
-2.6356613993930291
 30
0.0
  0
VERTEX
  5
91
  8
0
 10
0.7801755046862127
 20
-2.6066594414564861
 30
0.0
  0
VERTEX
  5
92
  8
0
 10
0.7807235731829679
 20
-2.5506651100699851
 30
0.0
  0
SEQEND
  5
93
  8
0
  0
POLYLINE
  5
94
  8
0
 66
     1
 10
0.0
 20
0.0
 30
0.0
  0
VERTEX
  5
95
  8
0
 10
0.7807235731829679
 20
-2.5477420780885041
 30
0.0
  0
VERTEX
  5
96
  8
0
 10
0.7809062626815831
 20
-2.487134836856967
 30
0.0
  0
SEQEND
  5
97
  8
0
  0
POLYLINE
  5
98
  8
0
 66
     1
 10
0.0
 20
0.0
 30
0.0
  0
VERTEX
  5
99
  8
0
 10
0.7807235731829679
 20
-2.5788906376365039
 30
0.0
  0
VERTEX
  5
9A
  8
0
 10
0.7809062626815831
 20
-2.522028531130672
 30
0.0
  0
VERTEX
  5
9B
  8
0
 10
0.7814543311778835
 20
-2.4648923903764621
 30
0.0
  0
SEQEND
  5
9C
  8
0
  0
POLYLINE
  8
0
  5
843
  66
     1
 10
0.000000
 20
0.000000
 30
0.000000
  70
     8
  0
VERTEX
  8
0
  5
844
 10
0.948524
 20
-1.71436
 30
0.000000
  70
    32
  0
VERTEX
  8
0
  5
845
 10
0.950148
 20
-1.71075
 30
0.000000
  70
    32
  0
VERTEX
  8
0
  5
846
 10
0.951755
 20
-1.70716
 30
0.000000
  70
    32
  0
VERTEX
  8
0
  5
847
 10
0.953345
 20
-1.70359
 30
0.000000
  70
    32
  0
VERTEX
  8
0
  5
848
 10
0.954916
 20
-1.70005
 30
0.000000
  70
    32
  0
VERTEX
  8
0
  5
849
 10
0.956471
 20
-1.69653
 30
0.000000
  70
    32
  0
VERTEX
  8
0
  5
84A
 10
0.958008
 20
-1.69303
 30
0.000000
  70
    32
  0
VERTEX
  8
0
  5
84B
 10
0.959528
 20
-1.68955
 30
0.000000
  70
    32
  0
VERTEX
  8
0
  5
84C
 10
0.961030
 20
-1.68609
 30
0.000000
  70
    32
  0
VERTEX
  8
0
  5
84D
 10
0.962515
 20
-1.68265
 30
0.000000
  70
    32
  0
VERTEX
  8
0
  5
84E
 10
0.963984
 20
-1.67924
 30
0.000000
  70
    32
  0
VERTEX
  8
0
  5
84F
 10
0.965435
 20
-1.67584
 30
0.000000
  70
    32
  0
VERTEX
  8
0
  5
850
 10
0.966869
 20
-1.67246
 30
0.000000
  70
    32
  0
VERTEX
  8
0
  5
851
 10
0.968287
 20
-1.66910
 30
0.000000
  70
    32
  0
VERTEX
  8
0
  5
852
 10
0.969688
 20
-1.66576
 30
0.000000
  70
    32
  0
VERTEX
  8
0
  5
853
 10
0.971072
 20
-1.66244
 30
0.000000
  70
    32
  0
VERTEX
  8
0
  5
854
 10
0.972439
 20
-1.65913
 30
0.000000
  70
    32
  0
VERTEX
  8
0
  5
855
 10
0.973790
 20
-1.65584
 30
0.000000
  70
    32
  0
VERTEX
  8
0
  5
856
 10
0.975125
 20
-1.65257
 30
0.000000
  70
    32
  0
VERTEX
  8
0
  5
857
 10
0.976443
 20
-1.64931
 30
0.000000
  70
    32
  0
VERTEX
  8
0
  5
858
 10
0.977745
 20
-1.64607
 30
0.000000
  70
    32
  0
VERTEX
  8
0
  5
859
 10
0.979031
 20
-1.64285
 30
0.000000
  70
    32
  0
VERTEX
  8
0
  5
85A
 10
0.980300
 20
-1.63964
 30
0.000000
  70
    32
  0
VERTEX
  8
0
  5
85B
 10
0.981553
 20
-1.63644
 30
0.000000
  70
    32
  0
VERTEX
  8
0
  5
85C
 10
0.982791
 20
-1.63326
 30
0.000000
  70
    32
  0
VERTEX
  8
0
  5
85D
 10
0.984012
 20
-1.63010
 30
0.000000
  70
    32
  0
VERTEX
  8
0
  5
85E
 10
0.985218
 20
-1.62694
 30
0.000000
  70
    32
  0
VERTEX
  8
0
  5
85F
 10
0.986407
 20
-1.62380
 30
0.000000
  70
    32
  0
VERTEX
  8
0
  5
860
 10
0.987581
 20
-1.62067
 30
0.000000
  70
    32
  0
VERTEX
  8
0
  5
861
 10
0.988740
 20
-1.61756
 30
0.000000
  70
    32
  0
VERTEX
  8
0
  5
862
 10
0.989883
 20
-1.61445
 30
0.000000
  70
    32
  0
VERTEX
  8
0
  5
863
 10
0.991010
 20
-1.61136
 30
0.000000
  70
    32
  0
VERTEX
  8
0
  5
864
 10
0.992122
 20
-1.60827
 30
0.000000
  70
    32
  0
VERTEX
  8
0
  5
865
 10
0.993219
 20
-1.60520
 30
0.000000
  70
    32
  0
VERTEX
  8
0
  5
866
 10
0.994300
 20
-1.60214
 30
0.000000
  70
    32
  0
VERTEX
  8
0
  5
867
 10
0.995366
 20
-1.59908
 30
0.000000
  70
    32
  0
VERTEX
  8
0
  5
868
 10
0.996417
 20
-1.59604
 30
0.000000
  70
    32
  0
VERTEX
  8
0
  5
869
 10
0.997454
 20
-1.59301
 30
0.000000
  70
    32
  0
VERTEX
  8
0
  5
86A
 10
0.998475
 20
-1.58998
 30
0.000000
  70
    32
  0
VERTEX
  8
0
  5
86B
 10
0.999481
 20
-1.58696
 30
0.000000
  70
    32
  0
VERTEX
  8
0
  5
86C
 10
1.00047
 20
-1.58395
 30
0.000000
  70
    32
  0
VERTEX
  8
0
  5
86D
 10
1.00145
 20
-1.58094
 30
0.000000
  70
    32
  0
VERTEX
  8
0
  5
86E
 10
1.00241
 20
-1.57794
 30
0.000000
  70
    32
  0
VERTEX
  8
0
  5
86F
 10
1.00336
 20
-1.57495
 30
0.000000
  70
    32
  0
VERTEX
  8
0
  5
870
 10
1.00429
 20
-1.57196
 30
0.000000
  70
    32
  0
VERTEX
  8
0
  5
871
 10
1.00521
 20
-1.56898
 30
0.000000
  70
    32
  0
VERTEX
  8
0
  5
872
 10
1.00611
 20
-1.56601
 30
0.000000
  70
    32
  0
VERTEX
  8
0
  5
873
 10
1.00700
 20
-1.56304
 30
0.000000
  70
    32
  0
VERTEX
  8
0
  5
874
 10
1.00788
 20
-1.56007
 30
0.000000
  70
    32
  0
VERTEX
  8
0
  5
875
 10
1.00874
 20
-1.55710
 30
0.000000
  70
    32
  0
VERTEX
  8
0
  5
876
 10
1.00959
 20
-1.55414
 30
0.000000
  70
    32
  0
VERTEX
  8
0
  5
877
 10
1.01042
 20
-1.55119
 30
0.000000
  70
    32
  0
VERTEX
  8
0
  5
878
 10
1.01124
 20
-1.54823
 30
0.000000
  70
    32
  0
VERTEX
  8
0
  5
879
 10
1.01205
 20
-1.54528
 30
0.000000
  70
    32
  0
VERTEX
  8
0
  5
87A
 10
1.01284
 20
-1.54232
 30
0.000000
  70
    32
  0
VERTEX
  8
0
  5
87B
 10
1.01362
 20
-1.53937
 30
0.000000
  70
    32
  0
VERTEX
  8
0
  5
87C
 10
1.01438
 20
-1.53642
 30
0.000000
  70
    32
  0
VERTEX
  8
0
  5
87D
 10
1.01513
 20
-1.53347
 30
0.000000
  70
    32
  0
VERTEX
  8
0
  5
87E
 10
1.01587
 20
-1.53052
 30
0.000000
  70
    32
  0
VERTEX
  8
0
  5
87F
 10
1.01660
 20
-1.52757
 30
0.000000
  70
    32
  0
VERTEX
  8
0
  5
880
 10
1.01731
 20
-1.52462
 30
0.000000
  70
    32
  0
VERTEX
  8
0
  5
881
 10
1.01801
 20
-1.52167
 30
0.000000
  70
    32
  0
VERTEX
  8
0
  5
882
 10
1.01869
 20
-1.51872
 30
0.000000
  70
    32
  0
VERTEX
  8
0
  5
883
 10
1.01936
 20
-1.51576
 30
0.000000
  70
    32
  0
VERTEX
  8
0
  5
884
 10
1.02002
 20
-1.51280
 30
0.000000
  70
    32
  0
VERTEX
  8
0
  5
885
 10
1.02067
 20
-1.50984
 30
0.000000
  70
    32
  0
VERTEX
  8
0
  5
886
 10
1.02130
 20
-1.50687
 30
0.000000
  70
    32
  0
VERTEX
  8
0
  5
887
 10
1.02192
 20
-1.50390
 30
0.000000
  70
    32
  0
VERTEX
  8
0
  5
888
 10
1.02253
 20
-1.50093
 30
0.000000
  70
    32
  0
VERTEX
  8
0
  5
889
 10
1.02312
 20
-1.49795
 30
0.000000
  70
    32
  0
VERTEX
  8
0
  5
88A
 10
1.02370
 20
-1.49496
 30
0.000000
  70
    32
  0
VERTEX
  8
0
  5
88B
 10
1.02427
 20
-1.49197
 30
0.000000
  70
    32
  0
VERTEX
  8
0
  5
88C
 10
1.02483
 20
-1.48898
 30
0.000000
  70
    32
  0
VERTEX
  8
0
  5
88D
 10
1.02538
 20
-1.48598
 30
0.000000
  70
    32
  0
VERTEX
  8
0
  5
88E
 10
1.02591
 20
-1.48297
 30
0.000000
  70
    32
  0
VERTEX
  8
0
  5
88F
 10
1.02643
 20
-1.47995
 30
0.000000
  70
    32
  0
VERTEX
  8
0
  5
890
 10
1.02694
 20
-1.47693
 30
0.000000
  70
    32
  0
VERTEX
  8
0
  5
891
 10
1.02743
 20
-1.47390
 30
0.000000
  70
    32
  0
VERTEX
  8
0
  5
892
 10
1.02792
 20
-1.47086
 30
0.000000
  70
    32
  0
VERTEX
  8
0
  5
893
 10
1.02839
 20
-1.46781
 30
0.000000
  70
    32
  0
VERTEX
  8
0
  5
894
 10
1.02885
 20
-1.46475
 30
0.000000
  70
    32
  0
VERTEX
  8
0
  5
895
 10
1.02930
 20
-1.46168
 30
0.000000
  70
    32
  0
VERTEX
  8
0
  5
896
 10
1.02974
 20
-1.45860
 30
0.000000
  70
    32
  0
VERTEX
  8
0
  5
897
 10
1.03016
 20
-1.45551
 30
0.000000
  70
    32
  0
VERTEX
  8
0
  5
898
 10
1.03058
 20
-1.45241
 30
0.000000
  70
    32
  0
VERTEX
  8
0
  5
899
 10
1.03098
 20
-1.44930
 30
0.000000
  70
    32
  0
VERTEX
  8
0
  5
89A
 10
1.03137
 20
-1.44618
 30
0.000000
  70
    32
  0
VERTEX
  8
0
  5
89B
 10
1.03175
 20
-1.44304
 30
0.000000
  70
    32
  0
VERTEX
  8
0
  5
89C
 10
1.03212
 20
-1.43990
 30
0.000000
  70
    32
  0
VERTEX
  8
0
  5
89D
 10
1.03248
 20
-1.43674
 30
0.000000
  70
    32
  0
VERTEX
  8
0
  5
89E
 10
1.03283
 20
-1.43356
 30
0.000000
  70
    32
  0
VERTEX
  8
0
  5
89F
 10
1.03316
 20
-1.43037
 30
0.000000
  70
    32
  0
VERTEX
  8
0
  5
8A0
 10
1.03349
 20
-1.42717
 30
0.000000
  70
    32
  0
VERTEX
  8
0
  5
8A1
 10
1.03380
 20
-1.42395
 30
0.000000
  70
    32
  0
VERTEX
  8
0
  5
8A2
 10
1.03411
 20
-1.42072
 30
0.000000
  70
    32
  0
VERTEX
  8
0
  5
8A3
 10
1.03440
 20
-1.41747
 30
0.000000
  70
    32
  0
VERTEX
  8
0
  5
8A4
 10
1.03468
 20
-1.41420
 30
0.000000
  70
    32
  0
VERTEX
  8
0
  5
8A5
 10
1.03495
 20
-1.41092
 30
0.000000
  70
    32
  0
VERTEX
  8
0
  5
8A6
 10
1.03522
 20
-1.40763
 30
0.000000
  70
    32
  0
VERTEX
  8
0
  5
8A7
 10
1.03547
 20
-1.40431
 30
0.000000
  70
    32
  0
VERTEX
  8
0
  5
8A8
 10
1.03571
 20
-1.40098
 30
0.000000
  70
    32
  0
VERTEX
  8
0
  5
8A9
 10
1.03594
 20
-1.39763
 30
0.000000
  70
    32
  0
VERTEX
  8
0
  5
8AA
 10
1.03616
 20
-1.39426
 30
0.000000
  70
    32
  0
VERTEX
  8
0
  5
8AB
 10
1.03637
 20
-1.39087
 30
0.000000
  70
    32
  0
VERTEX
  8
0
  5
8AC
 10
1.03657
 20
-1.38746
 30
0.000000
  70
    32
  0
VERTEX
  8
0
  5
8AD
 10
1.03676
 20
-1.38403
 30
0.000000
  70
    32
  0
VERTEX
  8
0
  5
8AE
 10
1.03694
 20
-1.38058
 30
0.000000
  70
    32
  0
VERTEX
  8
0
  5
8AF
 10
1.03711
 20
-1.37711
 30
0.000000
  70
    32
  0
VERTEX
  8
0
  5
8B0
 10
1.03727
 20
-1.37362
 30
0.000000
  70
    32
  0
VERTEX
  8
0
  5
8B1
 10
1.03742
 20
-1.37011
 30
0.000000
  70
    32
  0
VERTEX
  8
0
  5
8B2
 10
1.03756
 20
-1.36658
 30
0.000000
  70
    32
  0
VERTEX
  8
0
  5
8B3
 10
1.03770
 20
-1.36302
 30
0.000000
  70
    32
  0
VERTEX
  8
0
  5
8B4
 10
1.03782
 20
-1.35945
 30
0.000000
  70
    32
  0
VERTEX
  8
0
  5
8B5
 10
1.03793
 20
-1.35584
 30
0.000000
  70
    32
  0
VERTEX
  8
0
  5
8B6
 10
1.03804
 20
-1.35222
 30
0.000000
  70
    32
  0
VERTEX
  8
0
  5
8B7
 10
1.03813
 20
-1.34857
 30
0.000000
  70
    32
  0
VERTEX
  8
0
  5
8B8
 10
1.03822
 20
-1.34490
 30
0.000000
  70
    32
  0
VERTEX
  8
0
  5
8B9
 10
1.03830
 20
-1.34120
 30
0.000000
  70
    32
  0
VERTEX
  8
0
  5
8BA
 10
1.03837
 20
-1.33748
 30
0.000000
  70
    32
  0
VERTEX
  8
0
  5
8BB
 10
1.03842
 20
-1.33373
 30
0.000000
  70
    32
  0
VERTEX
  8
0
  5
8BC
 10
1.03848
 20
-1.32995
 30
0.000000
  70
    32
  0
VERTEX
  8
0
  5
8BD
 10
1.03852
 20
-1.32615
 30
0.000000
  70
    32
  0
VERTEX
  8
0
  5
8BE
 10
1.03855
 20
-1.32232
 30
0.000000
  70
    32
  0
VERTEX
  8
0
  5
8BF
 10
1.03858
 20
-1.31846
 30
0.000000
  70
    32
  0
VERTEX
  8
0
  5
8C0
 10
1.03859
 20
-1.31458
 30
0.000000
  70
    32
  0
VERTEX
  8
0
  5
8C1
 10
1.03860
 20
-1.31067
 30
0.000000
  70
    32
  0
VERTEX
  8
0
  5
8C2
 10
1.03860
 20
-1.30673
 30
0.000000
  70
    32
  0
VERTEX
  8
0
  5
8C3
 10
1.03859
 20
-1.30276
 30
0.000000
  70
    32
  0
SEQEND
  8
0
  5
8C4
  0
POLYLINE
  5
9E
  8
0
 66
     1
 10
0.0
 20
0.0
 30
0.0
  0
VERTEX
  5
9F
  8
0
 10
0.6718406318896087
 20
-2.9655072895020562
 30
0.0
  0
VERTEX
  5
A0
  8
0
 10
0.7626373128000524
 20
-2.9655072895020562
 30
0.0
  0
SEQEND
  5
A1
  8
0
  0
POLYLINE
  5
A2
  8
0
 66
     1
 10
0.0
 20
0.0
 30
0.0
  0
VERTEX
  5
A3
  8
0
 10
0.7096573581438861
 20
-2.9377841580571831
 30
0.0
  0
VERTEX
  5
A4
  8
0
 10
0.7451904656631996
 20
-2.9377841580571831
 30
0.0
  0
SEQEND
  5
A5
  8
0
  0
POLYLINE
  5
A6
  8
0
 66
     1
 10
0.0
 20
0.0
 30
0.0
  0
VERTEX
  5
A7
  8
0
 10
1.10682432856629
 20
-0.9438652956237092
 30
0.0
  0
VERTEX
  5
A8
  8
0
 10
1.031099531307518
 20
-0.9466056381061208
 30
0.0
  0
SEQEND
  5
A9
  8
0
  0
POLYLINE
  5
AA
  8
0
 66
     1
 10
0.0
 20
0.0
 30
0.0
  0
VERTEX
  5
AB
  8
0
 10
1.10682432856629
 20
-0.9438652956237092
 30
0.0
  0
VERTEX
  5
AC
  8
0
 10
1.1104781185422321
 20
-0.9437739508744016
 30
0.0
  0
SEQEND
  5
AD
  8
0
  0
POLYLINE
  5
AE
  8
0
 66
     1
 10
0.0
 20
0.0
 30
0.0
  0
VERTEX
  5
AF
  8
0
 10
0.6727540793835943
 20
-2.957560296303654
 30
0.0
  0
VERTEX
  5
B0
  8
0
 10
0.0
 20
-2.957560296303654
 30
0.0
  0
SEQEND
  5
B1
  8
0
  0
POLYLINE
  8
0
  5
8C5
  66
     1
 10
0.000000
 20
0.000000
 30
0.000000
  70
     8
  0
VERTEX
  8
0
  5
8C6
 10
1.03110
 20
-0.946606
 30
0.000000
  70
    32
  0
VERTEX
  8
0
  5
8C7
 10
1.03098
 20
-0.946606
 30
0.000000
  70
    32
  0
VERTEX
  8
0
  5
8C8
 10
1.03061
 20
-0.946606
 30
0.000000
  70
    32
  0
VERTEX
  8
0
  5
8C9
 10
1.03000
 20
-0.946606
 30
0.000000
  70
    32
  0
VERTEX
  8
0
  5
8CA
 10
1.02915
 20
-0.946606
 30
0.000000
  70
    32
  0
VERTEX
  8
0
  5
8CB
 10
1.02806
 20
-0.946606
 30
0.000000
  70
    32
  0
VERTEX
  8
0
  5
8CC
 10
1.02674
 20
-0.946606
 30
0.000000
  70
    32
  0
VERTEX
  8
0
  5
8CD
 10
1.02518
 20
-0.946606
 30
0.000000
  70
    32
  0
VERTEX
  8
0
  5
8CE
 10
1.02340
 20
-0.946606
 30
0.000000
  70
    32
  0
VERTEX
  8
0
  5
8CF
 10
1.02138
 20
-0.946606
 30
0.000000
  70
    32
  0
VERTEX
  8
0
  5
8D0
 10
1.01914
 20
-0.946606
 30
0.000000
  70
    32
  0
VERTEX
  8
0
  5
8D1
 10
1.01667
 20
-0.946606
 30
0.000000
  70
    32
  0
VERTEX
  8
0
  5
8D2
 10
1.01398
 20
-0.946606
 30
0.000000
  70
    32
  0
VERTEX
  8
0
  5
8D3
 10
1.01107
 20
-0.946606
 30
0.000000
  70
    32
  0
VERTEX
  8
0
  5
8D4
 10
1.00794
 20
-0.946606
 30
0.000000
  70
    32
  0
VERTEX
  8
0
  5
8D5
 10
1.00459
 20
-0.946606
 30
0.000000
  70
    32
  0
VERTEX
  8
0
  5
8D6
 10
1.00103
 20
-0.946606
 30
0.000000
  70
    32
  0
VERTEX
  8
0
  5
8D7
 10
0.997258
 20
-0.946606
 30
0.000000
  70
    32
  0
VERTEX
  8
0
  5
8D8
 10
0.993277
 20
-0.946606
 30
0.000000
  70
    32
  0
VERTEX
  8
0
  5
8D9
 10
0.989088
 20
-0.946606
 30
0.000000
  70
    32
  0
VERTEX
  8
0
  5
8DA
 10
0.984694
 20
-0.946606
 30
0.000000
  70
    32
  0
VERTEX
  8
0
  5
8DB
 10
0.980097
 20
-0.946606
 30
0.000000
  70
    32
  0
VERTEX
  8
0
  5
8DC
 10
0.975299
 20
-0.946606
 30
0.000000
  70
    32
  0
VERTEX
  8
0
  5
8DD
 10
0.970302
 20
-0.946606
 30
0.000000
  70
    32
  0
VERTEX
  8
0
  5
8DE
 10
0.965108
 20
-0.946606
 30
0.000000
  70
    32
  0
VERTEX
  8
0
  5
8DF
 10
0.959720
 20
-0.946606
 30
0.000000
  70
    32
  0
VERTEX
  8
0
  5
8E0
 10
0.954140
 20
-0.946606
 30
0.000000
  70
    32
  0
VERTEX
  8
0
  5
8E1
 10
0.948370
 20
-0.946606
 30
0.000000
  70
    32
  0
VERTEX
  8
0
  5
8E2
 10
0.942412
 20
-0.946606
 30
0.000000
  70
    32
  0
VERTEX
  8
0
  5
8E3
 10
0.936268
 20
-0.946606
 30
0.000000
  70
    32
  0
VERTEX
  8
0
  5
8E4
 10
0.929940
 20
-0.946606
 30
0.000000
  70
    32
  0
VERTEX
  8
0
  5
8E5
 10
0.923431
 20
-0.946606
 30
0.000000
  70
    32
  0
VERTEX
  8
0
  5
8E6
 10
0.916743
 20
-0.946606
 30
0.000000
  70
    32
  0
VERTEX
  8
0
  5
8E7
 10
0.909878
 20
-0.946606
 30
0.000000
  70
    32
  0
VERTEX
  8
0
  5
8E8
 10
0.902837
 20
-0.946606
 30
0.000000
  70
    32
  0
VERTEX
  8
0
  5
8E9
 10
0.895624
 20
-0.946606
 30
0.000000
  70
    32
  0
VERTEX
  8
0
  5
8EA
 10
0.888241
 20
-0.946606
 30
0.000000
  70
    32
  0
VERTEX
  8
0
  5
8EB
 10
0.880689
 20
-0.946606
 30
0.000000
  70
    32
  0
VERTEX
  8
0
  5
8EC
 10
0.872971
 20
-0.946606
 30
0.000000
  70
    32
  0
VERTEX
  8
0
  5
8ED
 10
0.865089
 20
-0.946606
 30
0.000000
  70
    32
  0
VERTEX
  8
0
  5
8EE
 10
0.857044
 20
-0.946606
 30
0.000000
  70
    32
  0
VERTEX
  8
0
  5
8EF
 10
0.848841
 20
-0.946606
 30
0.000000
  70
    32
  0
VERTEX
  8
0
  5
8F0
 10
0.840479
 20
-0.946606
 30
0.000000
  70
    32
  0
VERTEX
  8
0
  5
8F1
 10
0.831962
 20
-0.946606
 30
0.000000
  70
    32
  0
VERTEX
  8
0
  5
8F2
 10
0.823292
 20
-0.946606
 30
0.000000
  70
    32
  0
VERTEX
  8
0
  5
8F3
 10
0.814471
 20
-0.946606
 30
0.000000
  70
    32
  0
VERTEX
  8
0
  5
8F4
 10
0.805501
 20
-0.946606
 30
0.000000
  70
    32
  0
VERTEX
  8
0
  5
8F5
 10
0.796385
 20
-0.946606
 30
0.000000
  70
    32
  0
VERTEX
  8
0
  5
8F6
 10
0.787123
 20
-0.946606
 30
0.000000
  70
    32
  0
VERTEX
  8
0
  5
8F7
 10
0.777720
 20
-0.946606
 30
0.000000
  70
    32
  0
VERTEX
  8
0
  5
8F8
 10
0.768176
 20
-0.946606
 30
0.000000
  70
    32
  0
VERTEX
  8
0
  5
8F9
 10
0.758494
 20
-0.946606
 30
0.000000
  70
    32
  0
VERTEX
  8
0
  5
8FA
 10
0.748676
 20
-0.946606
 30
0.000000
  70
    32
  0
VERTEX
  8
0
  5
8FB
 10
0.738725
 20
-0.946606
 30
0.000000
  70
    32
  0
VERTEX
  8
0
  5
8FC
 10
0.728642
 20
-0.946606
 30
0.000000
  70
    32
  0
VERTEX
  8
0
  5
8FD
 10
0.718430
 20
-0.946606
 30
0.000000
  70
    32
  0
VERTEX
  8
0
  5
8FE
 10
0.708090
 20
-0.946606
 30
0.000000
  70
    32
  0
VERTEX
  8
0
  5
8FF
 10
0.697625
 20
-0.946606
 30
0.000000
  70
    32
  0
VERTEX
  8
0
  5
900
 10
0.687038
 20
-0.946606
 30
0.000000
  70
    32
  0
VERTEX
  8
0
  5
901
 10
0.676330
 20
-0.946606
 30
0.000000
  70
    32
  0
VERTEX
  8
0
  5
902
 10
0.665503
 20
-0.946606
 30
0.000000
  70
    32
  0
VERTEX
  8
0
  5
903
 10
0.654560
 20
-0.946606
 30
0.000000
  70
    32
  0
VERTEX
  8
0
  5
904
 10
0.643503
 20
-0.946606
 30
0.000000
  70
    32
  0
VERTEX
  8
0
  5
905
 10
0.632334
 20
-0.946606
 30
0.000000
  70
    32
  0
VERTEX
  8
0
  5
906
 10
0.621055
 20
-0.946606
 30
0.000000
  70
    32
  0
VERTEX
  8
0
  5
907
 10
0.609668
 20
-0.946606
 30
0.000000
  70
    32
  0
VERTEX
  8
0
  5
908
 10
0.598176
 20
-0.946606
 30
0.000000
  70
    32
  0
VERTEX
  8
0
  5
909
 10
0.586581
 20
-0.946606
 30
0.000000
  70
    32
  0
VERTEX
  8
0
  5
90A
 10
0.574884
 20
-0.946606
 30
0.000000
  70
    32
  0
VERTEX
  8
0
  5
90B
 10
0.563088
 20
-0.946606
 30
0.000000
  70
    32
  0
VERTEX
  8
0
  5
90C
 10
0.551196
 20
-0.946606
 30
0.000000
  70
    32
  0
VERTEX
  8
0
  5
90D
 10
0.539209
 20
-0.946606
 30
0.000000
  70
    32
  0
VERTEX
  8
0
  5
90E
 10
0.527129
 20
-0.946606
 30
0.000000
  70
    32
  0
VERTEX
  8
0
  5
90F
 10
0.514959
 20
-0.946606
 30
0.000000
  70
    32
  0
VERTEX
  8
0
  5
910
 10
0.502701
 20
-0.946606
 30
0.000000
  70
    32
  0
VERTEX
  8
0
  5
911
 10
0.490357
 20
-0.946606
 30
0.000000
  70
    32
  0
VERTEX
  8
0
  5
912
 10
0.477929
 20
-0.946606
 30
0.000000
  70
    32
  0
VERTEX
  8
0
  5
913
 10
0.465419
 20
-0.946606
 30
0.000000
  70
    32
  0
VERTEX
  8
0
  5
914
 10
0.452830
 20
-0.946606
 30
0.000000
  70
    32
  0
VERTEX
  8
0
  5
915
 10
0.440164
 20
-0.946606
 30
0.000000
  70
    32
  0
VERTEX
  8
0
  5
916
 10
0.427422
 20
-0.946606
 30
0.000000
  70
    32
  0
VERTEX
  8
0
  5
917
 10
0.414608
 20
-0.946606
 30
0.000000
  70
    32
  0
VERTEX
  8
0
  5
918
 10
0.401722
 20
-0.946606
 30
0.000000
  70
    32
  0
VERTEX
  8
0
  5
919
 10
0.388768
 20
-0.946606
 30
0.000000
  70
    32
  0
VERTEX
  8
0
  5
91A
 10
0.375748
 20
-0.946606
 30
0.000000
  70
    32
  0
VERTEX
  8
0
  5
91B
 10
0.362663
 20
-0.946606
 30
0.000000
  70
    32
  0
VERTEX
  8
0
  5
91C
 10
0.349517
 20
-0.946606
 30
0.000000
  70
    32
  0
VERTEX
  8
0
  5
91D
 10
0.336310
 20
-0.946606
 30
0.000000
  70
    32
  0
VERTEX
  8
0
  5
91E
 10
0.323045
 20
-0.946606
 30
0.000000
  70
    32
  0
VERTEX
  8
0
  5
91F
 10
0.309725
 20
-0.946606
 30
0.000000
  70
    32
  0
VERTEX
  8
0
  5
920
 10
0.296352
 20
-0.946606
 30
0.000000
  70
    32
  0
VERTEX
  8
0
  5
921
 10
0.282927
 20
-0.946606
 30
0.000000
  70
    32
  0
VERTEX
  8
0
  5
922
 10
0.269453
 20
-0.946606
 30
0.000000
  70
    32
  0
VERTEX
  8
0
  5
923
 10
0.255932
 20
-0.946606
 30
0.000000
  70
    32
  0
VERTEX
  8
0
  5
924
 10
0.242366
 20
-0.946606
 30
0.000000
  70
    32
  0
VERTEX
  8
0
  5
925
 10
0.228758
 20
-0.946606
 30
0.000000
  70
    32
  0
VERTEX
  8
0
  5
926
 10
0.215109
 20
-0.946606
 30
0.000000
  70
    32
  0
VERTEX
  8
0
  5
927
 10
0.201422
 20
-0.946606
 30
0.000000
  70
    32
  0
VERTEX
  8
0
  5
928
 10
0.187699
 20
-0.946606
 30
0.000000
  70
    32
  0
VERTEX
  8
0
  5
929
 10
0.173942
 20
-0.946606
 30
0.000000
  70
    32
  0
VERTEX
  8
0
  5
92A
 10
0.160153
 20
-0.946606
 30
0.000000
  70
    32
  0
VERTEX
  8
0
  5
92B
 10
0.146334
 20
-0.946606
 30
0.000000
  70
    32
  0
VERTEX
  8
0
  5
92C
 10
0.132488
 20
-0.946606
 30
0.000000
  70
    32
  0
VERTEX
  8
0
  5
92D
 10
0.118617
 20
-0.946606
 30
0.000000
  70
    32
  0
VERTEX
  8
0
  5
92E
 10
0.104723
 20
-0.946606
 30
0.000000
  70
    32
  0
VERTEX
  8
0
  5
92F
 10
0.0908081
 20
-0.946606
 30
0.000000
  70
    32
  0
VERTEX
  8
0
  5
930
 10
0.0768743
 20
-0.946606
 30
0.000000
  70
    32
  0
VERTEX
  8
0
  5
931
 10
0.0629239
 20
-0.946606
 30
0.000000
  70
    32
  0
VERTEX
  8
0
  5
932
 10
0.0489590
 20
-0.946606
 30
0.000000
  70
    32
  0
VERTEX
  8
0
  5
933
 10
0.0349820
 20
-0.946606
 30
0.000000
  70
    32
  0
VERTEX
  8
0
  5
934
 10
0.0209948
 20
-0.946606
 30
0.000000
  70
    32
  0
VERTEX
  8
0
  5
935
 10
0.00699980
 20
-0.946606
 30
0.000000
  70
    32
  0
VERTEX
  8
0
  5
936
 10
-0.00699980
 20
-0.946606
 30
0.000000
  70
    32
  0
VERTEX
  8
0
  5
937
 10
-0.0209948
 20
-0.946606
 30
0.000000
  70
    32
  0
VERTEX
  8
0
  5
938
 10
-0.0349820
 20
-0.946606
 30
0.000000
  70
    32
  0
VERTEX
  8
0
  5
939
 10
-0.0489590
 20
-0.946606
 30
0.000000
  70
    32
  0
VERTEX
  8
0
  5
93A
 10
-0.0629239
 20
-0.946606
 30
0.000000
  70
    32
  0
VERTEX
  8
0
  5
93B
 10
-0.0768743
 20
-0.946606
 30
0.000000
  70
    32
  0
VERTEX
  8
0
  5
93C
 10
-0.0908081
 20
-0.946606
 30
0.000000
  70
    32
  0
VERTEX
  8
0
  5
93D
 10
-0.104723
 20
-0.946606
 30
0.000000
  70
    32
  0
VERTEX
  8
0
  5
93E
 10
-0.118617
 20
-0.946606
 30
0.000000
  70
    32
  0
VERTEX
  8
0
  5
93F
 10
-0.132488
 20
-0.946606
 30
0.000000
  70
    32
  0
VERTEX
  8
0
  5
940
 10
-0.146334
 20
-0.946606
 30
0.000000
  70
    32
  0
VERTEX
  8
0
  5
941
 10
-0.160153
 20
-0.946606
 30
0.000000
  70
    32
  0
VERTEX
  8
0
  5
942
 10
-0.173942
 20
-0.946606
 30
0.000000
  70
    32
  0
VERTEX
  8
0
  5
943
 10
-0.187699
 20
-0.946606
 30
0.000000
  70
    32
  0
VERTEX
  8
0
  5
944
 10
-0.201422
 20
-0.946606
 30
0.000000
  70
    32
  0
VERTEX
  8
0
  5
945
 10
-0.215109
 20
-0.946606
 30
0.000000
  70
    32
  0
VERTEX
  8
0
  5
946
 10
-0.228758
 20
-0.946606
 30
0.000000
  70
    32
  0
VERTEX
  8
0
  5
947
 10
-0.242366
 20
-0.946606
 30
0.000000
  70
    32
  0
VERTEX
  8
0
  5
948
 10
-0.255932
 20
-0.946606
 30
0.000000
  70
    32
  0
VERTEX
  8
0
  5
949
 10
-0.269453
 20
-0.946606
 30
0.000000
  70
    32
  0
VERTEX
  8
0
  5
94A
 10
-0.282927
 20
-0.946606
 30
0.000000
  70
    32
  0
VERTEX
  8
0
  5
94B
 10
-0.296352
 20
-0.946606
 30
0.000000
  70
    32
  0
VERTEX
  8
0
  5
94C
 10
-0.309725
 20
-0.946606
 30
0.000000
  70
    32
  0
VERTEX
  8
0
  5
94D
 10
-0.323045
 20
-0.946606
 30
0.000000
  70
    32
  0
VERTEX
  8
0
  5
94E
 10
-0.336310
 20
-0.946606
 30
0.000000
  70
    32
  0
VERTEX
  8
0
  5
94F
 10
-0.349517
 20
-0.946606
 30
0.000000
  70
    32
  0
VERTEX
  8
0
  5
950
 10
-0.362663
 20
-0.946606
 30
0.000000
  70
    32
  0
VERTEX
  8
0
  5
951
 10
-0.375748
 20
-0.946606
 30
0.000000
  70
    32
  0
VERTEX
  8
0
  5
952
 10
-0.388768
 20
-0.946606
 30
0.000000
  70
    32
  0
VERTEX
  8
0
  5
953
 10
-0.401722
 20
-0.946606
 30
0.000000
  70
    32
  0
VERTEX
  8
0
  5
954
 10
-0.414608
 20
-0.946606
 30
0.000000
  70
    32
  0
VERTEX
  8
0
  5
955
 10
-0.427422
 20
-0.946606
 30
0.000000
  70
    32
  0
VERTEX
  8
0
  5
956
 10
-0.440164
 20
-0.946606
 30
0.000000
  70
    32
  0
VERTEX
  8
0
  5
957
 10
-0.452830
 20
-0.946606
 30
0.000000
  70
    32
  0
VERTEX
  8
0
  5
958
 10
-0.465419
 20
-0.946606
 30
0.000000
  70
    32
  0
VERTEX
  8
0
  5
959
 10
-0.477929
 20
-0.946606
 30
0.000000
  70
    32
  0
VERTEX
  8
0
  5
95A
 10
-0.490357
 20
-0.946606
 30
0.000000
  70
    32
  0
VERTEX
  8
0
  5
95B
 10
-0.502701
 20
-0.946606
 30
0.000000
  70
    32
  0
VERTEX
  8
0
  5
95C
 10
-0.514959
 20
-0.946606
 30
0.000000
  70
    32
  0
VERTEX
  8
0
  5
95D
 10
-0.527129
 20
-0.946606
 30
0.000000
  70
    32
  0
VERTEX
  8
0
  5
95E
 10
-0.539209
 20
-0.946606
 30
0.000000
  70
    32
  0
VERTEX
  8
0
  5
95F
 10
-0.551196
 20
-0.946606
 30
0.000000
  70
    32
  0
VERTEX
  8
0
  5
960
 10
-0.563088
 20
-0.946606
 30
0.000000
  70
    32
  0
VERTEX
  8
0
  5
961
 10
-0.574884
 20
-0.946606
 30
0.000000
  70
    32
  0
VERTEX
  8
0
  5
962
 10
-0.586581
 20
-0.946606
 30
0.000000
  70
    32
  0
VERTEX
  8
0
  5
963
 10
-0.598176
 20
-0.946606
 30
0.000000
  70
    32
  0
VERTEX
  8
0
  5
964
 10
-0.609668
 20
-0.946606
 30
0.000000
  70
    32
  0
VERTEX
  8
0
  5
965
 10
-0.621055
 20
-0.946606
 30
0.000000
  70
    32
  0
VERTEX
  8
0
  5
966
 10
-0.632334
 20
-0.946606
 30
0.000000
  70
    32
  0
VERTEX
  8
0
  5
967
 10
-0.643503
 20
-0.946606
 30
0.000000
  70
    32
  0
VERTEX
  8
0
  5
968
 10
-0.654560
 20
-0.946606
 30
0.000000
  70
    32
  0
VERTEX
  8
0
  5
969
 10
-0.665503
 20
-0.946606
 30
0.000000
  70
    32
  0
VERTEX
  8
0
  5
96A
 10
-0.676330
 20
-0.946606
 30
0.000000
  70
    32
  0
VERTEX
  8
0
  5
96B
 10
-0.687038
 20
-0.946606
 30
0.000000
  70
    32
  0
VERTEX
  8
0
  5
96C
 10
-0.697625
 20
-0.946606
 30
0.000000
  70
    32
  0
VERTEX
  8
0
  5
96D
 10
-0.708090
 20
-0.946606
 30
0.000000
  70
    32
  0
VERTEX
  8
0
  5
96E
 10
-0.718430
 20
-0.946606
 30
0.000000
  70
    32
  0
VERTEX
  8
0
  5
96F
 10
-0.728642
 20
-0.946606
 30
0.000000
  70
    32
  0
VERTEX
  8
0
  5
970
 10
-0.738725
 20
-0.946606
 30
0.000000
  70
    32
  0
VERTEX
  8
0
  5
971
 10
-0.748676
 20
-0.946606
 30
0.000000
  70
    32
  0
VERTEX
  8
0
  5
972
 10
-0.758494
 20
-0.946606
 30
0.000000
  70
    32
  0
VERTEX
  8
0
  5
973
 10
-0.768176
 20
-0.946606
 30
0.000000
  70
    32
  0
VERTEX
  8
0
  5
974
 10
-0.777720
 20
-0.946606
 30
0.000000
  70
    32
  0
VERTEX
  8
0
  5
975
 10
-0.787123
 20
-0.946606
 30
0.000000
  70
    32
  0
VERTEX
  8
0
  5
976
 10
-0.796385
 20
-0.946606
 30
0.000000
  70
    32
  0
VERTEX
  8
0
  5
977
 10
-0.805501
 20
-0.946606
 30
0.000000
  70
    32
  0
VERTEX
  8
0
  5
978
 10
-0.814471
 20
-0.946606
 30
0.000000
  70
    32
  0
VERTEX
  8
0
  5
979
 10
-0.823292
 20
-0.946606
 30
0.000000
  70
    32
  0
VERTEX
  8
0
  5
97A
 10
-0.831962
 20
-0.946606
 30
0.000000
  70
    32
  0
VERTEX
  8
0
  5
97B
 10
-0.840479
 20
-0.946606
 30
0.000000
  70
    32
  0
VERTEX
  8
0
  5
97C
 10
-0.848841
 20
-0.946606
 30
0.000000
  70
    32
  0
VERTEX
  8
0
  5
97D
 10
-0.857044
 20
-0.946606
 30
0.000000
  70
    32
  0
VERTEX
  8
0
  5
97E
 10
-0.865089
 20
-0.946606
 30
0.000000
  70
    32
  0
VERTEX
  8
0
  5
97F
 10
-0.872971
 20
-0.946606
 30
0.000000
  70
    32
  0
VERTEX
  8
0
  5
980
 10
-0.880689
 20
-0.946606
 30
0.000000
  70
    32
  0
VERTEX
  8
0
  5
981
 10
-0.888241
 20
-0.946606
 30
0.000000
  70
    32
  0
VERTEX
  8
0
  5
982
 10
-0.895624
 20
-0.946606
 30
0.000000
  70
    32
  0
VERTEX
  8
0
  5
983
 10
-0.902837
 20
-0.946606
 30
0.000000
  70
    32
  0
VERTEX
  8
0
  5
984
 10
-0.909878
 20
-0.946606
 30
0.000000
  70
    32
  0
VERTEX
  8
0
  5
985
 10
-0.916743
 20
-0.946606
 30
0.000000
  70
    32
  0
VERTEX
  8
0
  5
986
 10
-0.923431
 20
-0.946606
 30
0.000000
  70
    32
  0
VERTEX
  8
0
  5
987
 10
-0.929940
 20
-0.946606
 30
0.000000
  70
    32
  0
VERTEX
  8
0
  5
988
 10
-0.936268
 20
-0.946606
 30
0.000000
  70
    32
  0
VERTEX
  8
0
  5
989
 10
-0.942412
 20
-0.946606
 30
0.000000
  70
    32
  0
VERTEX
  8
0
  5
98A
 10
-0.948370
 20
-0.946606
 30
0.000000
  70
    32
  0
VERTEX
  8
0
  5
98B
 10
-0.954140
 20
-0.946606
 30
0.000000
  70
    32
  0
VERTEX
  8
0
  5
98C
 10
-0.959720
 20
-0.946606
 30
0.000000
  70
    32
  0
VERTEX
  8
0
  5
98D
 10
-0.965108
 20
-0.946606
 30
0.000000
  70
    32
  0
VERTEX
  8
0
  5
98E
 10
-0.970302
 20
-0.946606
 30
0.000000
  70
    32
  0
VERTEX
  8
0
  5
98F
 10
-0.975299
 20
-0.946606
 30
0.000000
  70
    32
  0
VERTEX
  8
0
  5
990
 10
-0.980097
 20
-0.946606
 30
0.000000
  70
    32
  0
VERTEX
  8
0
  5
991
 10
-0.984694
 20
-0.946606
 30
0.000000
  70
    32
  0
VERTEX
  8
0
  5
992
 10
-0.989088
 20
-0.946606
 30
0.000000
  70
    32
  0
VERTEX
  8
0
  5
993
 10
-0.993277
 20
-0.946606
 30
0.000000
  70
    32
  0
VERTEX
  8
0
  5
994
 10
-0.997258
 20
-0.946606
 30
0.000000
  70
    32
  0
VERTEX
  8
0
  5
995
 10
-1.00103
 20
-0.946606
 30
0.000000
  70
    32
  0
VERTEX
  8
0
  5
996
 10
-1.00459
 20
-0.946606
 30
0.000000
  70
    32
  0
VERTEX
  8
0
  5
997
 10
-1.00794
 20
-0.946606
 30
0.000000
  70
    32
  0
VERTEX
  8
0
  5
998
 10
-1.01107
 20
-0.946606
 30
0.000000
  70
    32
  0
VERTEX
  8
0
  5
999
 10
-1.01398
 20
-0.946606
 30
0.000000
  70
    32
  0
VERTEX
  8
0
  5
99A
 10
-1.01667
 20
-0.946606
 30
0.000000
  70
    32
  0
VERTEX
  8
0
  5
99B
 10
-1.01914
 20
-0.946606
 30
0.000000
  70
    32
  0
VERTEX
  8
0
  5
99C
 10
-1.02138
 20
-0.946606
 30
0.000000
  70
    32
  0
VERTEX
  8
0
  5
99D
 10
-1.02340
 20
-0.946606
 30
0.000000
  70
    32
  0
VERTEX
  8
0
  5
99E
 10
-1.02518
 20
-0.946606
 30
0.000000
  70
    32
  0
VERTEX
  8
0
  5
99F
 10
-1.02674
 20
-0.946606
 30
0.000000
  70
    32
  0
VERTEX
  8
0
  5
9A0
 10
-1.02806
 20
-0.946606
 30
0.000000
  70
    32
  0
VERTEX
  8
0
  5
9A1
 10
-1.02915
 20
-0.946606
 30
0.000000
  70
    32
  0
VERTEX
  8
0
  5
9A2
 10
-1.03000
 20
-0.946606
 30
0.000000
  70
    32
  0
VERTEX
  8
0
  5
9A3
 10
-1.03061
 20
-0.946606
 30
0.000000
  70
    32
  0
VERTEX
  8
0
  5
9A4
 10
-1.03098
 20
-0.946606
 30
0.000000
  70
    32
  0
VERTEX
  8
0
  5
9A5
 10
-1.03110
 20
-0.946606
 30
0.000000
  70
    32
  0
SEQEND
  8
0
  5
9A6
  0
POLYLINE
  8
0
  5
9A7
  66
     1
 10
0.000000
 20
0.000000
 30
0.000000
  70
     8
  0
VERTEX
  8
0
  5
9A8
 10
-3.17848
 20
-0.738933
 30
0.000000
  70
    32
  0
VERTEX
  8
0
  5
9A9
 10
-3.17927
 20
-0.738809
 30
0.000000
  70
    32
  0
VERTEX
  8
0
  5
9AA
 10
-3.18006
 20
-0.738677
 30
0.000000
  70
    32
  0
VERTEX
  8
0
  5
9AB
 10
-3.18084
 20
-0.738535
 30
0.000000
  70
    32
  0
VERTEX
  8
0
  5
9AC
 10
-3.18163
 20
-0.738385
 30
0.000000
  70
    32
  0
VERTEX
  8
0
  5
9AD
 10
-3.18241
 20
-0.738227
 30
0.000000
  70
    32
  0
VERTEX
  8
0
  5
9AE
 10
-3.18318
 20
-0.738060
 30
0.000000
  70
    32
  0
VERTEX
  8
0
  5
9AF
 10
-3.18395
 20
-0.737885
 30
0.000000
  70
    32
  0
VERTEX
  8
0
  5
9B0
 10
-3.18472
 20
-0.737702
 30
0.000000
  70
    32
  0
VERTEX
  8
0
  5
9B1
 10
-3.18549
 20
-0.737510
 30
0.000000
  70
    32
  0
VERTEX
  8
0
  5
9B2
 10
-3.18625
 20
-0.737310
 30
0.000000
  70
    32
  0
VERTEX
  8
0
  5
9B3
 10
-3.18701
 20
-0.737102
 30
0.000000
  70
    32
  0
VERTEX
  8
0
  5
9B4
 10
-3.18776
 20
-0.736886
 30
0.000000
  70
    32
  0
VERTEX
  8
0
  5
9B5
 10
-3.18851
 20
-0.736662
 30
0.000000
  70
    32
  0
VERTEX
  8
0
  5
9B6
 10
-3.18926
 20
-0.736430
 30
0.000000
  70
    32
  0
VERTEX
  8
0
  5
9B7
 10
-3.19000
 20
-0.736190
 30
0.000000
  70
    32
  0
VERTEX
  8
0
  5
9B8
 10
-3.19074
 20
-0.735942
 30
0.000000
  70
    32
  0
VERTEX
  8
0
  5
9B9
 10
-3.19148
 20
-0.735686
 30
0.000000
  70
    32
  0
VERTEX
  8
0
  5
9BA
 10
-3.19221
 20
-0.735422
 30
0.000000
  70
    32
  0
VERTEX
  8
0
  5
9BB
 10
-3.19293
 20
-0.735150
 30
0.000000
  70
    32
  0
VERTEX
  8
0
  5
9BC
 10
-3.19366
 20
-0.734871
 30
0.000000
  70
    32
  0
VERTEX
  8
0
  5
9BD
 10
-3.19438
 20
-0.734584
 30
0.000000
  70
    32
  0
VERTEX
  8
0
  5
9BE
 10
-3.19509
 20
-0.734290
 30
0.000000
  70
    32
  0
VERTEX
  8
0
  5
9BF
 10
-3.19580
 20
-0.733988
 30
0.000000
  70
    32
  0
VERTEX
  8
0
  5
9C0
 10
-3.19651
 20
-0.733679
 30
0.000000
  70
    32
  0
VERTEX
  8
0
  5
9C1
 10
-3.19721
 20
-0.733362
 30
0.000000
  70
    32
  0
VERTEX
  8
0
  5
9C2
 10
-3.19791
 20
-0.733038
 30
0.000000
  70
    32
  0
VERTEX
  8
0
  5
9C3
 10
-3.19860
 20
-0.732706
 30
0.000000
  70
    32
  0
VERTEX
  8
0
  5
9C4
 10
-3.19929
 20
-0.732367
 30
0.000000
  70
    32
  0
VERTEX
  8
0
  5
9C5
 10
-3.19997
 20
-0.732021
 30
0.000000
  70
    32
  0
VERTEX
  8
0
  5
9C6
 10
-3.20065
 20
-0.731668
 30
0.000000
  70
    32
  0
VERTEX
  8
0
  5
9C7
 10
-3.20133
 20
-0.731308
 30
0.000000
  70
    32
  0
VERTEX
  8
0
  5
9C8
 10
-3.20200
 20
-0.730940
 30
0.000000
  70
    32
  0
VERTEX
  8
0
  5
9C9
 10
-3.20266
 20
-0.730566
 30
0.000000
  70
    32
  0
VERTEX
  8
0
  5
9CA
 10
-3.20332
 20
-0.730184
 30
0.000000
  70
    32
  0
VERTEX
  8
0
  5
9CB
 10
-3.20398
 20
-0.729796
 30
0.000000
  70
    32
  0
VERTEX
  8
0
  5
9CC
 10
-3.20463
 20
-0.729401
 30
0.000000
  70
    32
  0
VERTEX
  8
0
  5
9CD
 10
-3.20528
 20
-0.728999
 30
0.000000
  70
    32
  0
VERTEX
  8
0
  5
9CE
 10
-3.20592
 20
-0.728590
 30
0.000000
  70
    32
  0
VERTEX
  8
0
  5
9CF
 10
-3.20656
 20
-0.728175
 30
0.000000
  70
    32
  0
VERTEX
  8
0
  5
9D0
 10
-3.20719
 20
-0.727753
 30
0.000000
  70
    32
  0
VERTEX
  8
0
  5
9D1
 10
-3.20781
 20
-0.727324
 30
0.000000
  70
    32
  0
VERTEX
  8
0
  5
9D2
 10
-3.20844
 20
-0.726889
 30
0.000000
  70
    32
  0
VERTEX
  8
0
  5
9D3
 10
-3.20905
 20
-0.726447
 30
0.000000
  70
    32
  0
VERTEX
  8
0
  5
9D4
 10
-3.20966
 20
-0.725999
 30
0.000000
  70
    32
  0
VERTEX
  8
0
  5
9D5
 10
-3.21027
 20
-0.725544
 30
0.000000
  70
    32
  0
VERTEX
  8
0
  5
9D6
 10
-3.21087
 20
-0.725083
 30
0.000000
  70
    32
  0
VERTEX
  8
0
  5
9D7
 10
-3.21146
 20
-0.724616
 30
0.000000
  70
    32
  0
VERTEX
  8
0
  5
9D8
 10
-3.21205
 20
-0.724143
 30
0.000000
  70
    32
  0
VERTEX
  8
0
  5
9D9
 10
-3.21264
 20
-0.723663
 30
0.000000
  70
    32
  0
VERTEX
  8
0
  5
9DA
 10
-3.21322
 20
-0.723177
 30
0.000000
  70
    32
  0
VERTEX
  8
0
  5
9DB
 10
-3.21379
 20
-0.722685
 30
0.000000
  70
    32
  0
VERTEX
  8
0
  5
9DC
 10
-3.21436
 20
-0.722188
 30
0.000000
  70
    32
  0
VERTEX
  8
0
  5
9DD
 10
-3.21492
 20
-0.721684
 30
0.000000
  70
    32
  0
VERTEX
  8
0
  5
9DE
 10
-3.21548
 20
-0.721174
 30
0.000000
  70
    32
  0
VERTEX
  8
0
  5
9DF
 10
-3.21603
 20
-0.720658
 30
0.000000
  70
    32
  0
VERTEX
  8
0
  5
9E0
 10
-3.21657
 20
-0.720137
 30
0.000000
  70
    32
  0
VERTEX
  8
0
  5
9E1
 10
-3.21711
 20
-0.719610
 30
0.000000
  70
    32
  0
VERTEX
  8
0
  5
9E2
 10
-3.21765
 20
-0.719077
 30
0.000000
  70
    32
  0
VERTEX
  8
0
  5
9E3
 10
-3.21817
 20
-0.718538
 30
0.000000
  70
    32
  0
VERTEX
  8
0
  5
9E4
 10
-3.21869
 20
-0.717994
 30
0.000000
  70
    32
  0
VERTEX
  8
0
  5
9E5
 10
-3.21921
 20
-0.717444
 30
0.000000
  70
    32
  0
VERTEX
  8
0
  5
9E6
 10
-3.21972
 20
-0.716889
 30
0.000000
  70
    32
  0
VERTEX
  8
0
  5
9E7
 10
-3.22022
 20
-0.716328
 30
0.000000
  70
    32
  0
VERTEX
  8
0
  5
9E8
 10
-3.22072
 20
-0.715762
 30
0.000000
  70
    32
  0
VERTEX
  8
0
  5
9E9
 10
-3.22121
 20
-0.715191
 30
0.000000
  70
    32
  0
VERTEX
  8
0
  5
9EA
 10
-3.22170
 20
-0.714614
 30
0.000000
  70
    32
  0
VERTEX
  8
0
  5
9EB
 10
-3.22218
 20
-0.714032
 30
0.000000
  70
    32
  0
VERTEX
  8
0
  5
9EC
 10
-3.22265
 20
-0.713444
 30
0.000000
  70
    32
  0
VERTEX
  8
0
  5
9ED
 10
-3.22311
 20
-0.712852
 30
0.000000
  70
    32
  0
VERTEX
  8
0
  5
9EE
 10
-3.22357
 20
-0.712255
 30
0.000000
  70
    32
  0
VERTEX
  8
0
  5
9EF
 10
-3.22403
 20
-0.711652
 30
0.000000
  70
    32
  0
VERTEX
  8
0
  5
9F0
 10
-3.22447
 20
-0.711045
 30
0.000000
  70
    32
  0
VERTEX
  8
0
  5
9F1
 10
-3.22491
 20
-0.710432
 30
0.000000
  70
    32
  0
VERTEX
  8
0
  5
9F2
 10
-3.22535
 20
-0.709815
 30
0.000000
  70
    32
  0
VERTEX
  8
0
  5
9F3
 10
-3.22577
 20
-0.709193
 30
0.000000
  70
    32
  0
VERTEX
  8
0
  5
9F4
 10
-3.22619
 20
-0.708566
 30
0.000000
  70
    32
  0
VERTEX
  8
0
  5
9F5
 10
-3.22661
 20
-0.707934
 30
0.000000
  70
    32
  0
VERTEX
  8
0
  5
9F6
 10
-3.22701
 20
-0.707298
 30
0.000000
  70
    32
  0
VERTEX
  8
0
  5
9F7
 10
-3.22741
 20
-0.706657
 30
0.000000
  70
    32
  0
VERTEX
  8
0
  5
9F8
 10
-3.22781
 20
-0.706011
 30
0.000000
  70
    32
  0
VERTEX
  8
0
  5
9F9
 10
-3.22819
 20
-0.705361
 30
0.000000
  70
    32
  0
VERTEX
  8
0
  5
9FA
 10
-3.22857
 20
-0.704707
 30
0.000000
  70
    32
  0
VERTEX
  8
0
  5
9FB
 10
-3.22894
 20
-0.704048
 30
0.000000
  70
    32
  0
VERTEX
  8
0
  5
9FC
 10
-3.22931
 20
-0.703385
 30
0.000000
  70
    32
  0
VERTEX
  8
0
  5
9FD
 10
-3.22967
 20
-0.702717
 30
0.000000
  70
    32
  0
VERTEX
  8
0
  5
9FE
 10
-3.23002
 20
-0.702045
 30
0.000000
  70
    32
  0
VERTEX
  8
0
  5
9FF
 10
-3.23036
 20
-0.701369
 30
0.000000
  70
    32
  0
VERTEX
  8
0
  5
A00
 10
-3.23070
 20
-0.700689
 30
0.000000
  70
    32
  0
VERTEX
  8
0
  5
A01
 10
-3.23103
 20
-0.700005
 30
0.000000
  70
    32
  0
VERTEX
  8
0
  5
A02
 10
-3.23135
 20
-0.699316
 30
0.000000
  70
    32
  0
VERTEX
  8
0
  5
A03
 10
-3.23166
 20
-0.698624
 30
0.000000
  70
    32
  0
VERTEX
  8
0
  5
A04
 10
-3.23197
 20
-0.697928
 30
0.000000
  70
    32
  0
VERTEX
  8
0
  5
A05
 10
-3.23227
 20
-0.697227
 30
0.000000
  70
    32
  0
VERTEX
  8
0
  5
A06
 10
-3.23256
 20
-0.696523
 30
0.000000
  70
    32
  0
VERTEX
  8
0
  5
A07
 10
-3.23285
 20
-0.695816
 30
0.000000
  70
    32
  0
VERTEX
  8
0
  5
A08
 10
-3.23312
 20
-0.695104
 30
0.000000
  70
    32
  0
VERTEX
  8
0
  5
A09
 10
-3.23339
 20
-0.694389
 30
0.000000
  70
    32
  0
VERTEX
  8
0
  5
A0A
 10
-3.23365
 20
-0.693670
 30
0.000000
  70
    32
  0
VERTEX
  8
0
  5
A0B
 10
-3.23391
 20
-0.692947
 30
0.000000
  70
    32
  0
VERTEX
  8
0
  5
A0C
 10
-3.23415
 20
-0.692221
 30
0.000000
  70
    32
  0
VERTEX
  8
0
  5
A0D
 10
-3.23439
 20
-0.691492
 30
0.000000
  70
    32
  0
VERTEX
  8
0
  5
A0E
 10
-3.23462
 20
-0.690759
 30
0.000000
  70
    32
  0
VERTEX
  8
0
  5
A0F
 10
-3.23484
 20
-0.690023
 30
0.000000
  70
    32
  0
VERTEX
  8
0
  5
A10
 10
-3.23506
 20
-0.689283
 30
0.000000
  70
    32
  0
VERTEX
  8
0
  5
A11
 10
-3.23526
 20
-0.688540
 30
0.000000
  70
    32
  0
VERTEX
  8
0
  5
A12
 10
-3.23546
 20
-0.687794
 30
0.000000
  70
    32
  0
VERTEX
  8
0
  5
A13
 10
-3.23565
 20
-0.687045
 30
0.000000
  70
    32
  0
VERTEX
  8
0
  5
A14
 10
-3.23583
 20
-0.686293
 30
0.000000
  70
    32
  0
VERTEX
  8
0
  5
A15
 10
-3.23601
 20
-0.685537
 30
0.000000
  70
    32
  0
VERTEX
  8
0
  5
A16
 10
-3.23617
 20
-0.684779
 30
0.000000
  70
    32
  0
VERTEX
  8
0
  5
A17
 10
-3.23633
 20
-0.684017
 30
0.000000
  70
    32
  0
VERTEX
  8
0
  5
A18
 10
-3.23648
 20
-0.683253
 30
0.000000
  70
    32
  0
VERTEX
  8
0
  5
A19
 10
-3.23662
 20
-0.682486
 30
0.000000
  70
    32
  0
VERTEX
  8
0
  5
A1A
 10
-3.23675
 20
-0.681716
 30
0.000000
  70
    32
  0
VERTEX
  8
0
  5
A1B
 10
-3.23687
 20
-0.680943
 30
0.000000
  70
    32
  0
VERTEX
  8
0
  5
A1C
 10
-3.23699
 20
-0.680168
 30
0.000000
  70
    32
  0
VERTEX
  8
0
  5
A1D
 10
-3.23709
 20
-0.679390
 30
0.000000
  70
    32
  0
VERTEX
  8
0
  5
A1E
 10
-3.23719
 20
-0.678609
 30
0.000000
  70
    32
  0
VERTEX
  8
0
  5
A1F
 10
-3.23728
 20
-0.677826
 30
0.000000
  70
    32
  0
VERTEX
  8
0
  5
A20
 10
-3.23736
 20
-0.677040
 30
0.000000
  70
    32
  0
VERTEX
  8
0
  5
A21
 10
-3.23743
 20
-0.676252
 30
0.000000
  70
    32
  0
VERTEX
  8
0
  5
A22
 10
-3.23749
 20
-0.675462
 30
0.000000
  70
    32
  0
VERTEX
  8
0
  5
A23
 10
-3.23754
 20
-0.674669
 30
0.000000
  70
    32
  0
VERTEX
  8
0
  5
A24
 10
-3.23759
 20
-0.673874
 30
0.000000
  70
    32
  0
VERTEX
  8
0
  5
A25
 10
-3.23762
 20
-0.673076
 30
0.000000
  70
    32
  0
VERTEX
  8
0
  5
A26
 10
-3.23765
 20
-0.672277
 30
0.000000
  70
    32
  0
VERTEX
  8
0
  5
A27
 10
-3.23767
 20
-0.671475
 30
0.000000
  70
    32
  0
SEQEND
  8
0
  5
A28
  0
POLYLINE
  8
0
  5
A29
  66
     1
 10
0.000000
 20
0.000000
 30
0.000000
  70
     8
  0
VERTEX
  8
0
  5
A2A
 10
-0.734138
 20
-4.33833
 30
0.000000
  70
    32
  0
VERTEX
  8
0
  5
A2B
 10
-0.734366
 20
-4.33829
 30
0.000000
  70
    32
  0
VERTEX
  8
0
  5
A2C
 10
-0.734593
 20
-4.33825
 30
0.000000
  70
    32
  0
VERTEX
  8
0
  5
A2D
 10
-0.734820
 20
-4.33821
 30
0.000000
  70
    32
  0
VERTEX
  8
0
  5
A2E
 10
-0.735045
 20
-4.33817
 30
0.000000
  70
    32
  0
VERTEX
  8
0
  5
A2F
 10
-0.735269
 20
-4.33812
 30
0.000000
  70
    32
  0
VERTEX
  8
0
  5
A30
 10
-0.735493
 20
-4.33807
 30
0.000000
  70
    32
  0
VERTEX
  8
0
  5
A31
 10
-0.735715
 20
-4.33802
 30
0.000000
  70
    32
  0
VERTEX
  8
0
  5
A32
 10
-0.735936
 20
-4.33797
 30
0.000000
  70
    32
  0
VERTEX
  8
0
  5
A33
 10
-0.736156
 20
-4.33791
 30
0.000000
  70
    32
  0
VERTEX
  8
0
  5
A34
 10
-0.736375
 20
-4.33785
 30
0.000000
  70
    32
  0
VERTEX
  8
0
  5
A35
 10
-0.736593
 20
-4.33779
 30
0.000000
  70
    32
  0
VERTEX
  8
0
  5
A36
 10
-0.736810
 20
-4.33773
 30
0.000000
  70
    32
  0
VERTEX
  8
0
  5
A37
 10
-0.737026
 20
-4.33766
 30
0.000000
  70
    32
  0
VERTEX
  8
0
  5
A38
 10
-0.737241
 20
-4.33760
 30
0.000000
  70
    32
  0
VERTEX
  8
0
  5
A39
 10
-0.737455
 20
-4.33753
 30
0.000000
  70
    32
  0
VERTEX
  8
0
  5
A3A
 10
-0.737667
 20
-4.33746
 30
0.000000
  70
    32
  0
VERTEX
  8
0
  5
A3B
 10
-0.737878
 20
-4.33738
 30
0.000000
  70
    32
  0
VERTEX
  8
0
  5
A3C
 10
-0.738089
 20
-4.33731
 30
0.000000
  70
    32
  0
VERTEX
  8
0
  5
A3D
 10
-0.738298
 20
-4.33723
 30
0.000000
  70
    32
  0
VERTEX
  8
0
  5
A3E
 10
-0.738505
 20
-4.33715
 30
0.000000
  70
    32
  0
VERTEX
  8
0
  5
A3F
 10
-0.738712
 20
-4.33707
 30
0.000000
  70
    32
  0
VERTEX
  8
0
  5
A40
 10
-0.738918
 20
-4.33698
 30
0.000000
  70
    32
  0
VERTEX
  8
0
  5
A41
 10
-0.739122
 20
-4.33689
 30
0.000000
  70
    32
  0
VERTEX
  8
0
  5
A42
 10
-0.739325
 20
-4.33681
 30
0.000000
  70
    32
  0
VERTEX
  8
0
  5
A43
 10
-0.739526
 20
-4.33671
 30
0.000000
  70
    32
  0
VERTEX
  8
0
  5
A44
 10
-0.739727
 20
-4.33662
 30
0.000000
  70
    32
  0
VERTEX
  8
0
  5
A45
 10
-0.739926
 20
-4.33653
 30
0.000000
  70
    32
  0
VERTEX
  8
0
  5
A46
 10
-0.740124
 20
-4.33643
 30
0.000000
  70
    32
  0
VERTEX
  8
0
  5
A47
 10
-0.740321
 20
-4.33633
 30
0.000000
  70
    32
  0
VERTEX
  8
0
  5
A48
 10
-0.740516
 20
-4.33623
 30
0.000000
  70
    32
  0
VERTEX
  8
0
  5
A49
 10
-0.740710
 20
-4.33613
 30
0.000000
  70
    32
  0
VERTEX
  8
0
  5
A4A
 10
-0.740902
 20
-4.33602
 30
0.000000
  70
    32
  0
VERTEX
  8
0
  5
A4B
 10
-0.741094
 20
-4.33591
 30
0.000000
  70
    32
  0
VERTEX
  8
0
  5
A4C
 10
-0.741284
 20
-4.33580
 30
0.000000
  70
    32
  0
VERTEX
  8
0
  5
A4D
 10
-0.741472
 20
-4.33569
 30
0.000000
  70
    32
  0
VERTEX
  8
0
  5
A4E
 10
-0.741659
 20
-4.33558
 30
0.000000
  70
    32
  0
VERTEX
  8
0
  5
A4F
 10
-0.741845
 20
-4.33546
 30
0.000000
  70
    32
  0
VERTEX
  8
0
  5
A50
 10
-0.742030
 20
-4.33535
 30
0.000000
  70
    32
  0
VERTEX
  8
0
  5
A51
 10
-0.742213
 20
-4.33523
 30
0.000000
  70
    32
  0
VERTEX
  8
0
  5
A52
 10
-0.742394
 20
-4.33511
 30
0.000000
  70
    32
  0
VERTEX
  8
0
  5
A53
 10
-0.742574
 20
-4.33499
 30
0.000000
  70
    32
  0
VERTEX
  8
0
  5
A54
 10
-0.742753
 20
-4.33486
 30
0.000000
  70
    32
  0
VERTEX
  8
0
  5
A55
 10
-0.742930
 20
-4.33473
 30
0.000000
  70
    32
  0
VERTEX
  8
0
  5
A56
 10
-0.743106
 20
-4.33461
 30
0.000000
  70
    32
  0
VERTEX
  8
0
  5
A57
 10
-0.743280
 20
-4.33448
 30
0.000000
  70
    32
  0
VERTEX
  8
0
  5
A58
 10
-0.743453
 20
-4.33434
 30
0.000000
  70
    32
  0
VERTEX
  8
0
  5
A59
 10
-0.743624
 20
-4.33421
 30
0.000000
  70
    32
  0
VERTEX
  8
0
  5
A5A
 10
-0.743793
 20
-4.33408
 30
0.000000
  70
    32
  0
VERTEX
  8
0
  5
A5B
 10
-0.743962
 20
-4.33394
 30
0.000000
  70
    32
  0
VERTEX
  8
0
  5
A5C
 10
-0.744128
 20
-4.33380
 30
0.000000
  70
    32
  0
VERTEX
  8
0
  5
A5D
 10
-0.744293
 20
-4.33366
 30
0.000000
  70
    32
  0
VERTEX
  8
0
  5
A5E
 10
-0.744456
 20
-4.33352
 30
0.000000
  70
    32
  0
VERTEX
  8
0
  5
A5F
 10
-0.744618
 20
-4.33337
 30
0.000000
  70
    32
  0
VERTEX
  8
0
  5
A60
 10
-0.744778
 20
-4.33323
 30
0.000000
  70
    32
  0
VERTEX
  8
0
  5
A61
 10
-0.744937
 20
-4.33308
 30
0.000000
  70
    32
  0
VERTEX
  8
0
  5
A62
 10
-0.745094
 20
-4.33293
 30
0.000000
  70
    32
  0
VERTEX
  8
0
  5
A63
 10
-0.745249
 20
-4.33278
 30
0.000000
  70
    32
  0
VERTEX
  8
0
  5
A64
 10
-0.745403
 20
-4.33263
 30
0.000000
  70
    32
  0
VERTEX
  8
0
  5
A65
 10
-0.745555
 20
-4.33247
 30
0.000000
  70
    32
  0
VERTEX
  8
0
  5
A66
 10
-0.745705
 20
-4.33232
 30
0.000000
  70
    32
  0
VERTEX
  8
0
  5
A67
 10
-0.745854
 20
-4.33216
 30
0.000000
  70
    32
  0
VERTEX
  8
0
  5
A68
 10
-0.746001
 20
-4.33200
 30
0.000000
  70
    32
  0
VERTEX
  8
0
  5
A69
 10
-0.746146
 20
-4.33184
 30
0.000000
  70
    32
  0
VERTEX
  8
0
  5
A6A
 10
-0.746290
 20
-4.33168
 30
0.000000
  70
    32
  0
VERTEX
  8
0
  5
A6B
 10
-0.746431
 20
-4.33152
 30
0.000000
  70
    32
  0
VERTEX
  8
0
  5
A6C
 10
-0.746571
 20
-4.33135
 30
0.000000
  70
    32
  0
VERTEX
  8
0
  5
A6D
 10
-0.746710
 20
-4.33119
 30
0.000000
  70
    32
  0
VERTEX
  8
0
  5
A6E
 10
-0.746846
 20
-4.33102
 30
0.000000
  70
    32
  0
VERTEX
  8
0
  5
A6F
 10
-0.746981
 20
-4.33085
 30
0.000000
  70
    32
  0
VERTEX
  8
0
  5
A70
 10
-0.747114
 20
-4.33068
 30
0.000000
  70
    32
  0
VERTEX
  8
0
  5
A71
 10
-0.747245
 20
-4.33051
 30
0.000000
  70
    32
  0
VERTEX
  8
0
  5
A72
 10
-0.747374
 20
-4.33033
 30
0.000000
  70
    32
  0
VERTEX
  8
0
  5
A73
 10
-0.747501
 20
-4.33016
 30
0.000000
  70
    32
  0
VERTEX
  8
0
  5
A74
 10
-0.747627
 20
-4.32998
 30
0.000000
  70
    32
  0
VERTEX
  8
0
  5
A75
 10
-0.747751
 20
-4.32980
 30
0.000000
  70
    32
  0
VERTEX
  8
0
  5
A76
 10
-0.747872
 20
-4.32962
 30
0.000000
  70
    32
  0
VERTEX
  8
0
  5
A77
 10
-0.747992
 20
-4.32944
 30
0.000000
  70
    32
  0
VERTEX
  8
0
  5
A78
 10
-0.748110
 20
-4.32926
 30
0.000000
  70
    32
  0
VERTEX
  8
0
  5
A79
 10
-0.748226
 20
-4.32908
 30
0.000000
  70
    32
  0
VERTEX
  8
0
  5
A7A
 10
-0.748341
 20
-4.32889
 30
0.000000
  70
    32
  0
VERTEX
  8
0
  5
A7B
 10
-0.748453
 20
-4.32871
 30
0.000000
  70
    32
  0
VERTEX
  8
0
  5
A7C
 10
-0.748563
 20
-4.32852
 30
0.000000
  70
    32
  0
VERTEX
  8
0
  5
A7D
 10
-0.748671
 20
-4.32833
 30
0.000000
  70
    32
  0
VERTEX
  8
0
  5
A7E
 10
-0.748778
 20
-4.32814
 30
0.000000
  70
    32
  0
VERTEX
  8
0
  5
A7F
 10
-0.748882
 20
-4.32795
 30
0.000000
  70
    32
  0
VERTEX
  8
0
  5
A80
 10
-0.748985
 20
-4.32776
 30
0.000000
  70
    32
  0
VERTEX
  8
0
  5
A81
 10
-0.749085
 20
-4.32756
 30
0.000000
  70
    32
  0
VERTEX
  8
0
  5
A82
 10
-0.749183
 20
-4.32737
 30
0.000000
  70
    32
  0
VERTEX
  8
0
  5
A83
 10
-0.749280
 20
-4.32717
 30
0.000000
  70
    32
  0
VERTEX
  8
0
  5
A84
 10
-0.749374
 20
-4.32697
 30
0.000000
  70
    32
  0
VERTEX
  8
0
  5
A85
 10
-0.749466
 20
-4.32678
 30
0.000000
  70
    32
  0
VERTEX
  8
0
  5
A86
 10
-0.749556
 20
-4.32658
 30
0.000000
  70
    32
  0
VERTEX
  8
0
  5
A87
 10
-0.749644
 20
-4.32637
 30
0.000000
  70
    32
  0
VERTEX
  8
0
  5
A88
 10
-0.749730
 20
-4.32617
 30
0.000000
  70
    32
  0
VERTEX
  8
0
  5
A89
 10
-0.749814
 20
-4.32597
 30
0.000000
  70
    32
  0
VERTEX
  8
0
  5
A8A
 10
-0.749896
 20
-4.32577
 30
0.000000
  70
    32
  0
VERTEX
  8
0
  5
A8B
 10
-0.749975
 20
-4.32556
 30
0.000000
  70
    32
  0
VERTEX
  8
0
  5
A8C
 10
-0.750053
 20
-4.32535
 30
0.000000
  70
    32
  0
VERTEX
  8
0
  5
A8D
 10
-0.750128
 20
-4.32515
 30
0.000000
  70
    32
  0
VERTEX
  8
0
  5
A8E
 10
-0.750201
 20
-4.32494
 30
0.000000
  70
    32
  0
VERTEX
  8
0
  5
A8F
 10
-0.750272
 20
-4.32473
 30
0.000000
  70
    32
  0
VERTEX
  8
0
  5
A90
 10
-0.750341
 20
-4.32452
 30
0.000000
  70
    32
  0
VERTEX
  8
0
  5
A91
 10
-0.750408
 20
-4.32431
 30
0.000000
  70
    32
  0
VERTEX
  8
0
  5
A92
 10
-0.750472
 20
-4.32409
 30
0.000000
  70
    32
  0
VERTEX
  8
0
  5
A93
 10
-0.750534
 20
-4.32388
 30
0.000000
  70
    32
  0
VERTEX
  8
0
  5
A94
 10
-0.750594
 20
-4.32367
 30
0.000000
  70
    32
  0
VERTEX
  8
0
  5
A95
 10
-0.750651
 20
-4.32345
 30
0.000000
  70
    32
  0
VERTEX
  8
0
  5
A96
 10
-0.750707
 20
-4.32323
 30
0.000000
  70
    32
  0
VERTEX
  8
0
  5
A97
 10
-0.750760
 20
-4.32302
 30
0.000000
  70
    32
  0
VERTEX
  8
0
  5
A98
 10
-0.750811
 20
-4.32280
 30
0.000000
  70
    32
  0
VERTEX
  8
0
  5
A99
 10
-0.750859
 20
-4.32258
 30
0.000000
  70
    32
  0
VERTEX
  8
0
  5
A9A
 10
-0.750905
 20
-4.32236
 30
0.000000
  70
    32
  0
VERTEX
  8
0
  5
A9B
 10
-0.750949
 20
-4.32214
 30
0.000000
  70
    32
  0
VERTEX
  8
0
  5
A9C
 10
-0.750990
 20
-4.32192
 30
0.000000
  70
    32
  0
VERTEX
  8
0
  5
A9D
 10
-0.751029
 20
-4.32169
 30
0.000000
  70
    32
  0
VERTEX
  8
0
  5
A9E
 10
-0.751066
 20
-4.32147
 30
0.000000
  70
    32
  0
VERTEX
  8
0
  5
A9F
 10
-0.751101
 20
-4.32125
 30
0.000000
  70
    32
  0
VERTEX
  8
0
  5
AA0
 10
-0.751133
 20
-4.32102
 30
0.000000
  70
    32
  0
VERTEX
  8
0
  5
AA1
 10
-0.751162
 20
-4.32080
 30
0.000000
  70
    32
  0
VERTEX
  8
0
  5
AA2
 10
-0.751189
 20
-4.32057
 30
0.000000
  70
    32
  0
VERTEX
  8
0
  5
AA3
 10
-0.751214
 20
-4.32034
 30
0.000000
  70
    32
  0
VERTEX
  8
0
  5
AA4
 10
-0.751236
 20
-4.32011
 30
0.000000
  70
    32
  0
VERTEX
  8
0
  5
AA5
 10
-0.751256
 20
-4.31988
 30
0.000000
  70
    32
  0
VERTEX
  8
0
  5
AA6
 10
-0.751273
 20
-4.31966
 30
0.000000
  70
    32
  0
VERTEX
  8
0
  5
AA7
 10
-0.751288
 20
-4.31943
 30
0.000000
  70
    32
  0
VERTEX
  8
0
  5
AA8
 10
-0.751301
 20
-4.31919
 30
0.000000
  70
    32
  0
VERTEX
  8
0
  5
AA9
 10
-0.751311
 20
-4.31896
 30
0.000000
  70
    32
  0
SEQEND
  8
0
  5
AAA
  0
POLYLINE
  8
0
  5
AAB
  66
     1
 10
0.000000
 20
0.000000
 30
0.000000
  70
     8
  0
VERTEX
  8
0
  5
AAC
 10
-0.774329
 20
-2.97766
 30
0.000000
  70
    32
  0
VERTEX
  8
0
  5
AAD
 10
-0.774329
 20
-2.97757
 30
0.000000
  70
    32
  0
VERTEX
  8
0
  5
AAE
 10
-0.774326
 20
-2.97748
 30
0.000000
  70
    32
  0
VERTEX
  8
0
  5
AAF
 10
-0.774322
 20
-2.97739
 30
0.000000
  70
    32
  0
VERTEX
  8
0
  5
AB0
 10
-0.774317
 20
-2.97729
 30
0.000000
  70
    32
  0
VERTEX
  8
0
  5
AB1
 10
-0.774310
 20
-2.97720
 30
0.000000
  70
    32
  0
VERTEX
  8
0
  5
AB2
 10
-0.774302
 20
-2.97711
 30
0.000000
  70
    32
  0
VERTEX
  8
0
  5
AB3
 10
-0.774292
 20
-2.97702
 30
0.000000
  70
    32
  0
VERTEX
  8
0
  5
AB4
 10
-0.774281
 20
-2.97692
 30
0.000000
  70
    32
  0
VERTEX
  8
0
  5
AB5
 10
-0.774269
 20
-2.97683
 30
0.000000
  70
    32
  0
VERTEX
  8
0
  5
AB6
 10
-0.774255
 20
-2.97673
 30
0.000000
  70
    32
  0
VERTEX
  8
0
  5
AB7
 10
-0.774240
 20
-2.97663
 30
0.000000
  70
    32
  0
VERTEX
  8
0
  5
AB8
 10
-0.774223
 20
-2.97654
 30
0.000000
  70
    32
  0
VERTEX
  8
0
  5
AB9
 10
-0.774206
 20
-2.97644
 30
0.000000
  70
    32
  0
VERTEX
  8
0
  5
ABA
 10
-0.774187
 20
-2.97634
 30
0.000000
  70
    32
  0
VERTEX
  8
0
  5
ABB
 10
-0.774167
 20
-2.97624
 30
0.000000
  70
    32
  0
VERTEX
  8
0
  5
ABC
 10
-0.774146
 20
-2.97614
 30
0.000000
  70
    32
  0
VERTEX
  8
0
  5
ABD
 10
-0.774123
 20
-2.97604
 30
0.000000
  70
    32
  0
VERTEX
  8
0
  5
ABE
 10
-0.774100
 20
-2.97594
 30
0.000000
  70
    32
  0
VERTEX
  8
0
  5
ABF
 10
-0.774076
 20
-2.97584
 30
0.000000
  70
    32
  0
VERTEX
  8
0
  5
AC0
 10
-0.774050
 20
-2.97574
 30
0.000000
  70
    32
  0
VERTEX
  8
0
  5
AC1
 10
-0.774023
 20
-2.97564
 30
0.000000
  70
    32
  0
VERTEX
  8
0
  5
AC2
 10
-0.773996
 20
-2.97554
 30
0.000000
  70
    32
  0
VERTEX
  8
0
  5
AC3
 10
-0.773967
 20
-2.97543
 30
0.000000
  70
    32
  0
VERTEX
  8
0
  5
AC4
 10
-0.773938
 20
-2.97533
 30
0.000000
  70
    32
  0
VERTEX
  8
0
  5
AC5
 10
-0.773908
 20
-2.97523
 30
0.000000
  70
    32
  0
VERTEX
  8
0
  5
AC6
 10
-0.773876
 20
-2.97513
 30
0.000000
  70
    32
  0
VERTEX
  8
0
  5
AC7
 10
-0.773844
 20
-2.97502
 30
0.000000
  70
    32
  0
VERTEX
  8
0
  5
AC8
 10
-0.773811
 20
-2.97492
 30
0.000000
  70
    32
  0
VERTEX
  8
0
  5
AC9
 10
-0.773778
 20
-2.97482
 30
0.000000
  70
    32
  0
VERTEX
  8
0
  5
ACA
 10
-0.773743
 20
-2.97472
 30
0.000000
  70
    32
  0
VERTEX
  8
0
  5
ACB
 10
-0.773708
 20
-2.97461
 30
0.000000
  70
    32
  0
VERTEX
  8
0
  5
ACC
 10
-0.773672
 20
-2.97451
 30
0.000000
  70
    32
  0
VERTEX
  8
0
  5
ACD
 10
-0.773636
 20
-2.97441
 30
0.000000
  70
    32
  0
VERTEX
  8
0
  5
ACE
 10
-0.773599
 20
-2.97430
 30
0.000000
  70
    32
  0
VERTEX
  8
0
  5
ACF
 10
-0.773561
 20
-2.97420
 30
0.000000
  70
    32
  0
VERTEX
  8
0
  5
AD0
 10
-0.773522
 20
-2.97410
 30
0.000000
  70
    32
  0
VERTEX
  8
0
  5
AD1
 10
-0.773483
 20
-2.97400
 30
0.000000
  70
    32
  0
VERTEX
  8
0
  5
AD2
 10
-0.773444
 20
-2.97390
 30
0.000000
  70
    32
  0
VERTEX
  8
0
  5
AD3
 10
-0.773404
 20
-2.97379
 30
0.000000
  70
    32
  0
VERTEX
  8
0
  5
AD4
 10
-0.773363
 20
-2.97369
 30
0.000000
  70
    32
  0
VERTEX
  8
0
  5
AD5
 10
-0.773323
 20
-2.97359
 30
0.000000
  70
    32
  0
VERTEX
  8
0
  5
AD6
 10
-0.773281
 20
-2.97349
 30
0.000000
  70
    32
  0
VERTEX
  8
0
  5
AD7
 10
-0.773239
 20
-2.97339
 30
0.000000
  70
    32
  0
VERTEX
  8
0
  5
AD8
 10
-0.773197
 20
-2.97329
 30
0.000000
  70
    32
  0
VERTEX
  8
0
  5
AD9
 10
-0.773155
 20
-2.97319
 30
0.000000
  70
    32
  0
VERTEX
  8
0
  5
ADA
 10
-0.773112
 20
-2.97309
 30
0.000000
  70
    32
  0
VERTEX
  8
0
  5
ADB
 10
-0.773069
 20
-2.97299
 30
0.000000
  70
    32
  0
VERTEX
  8
0
  5
ADC
 10
-0.773026
 20
-2.97289
 30
0.000000
  70
    32
  0
VERTEX
  8
0
  5
ADD
 10
-0.772982
 20
-2.97280
 30
0.000000
  70
    32
  0
VERTEX
  8
0
  5
ADE
 10
-0.772939
 20
-2.97270
 30
0.000000
  70
    32
  0
VERTEX
  8
0
  5
ADF
 10
-0.772895
 20
-2.97260
 30
0.000000
  70
    32
  0
VERTEX
  8
0
  5
AE0
 10
-0.772851
 20
-2.97251
 30
0.000000
  70
    32
  0
VERTEX
  8
0
  5
AE1
 10
-0.772807
 20
-2.97241
 30
0.000000
  70
    32
  0
VERTEX
  8
0
  5
AE2
 10
-0.772763
 20
-2.97232
 30
0.000000
  70
    32
  0
VERTEX
  8
0
  5
AE3
 10
-0.772718
 20
-2.97222
 30
0.000000
  70
    32
  0
VERTEX
  8
0
  5
AE4
 10
-0.772674
 20
-2.97213
 30
0.000000
  70
    32
  0
VERTEX
  8
0
  5
AE5
 10
-0.772630
 20
-2.97204
 30
0.000000
  70
    32
  0
VERTEX
  8
0
  5
AE6
 10
-0.772586
 20
-2.97195
 30
0.000000
  70
    32
  0
VERTEX
  8
0
  5
AE7
 10
-0.772542
 20
-2.97186
 30
0.000000
  70
    32
  0
VERTEX
  8
0
  5
AE8
 10
-0.772498
 20
-2.97177
 30
0.000000
  70
    32
  0
VERTEX
  8
0
  5
AE9
 10
-0.772454
 20
-2.97168
 30
0.000000
  70
    32
  0
VERTEX
  8
0
  5
AEA
 10
-0.772410
 20
-2.97159
 30
0.000000
  70
    32
  0
VERTEX
  8
0
  5
AEB
 10
-0.772366
 20
-2.97150
 30
0.000000
  70
    32
  0
VERTEX
  8
0
  5
AEC
 10
-0.772323
 20
-2.97142
 30
0.000000
  70
    32
  0
VERTEX
  8
0
  5
AED
 10
-0.772280
 20
-2.97133
 30
0.000000
  70
    32
  0
VERTEX
  8
0
  5
AEE
 10
-0.772237
 20
-2.97125
 30
0.000000
  70
    32
  0
VERTEX
  8
0
  5
AEF
 10
-0.772194
 20
-2.97117
 30
0.000000
  70
    32
  0
VERTEX
  8
0
  5
AF0
 10
-0.772152
 20
-2.97109
 30
0.000000
  70
    32
  0
VERTEX
  8
0
  5
AF1
 10
-0.772110
 20
-2.97101
 30
0.000000
  70
    32
  0
VERTEX
  8
0
  5
AF2
 10
-0.772069
 20
-2.97093
 30
0.000000
  70
    32
  0
VERTEX
  8
0
  5
AF3
 10
-0.772027
 20
-2.97085
 30
0.000000
  70
    32
  0
VERTEX
  8
0
  5
AF4
 10
-0.771987
 20
-2.97077
 30
0.000000
  70
    32
  0
VERTEX
  8
0
  5
AF5
 10
-0.771946
 20
-2.97070
 30
0.000000
  70
    32
  0
VERTEX
  8
0
  5
AF6
 10
-0.771907
 20
-2.97062
 30
0.000000
  70
    32
  0
VERTEX
  8
0
  5
AF7
 10
-0.771867
 20
-2.97055
 30
0.000000
  70
    32
  0
VERTEX
  8
0
  5
AF8
 10
-0.771829
 20
-2.97048
 30
0.000000
  70
    32
  0
VERTEX
  8
0
  5
AF9
 10
-0.771791
 20
-2.97041
 30
0.000000
  70
    32
  0
VERTEX
  8
0
  5
AFA
 10
-0.771753
 20
-2.97034
 30
0.000000
  70
    32
  0
VERTEX
  8
0
  5
AFB
 10
-0.771716
 20
-2.97028
 30
0.000000
  70
    32
  0
VERTEX
  8
0
  5
AFC
 10
-0.771680
 20
-2.97021
 30
0.000000
  70
    32
  0
VERTEX
  8
0
  5
AFD
 10
-0.771645
 20
-2.97015
 30
0.000000
  70
    32
  0
VERTEX
  8
0
  5
AFE
 10
-0.771610
 20
-2.97008
 30
0.000000
  70
    32
  0
VERTEX
  8
0
  5
AFF
 10
-0.771576
 20
-2.97002
 30
0.000000
  70
    32
  0
VERTEX
  8
0
  5
B00
 10
-0.771542
 20
-2.96997
 30
0.000000
  70
    32
  0
VERTEX
  8
0
  5
B01
 10
-0.771510
 20
-2.96991
 30
0.000000
  70
    32
  0
VERTEX
  8
0
  5
B02
 10
-0.771478
 20
-2.96985
 30
0.000000
  70
    32
  0
VERTEX
  8
0
  5
B03
 10
-0.771448
 20
-2.96980
 30
0.000000
  70
    32
  0
VERTEX
  8
0
  5
B04
 10
-0.771418
 20
-2.96975
 30
0.000000
  70
    32
  0
VERTEX
  8
0
  5
B05
 10
-0.771389
 20
-2.96970
 30
0.000000
  70
    32
  0
VERTEX
  8
0
  5
B06
 10
-0.771361
 20
-2.96965
 30
0.000000
  70
    32
  0
VERTEX
  8
0
  5
B07
 10
-0.771334
 20
-2.96960
 30
0.000000
  70
    32
  0
VERTEX
  8
0
  5
B08
 10
-0.771308
 20
-2.96956
 30
0.000000
  70
    32
  0
VERTEX
  8
0
  5
B09
 10
-0.771283
 20
-2.96952
 30
0.000000
  70
    32
  0
VERTEX
  8
0
  5
B0A
 10
-0.771259
 20
-2.96948
 30
0.000000
  70
    32
  0
VERTEX
  8
0
  5
B0B
 10
-0.771236
 20
-2.96944
 30
0.000000
  70
    32
  0
VERTEX
  8
0
  5
B0C
 10
-0.771214
 20
-2.96940
 30
0.000000
  70
    32
  0
VERTEX
  8
0
  5
B0D
 10
-0.771193
 20
-2.96937
 30
0.000000
  70
    32
  0
VERTEX
  8
0
  5
B0E
 10
-0.771174
 20
-2.96933
 30
0.000000
  70
    32
  0
VERTEX
  8
0
  5
B0F
 10
-0.771156
 20
-2.96930
 30
0.000000
  70
    32
  0
VERTEX
  8
0
  5
B10
 10
-0.771139
 20
-2.96928
 30
0.000000
  70
    32
  0
VERTEX
  8
0
  5
B11
 10
-0.771123
 20
-2.96925
 30
0.000000
  70
    32
  0
VERTEX
  8
0
  5
B12
 10
-0.771109
 20
-2.96923
 30
0.000000
  70
    32
  0
VERTEX
  8
0
  5
B13
 10
-0.771095
 20
-2.96920
 30
0.000000
  70
    32
  0
VERTEX
  8
0
  5
B14
 10
-0.771084
 20
-2.96918
 30
0.000000
  70
    32
  0
VERTEX
  8
0
  5
B15
 10
-0.771073
 20
-2.96917
 30
0.000000
  70
    32
  0
VERTEX
  8
0
  5
B16
 10
-0.771064
 20
-2.96915
 30
0.000000
  70
    32
  0
VERTEX
  8
0
  5
B17
 10
-0.771057
 20
-2.96914
 30
0.000000
  70
    32
  0
VERTEX
  8
0
  5
B18
 10
-0.771051
 20
-2.96913
 30
0.000000
  70
    32
  0
VERTEX
  8
0
  5
B19
 10
-0.771046
 20
-2.96912
 30
0.000000
  70
    32
  0
VERTEX
  8
0
  5
B1A
 10
-0.771043
 20
-2.96912
 30
0.000000
  70
    32
  0
VERTEX
  8
0
  5
B1B
 10
-0.771041
 20
-2.96912
 30
0.000000
  70
    32
  0
VERTEX
  8
0
  5
B1C
 10
-0.771041
 20
-2.96912
 30
0.000000
  70
    32
  0
VERTEX
  8
0
  5
B1D
 10
-0.771038
 20
-2.96911
 30
0.000000
  70
    32
  0
VERTEX
  8
0
  5
B1E
 10
-0.771033
 20
-2.96911
 30
0.000000
  70
    32
  0
VERTEX
  8
0
  5
B1F
 10
-0.771025
 20
-2.96910
 30
0.000000
  70
    32
  0
VERTEX
  8
0
  5
B20
 10
-0.771014
 20
-2.96910
 30
0.000000
  70
    32
  0
VERTEX
  8
0
  5
B21
 10
-0.771001
 20
-2.96909
 30
0.000000
  70
    32
  0
VERTEX
  8
0
  5
B22
 10
-0.770986
 20
-2.96908
 30
0.000000
  70
    32
  0
VERTEX
  8
0
  5
B23
 10
-0.770968
 20
-2.96907
 30
0.000000
  70
    32
  0
VERTEX
  8
0
  5
B24
 10
-0.770948
 20
-2.96906
 30
0.000000
  70
    32
  0
VERTEX
  8
0
  5
B25
 10
-0.770925
 20
-2.96904
 30
0.000000
  70
    32
  0
VERTEX
  8
0
  5
B26
 10
-0.770900
 20
-2.96903
 30
0.000000
  70
    32
  0
VERTEX
  8
0
  5
B27
 10
-0.770872
 20
-2.96901
 30
0.000000
  70
    32
  0
VERTEX
  8
0
  5
B28
 10
-0.770843
 20
-2.96899
 30
0.000000
  70
    32
  0
VERTEX
  8
0
  5
B29
 10
-0.770811
 20
-2.96897
 30
0.000000
  70
    32
  0
VERTEX
  8
0
  5
B2A
 10
-0.770777
 20
-2.96895
 30
0.000000
  70
    32
  0
VERTEX
  8
0
  5
B2B
 10
-0.770740
 20
-2.96893
 30
0.000000
  70
    32
  0
VERTEX
  8
0
  5
B2C
 10
-0.770702
 20
-2.96890
 30
0.000000
  70
    32
  0
VERTEX
  8
0
  5
B2D
 10
-0.770661
 20
-2.96888
 30
0.000000
  70
    32
  0
VERTEX
  8
0
  5
B2E
 10
-0.770619
 20
-2.96885
 30
0.000000
  70
    32
  0
VERTEX
  8
0
  5
B2F
 10
-0.770574
 20
-2.96882
 30
0.000000
  70
    32
  0
VERTEX
  8
0
  5
B30
 10
-0.770528
 20
-2.96879
 30
0.000000
  70
    32
  0
VERTEX
  8
0
  5
B31
 10
-0.770479
 20
-2.96876
 30
0.000000
  70
    32
  0
VERTEX
  8
0
  5
B32
 10
-0.770429
 20
-2.96873
 30
0.000000
  70
    32
  0
VERTEX
  8
0
  5
B33
 10
-0.770376
 20
-2.96870
 30
0.000000
  70
    32
  0
VERTEX
  8
0
  5
B34
 10
-0.770322
 20
-2.96867
 30
0.000000
  70
    32
  0
VERTEX
  8
0
  5
B35
 10
-0.770266
 20
-2.96864
 30
0.000000
  70
    32
  0
VERTEX
  8
0
  5
B36
 10
-0.770208
 20
-2.96860
 30
0.000000
  70
    32
  0
VERTEX
  8
0
  5
B37
 10
-0.770149
 20
-2.96857
 30
0.000000
  70
    32
  0
VERTEX
  8
0
  5
B38
 10
-0.770088
 20
-2.96853
 30
0.000000
  70
    32
  0
VERTEX
  8
0
  5
B39
 10
-0.770025
 20
-2.96849
 30
0.000000
  70
    32
  0
VERTEX
  8
0
  5
B3A
 10
-0.769960
 20
-2.96845
 30
0.000000
  70
    32
  0
VERTEX
  8
0
  5
B3B
 10
-0.769894
 20
-2.96841
 30
0.000000
  70
    32
  0
VERTEX
  8
0
  5
B3C
 10
-0.769827
 20
-2.96837
 30
0.000000
  70
    32
  0
VERTEX
  8
0
  5
B3D
 10
-0.769758
 20
-2.96833
 30
0.000000
  70
    32
  0
VERTEX
  8
0
  5
B3E
 10
-0.769687
 20
-2.96829
 30
0.000000
  70
    32
  0
VERTEX
  8
0
  5
B3F
 10
-0.769615
 20
-2.96825
 30
0.000000
  70
    32
  0
VERTEX
  8
0
  5
B40
 10
-0.769541
 20
-2.96821
 30
0.000000
  70
    32
  0
VERTEX
  8
0
  5
B41
 10
-0.769466
 20
-2.96817
 30
0.000000
  70
    32
  0
VERTEX
  8
0
  5
B42
 10
-0.769390
 20
-2.96812
 30
0.000000
  70
    32
  0
VERTEX
  8
0
  5
B43
 10
-0.769313
 20
-2.96808
 30
0.000000
  70
    32
  0
VERTEX
  8
0
  5
B44
 10
-0.769234
 20
-2.96803
 30
0.000000
  70
    32
  0
VERTEX
  8
0
  5
B45
 10
-0.769154
 20
-2.96799
 30
0.000000
  70
    32
  0
VERTEX
  8
0
  5
B46
 10
-0.769073
 20
-2.96794
 30
0.000000
  70
    32
  0
VERTEX
  8
0
  5
B47
 10
-0.768990
 20
-2.96790
 30
0.000000
  70
    32
  0
VERTEX
  8
0
  5
B48
 10
-0.768907
 20
-2.96785
 30
0.000000
  70
    32
  0
VERTEX
  8
0
  5
B49
 10
-0.768822
 20
-2.96780
 30
0.000000
  70
    32
  0
VERTEX
  8
0
  5
B4A
 10
-0.768737
 20
-2.96776
 30
0.000000
  70
    32
  0
VERTEX
  8
0
  5
B4B
 10
-0.768650
 20
-2.96771
 30
0.000000
  70
    32
  0
VERTEX
  8
0
  5
B4C
 10
-0.768562
 20
-2.96766
 30
0.000000
  70
    32
  0
VERTEX
  8
0
  5
B4D
 10
-0.768474
 20
-2.96761
 30
0.000000
  70
    32
  0
VERTEX
  8
0
  5
B4E
 10
-0.768384
 20
-2.96757
 30
0.000000
  70
    32
  0
VERTEX
  8
0
  5
B4F
 10
-0.768294
 20
-2.96752
 30
0.000000
  70
    32
  0
VERTEX
  8
0
  5
B50
 10
-0.768203
 20
-2.96747
 30
0.000000
  70
    32
  0
VERTEX
  8
0
  5
B51
 10
-0.768111
 20
-2.96742
 30
0.000000
  70
    32
  0
VERTEX
  8
0
  5
B52
 10
-0.768018
 20
-2.96737
 30
0.000000
  70
    32
  0
VERTEX
  8
0
  5
B53
 10
-0.767925
 20
-2.96732
 30
0.000000
  70
    32
  0
VERTEX
  8
0
  5
B54
 10
-0.767830
 20
-2.96727
 30
0.000000
  70
    32
  0
VERTEX
  8
0
  5
B55
 10
-0.767736
 20
-2.96723
 30
0.000000
  70
    32
  0
VERTEX
  8
0
  5
B56
 10
-0.767640
 20
-2.96718
 30
0.000000
  70
    32
  0
VERTEX
  8
0
  5
B57
 10
-0.767544
 20
-2.96713
 30
0.000000
  70
    32
  0
VERTEX
  8
0
  5
B58
 10
-0.767447
 20
-2.96708
 30
0.000000
  70
    32
  0
VERTEX
  8
0
  5
B59
 10
-0.767350
 20
-2.96703
 30
0.000000
  70
    32
  0
VERTEX
  8
0
  5
B5A
 10
-0.767253
 20
-2.96699
 30
0.000000
  70
    32
  0
VERTEX
  8
0
  5
B5B
 10
-0.767155
 20
-2.96694
 30
0.000000
  70
    32
  0
VERTEX
  8
0
  5
B5C
 10
-0.767056
 20
-2.96689
 30
0.000000
  70
    32
  0
VERTEX
  8
0
  5
B5D
 10
-0.766958
 20
-2.96684
 30
0.000000
  70
    32
  0
VERTEX
  8
0
  5
B5E
 10
-0.766858
 20
-2.96680
 30
0.000000
  70
    32
  0
VERTEX
  8
0
  5
B5F
 10
-0.766759
 20
-2.96675
 30
0.000000
  70
    32
  0
VERTEX
  8
0
  5
B60
 10
-0.766659
 20
-2.96670
 30
0.000000
  70
    32
  0
VERTEX
  8
0
  5
B61
 10
-0.766559
 20
-2.96666
 30
0.000000
  70
    32
  0
VERTEX
  8
0
  5
B62
 10
-0.766459
 20
-2.96661
 30
0.000000
  70
    32
  0
VERTEX
  8
0
  5
B63
 10
-0.766359
 20
-2.96657
 30
0.000000
  70
    32
  0
VERTEX
  8
0
  5
B64
 10
-0.766259
 20
-2.96652
 30
0.000000
  70
    32
  0
VERTEX
  8
0
  5
B65
 10
-0.766158
 20
-2.96648
 30
0.000000
  70
    32
  0
VERTEX
  8
0
  5
B66
 10
-0.766058
 20
-2.96644
 30
0.000000
  70
    32
  0
VERTEX
  8
0
  5
B67
 10
-0.765957
 20
-2.96639
 30
0.000000
  70
    32
  0
VERTEX
  8
0
  5
B68
 10
-0.765857
 20
-2.96635
 30
0.000000
  70
    32
  0
VERTEX
  8
0
  5
B69
 10
-0.765756
 20
-2.96631
 30
0.000000
  70
    32
  0
VERTEX
  8
0
  5
B6A
 10
-0.765656
 20
-2.96627
 30
0.000000
  70
    32
  0
VERTEX
  8
0
  5
B6B
 10
-0.765556
 20
-2.96623
 30
0.000000
  70
    32
  0
VERTEX
  8
0
  5
B6C
 10
-0.765456
 20
-2.96619
 30
0.000000
  70
    32
  0
VERTEX
  8
0
  5
B6D
 10
-0.765356
 20
-2.96615
 30
0.000000
  70
    32
  0
VERTEX
  8
0
  5
B6E
 10
-0.765257
 20
-2.96611
 30
0.000000
  70
    32
  0
VERTEX
  8
0
  5
B6F
 10
-0.765157
 20
-2.96608
 30
0.000000
  70
    32
  0
VERTEX
  8
0
  5
B70
 10
-0.765058
 20
-2.96604
 30
0.000000
  70
    32
  0
VERTEX
  8
0
  5
B71
 10
-0.764960
 20
-2.96600
 30
0.000000
  70
    32
  0
VERTEX
  8
0
  5
B72
 10
-0.764862
 20
-2.96597
 30
0.000000
  70
    32
  0
VERTEX
  8
0
  5
B73
 10
-0.764764
 20
-2.96594
 30
0.000000
  70
    32
  0
VERTEX
  8
0
  5
B74
 10
-0.764667
 20
-2.96590
 30
0.000000
  70
    32
  0
VERTEX
  8
0
  5
B75
 10
-0.764570
 20
-2.96587
 30
0.000000
  70
    32
  0
VERTEX
  8
0
  5
B76
 10
-0.764473
 20
-2.96584
 30
0.000000
  70
    32
  0
VERTEX
  8
0
  5
B77
 10
-0.764378
 20
-2.96581
 30
0.000000
  70
    32
  0
VERTEX
  8
0
  5
B78
 10
-0.764282
 20
-2.96579
 30
0.000000
  70
    32
  0
VERTEX
  8
0
  5
B79
 10
-0.764188
 20
-2.96576
 30
0.000000
  70
    32
  0
VERTEX
  8
0
  5
B7A
 10
-0.764094
 20
-2.96573
 30
0.000000
  70
    32
  0
VERTEX
  8
0
  5
B7B
 10
-0.764001
 20
-2.96571
 30
0.000000
  70
    32
  0
VERTEX
  8
0
  5
B7C
 10
-0.763909
 20
-2.96569
 30
0.000000
  70
    32
  0
VERTEX
  8
0
  5
B7D
 10
-0.763817
 20
-2.96566
 30
0.000000
  70
    32
  0
VERTEX
  8
0
  5
B7E
 10
-0.763726
 20
-2.96564
 30
0.000000
  70
    32
  0
VERTEX
  8
0
  5
B7F
 10
-0.763636
 20
-2.96562
 30
0.000000
  70
    32
  0
VERTEX
  8
0
  5
B80
 10
-0.763547
 20
-2.96561
 30
0.000000
  70
    32
  0
VERTEX
  8
0
  5
B81
 10
-0.763459
 20
-2.96559
 30
0.000000
  70
    32
  0
VERTEX
  8
0
  5
B82
 10
-0.763372
 20
-2.96557
 30
0.000000
  70
    32
  0
VERTEX
  8
0
  5
B83
 10
-0.763286
 20
-2.96556
 30
0.000000
  70
    32
  0
VERTEX
  8
0
  5
B84
 10
-0.763201
 20
-2.96555
 30
0.000000
  70
    32
  0
VERTEX
  8
0
  5
B85
 10
-0.763117
 20
-2.96554
 30
0.000000
  70
    32
  0
VERTEX
  8
0
  5
B86
 10
-0.763034
 20
-2.96553
 30
0.000000
  70
    32
  0
VERTEX
  8
0
  5
B87
 10
-0.762952
 20
-2.96552
 30
0.000000
  70
    32
  0
VERTEX
  8
0
  5
B88
 10
-0.762872
 20
-2.96551
 30
0.000000
  70
    32
  0
VERTEX
  8
0
  5
B89
 10
-0.762792
 20
-2.96551
 30
0.000000
  70
    32
  0
VERTEX
  8
0
  5
B8A
 10
-0.762714
 20
-2.96551
 30
0.000000
  70
    32
  0
VERTEX
  8
0
  5
B8B
 10
-0.762637
 20
-2.96551
 30
0.000000
  70
    32
  0
SEQEND
  8
0
  5
B8C
  0
POLYLINE
  8
0
  5
B8D
  66
     1
 10
0.000000
 20
0.000000
 30
0.000000
  70
     8
  0
VERTEX
  8
0
  5
B8E
 10
-0.745373
 20
-2.93778
 30
0.000000
  70
    32
  0
VERTEX
  8
0
  5
B8F
 10
-0.745757
 20
-2.93778
 30
0.000000
  70
    32
  0
VERTEX
  8
0
  5
B90
 10
-0.746139
 20
-2.93777
 30
0.000000
  70
    32
  0
VERTEX
  8
0
  5
B91
 10
-0.746520
 20
-2.93776
 30
0.000000
  70
    32
  0
VERTEX
  8
0
  5
B92
 10
-0.746900
 20
-2.93775
 30
0.000000
  70
    32
  0
VERTEX
  8
0
  5
B93
 10
-0.747279
 20
-2.93772
 30
0.000000
  70
    32
  0
VERTEX
  8
0
  5
B94
 10
-0.747656
 20
-2.93770
 30
0.000000
  70
    32
  0
VERTEX
  8
0
  5
B95
 10
-0.748033
 20
-2.93767
 30
0.000000
  70
    32
  0
VERTEX
  8
0
  5
B96
 10
-0.748407
 20
-2.93763
 30
0.000000
  70
    32
  0
VERTEX
  8
0
  5
B97
 10
-0.748781
 20
-2.93759
 30
0.000000
  70
    32
  0
VERTEX
  8
0
  5
B98
 10
-0.749153
 20
-2.93755
 30
0.000000
  70
    32
  0
VERTEX
  8
0
  5
B99
 10
-0.749524
 20
-2.93750
 30
0.000000
  70
    32
  0
VERTEX
  8
0
  5
B9A
 10
-0.749893
 20
-2.93744
 30
0.000000
  70
    32
  0
VERTEX
  8
0
  5
B9B
 10
-0.750261
 20
-2.93739
 30
0.000000
  70
    32
  0
VERTEX
  8
0
  5
B9C
 10
-0.750627
 20
-2.93732
 30
0.000000
  70
    32
  0
VERTEX
  8
0
  5
B9D
 10
-0.750992
 20
-2.93726
 30
0.000000
  70
    32
  0
VERTEX
  8
0
  5
B9E
 10
-0.751355
 20
-2.93719
 30
0.000000
  70
    32
  0
VERTEX
  8
0
  5
B9F
 10
-0.751717
 20
-2.93711
 30
0.000000
  70
    32
  0
VERTEX
  8
0
  5
BA0
 10
-0.752077
 20
-2.93703
 30
0.000000
  70
    32
  0
VERTEX
  8
0
  5
BA1
 10
-0.752435
 20
-2.93695
 30
0.000000
  70
    32
  0
VERTEX
  8
0
  5
BA2
 10
-0.752792
 20
-2.93686
 30
0.000000
  70
    32
  0
VERTEX
  8
0
  5
BA3
 10
-0.753147
 20
-2.93676
 30
0.000000
  70
    32
  0
VERTEX
  8
0
  5
BA4
 10
-0.753500
 20
-2.93667
 30
0.000000
  70
    32
  0
VERTEX
  8
0
  5
BA5
 10
-0.753852
 20
-2.93657
 30
0.000000
  70
    32
  0
VERTEX
  8
0
  5
BA6
 10
-0.754202
 20
-2.93646
 30
0.000000
  70
    32
  0
VERTEX
  8
0
  5
BA7
 10
-0.754549
 20
-2.93635
 30
0.000000
  70
    32
  0
VERTEX
  8
0
  5
BA8
 10
-0.754896
 20
-2.93624
 30
0.000000
  70
    32
  0
VERTEX
  8
0
  5
BA9
 10
-0.755240
 20
-2.93612
 30
0.000000
  70
    32
  0
VERTEX
  8
0
  5
BAA
 10
-0.755582
 20
-2.93600
 30
0.000000
  70
    32
  0
VERTEX
  8
0
  5
BAB
 10
-0.755922
 20
-2.93587
 30
0.000000
  70
    32
  0
VERTEX
  8
0
  5
BAC
 10
-0.756261
 20
-2.93574
 30
0.000000
  70
    32
  0
VERTEX
  8
0
  5
BAD
 10
-0.756597
 20
-2.93561
 30
0.000000
  70
    32
  0
VERTEX
  8
0
  5
BAE
 10
-0.756932
 20
-2.93547
 30
0.000000
  70
    32
  0
VERTEX
  8
0
  5
BAF
 10
-0.757264
 20
-2.93533
 30
0.000000
  70
    32
  0
VERTEX
  8
0
  5
BB0
 10
-0.757594
 20
-2.93518
 30
0.000000
  70
    32
  0
VERTEX
  8
0
  5
BB1
 10
-0.757923
 20
-2.93503
 30
0.000000
  70
    32
  0
VERTEX
  8
0
  5
BB2
 10
-0.758249
 20
-2.93488
 30
0.000000
  70
    32
  0
VERTEX
  8
0
  5
BB3
 10
-0.758573
 20
-2.93472
 30
0.000000
  70
    32
  0
VERTEX
  8
0
  5
BB4
 10
-0.758894
 20
-2.93456
 30
0.000000
  70
    32
  0
VERTEX
  8
0
  5
BB5
 10
-0.759214
 20
-2.93440
 30
0.000000
  70
    32
  0
VERTEX
  8
0
  5
BB6
 10
-0.759531
 20
-2.93423
 30
0.000000
  70
    32
  0
VERTEX
  8
0
  5
BB7
 10
-0.759846
 20
-2.93406
 30
0.000000
  70
    32
  0
VERTEX
  8
0
  5
BB8
 10
-0.760159
 20
-2.93388
 30
0.000000
  70
    32
  0
VERTEX
  8
0
  5
BB9
 10
-0.760469
 20
-2.93370
 30
0.000000
  70
    32
  0
VERTEX
  8
0
  5
BBA
 10
-0.760777
 20
-2.93352
 30
0.000000
  70
    32
  0
VERTEX
  8
0
  5
BBB
 10
-0.761082
 20
-2.93333
 30
0.000000
  70
    32
  0
VERTEX
  8
0
  5
BBC
 10
-0.761386
 20
-2.93314
 30
0.000000
  70
    32
  0
VERTEX
  8
0
  5
BBD
 10
-0.761686
 20
-2.93295
 30
0.000000
  70
    32
  0
VERTEX
  8
0
  5
BBE
 10
-0.761985
 20
-2.93275
 30
0.000000
  70
    32
  0
VERTEX
  8
0
  5
BBF
 10
-0.762280
 20
-2.93255
 30
0.000000
  70
    32
  0
VERTEX
  8
0
  5
BC0
 10
-0.762573
 20
-2.93235
 30
0.000000
  70
    32
  0
VERTEX
  8
0
  5
BC1
 10
-0.762864
 20
-2.93214
 30
0.000000
  70
    32
  0
VERTEX
  8
0
  5
BC2
 10
-0.763152
 20
-2.93193
 30
0.000000
  70
    32
  0
VERTEX
  8
0
  5
BC3
 10
-0.763437
 20
-2.93171
 30
0.000000
  70
    32
  0
VERTEX
  8
0
  5
BC4
 10
-0.763720
 20
-2.93150
 30
0.000000
  70
    32
  0
VERTEX
  8
0
  5
BC5
 10
-0.764000
 20
-2.93128
 30
0.000000
  70
    32
  0
VERTEX
  8
0
  5
BC6
 10
-0.764278
 20
-2.93105
 30
0.000000
  70
    32
  0
VERTEX
  8
0
  5
BC7
 10
-0.764552
 20
-2.93083
 30
0.000000
  70
    32
  0
VERTEX
  8
0
  5
BC8
 10
-0.764824
 20
-2.93059
 30
0.000000
  70
    32
  0
VERTEX
  8
0
  5
BC9
 10
-0.765093
 20
-2.93036
 30
0.000000
  70
    32
  0
VERTEX
  8
0
  5
BCA
 10
-0.765359
 20
-2.93012
 30
0.000000
  70
    32
  0
VERTEX
  8
0
  5
BCB
 10
-0.765623
 20
-2.92988
 30
0.000000
  70
    32
  0
VERTEX
  8
0
  5
BCC
 10
-0.765883
 20
-2.92964
 30
0.000000
  70
    32
  0
VERTEX
  8
0
  5
BCD
 10
-0.766141
 20
-2.92940
 30
0.000000
  70
    32
  0
VERTEX
  8
0
  5
BCE
 10
-0.766395
 20
-2.92915
 30
0.000000
  70
    32
  0
VERTEX
  8
0
  5
BCF
 10
-0.766647
 20
-2.92890
 30
0.000000
  70
    32
  0
VERTEX
  8
0
  5
BD0
 10
-0.766895
 20
-2.92864
 30
0.000000
  70
    32
  0
VERTEX
  8
0
  5
BD1
 10
-0.767141
 20
-2.92838
 30
0.000000
  70
    32
  0
VERTEX
  8
0
  5
BD2
 10
-0.767384
 20
-2.92812
 30
0.000000
  70
    32
  0
VERTEX
  8
0
  5
BD3
 10
-0.767623
 20
-2.92786
 30
0.000000
  70
    32
  0
VERTEX
  8
0
  5
BD4
 10
-0.767859
 20
-2.92759
 30
0.000000
  70
    32
  0
VERTEX
  8
0
  5
BD5
 10
-0.768093
 20
-2.92732
 30
0.000000
  70
    32
  0
VERTEX
  8
0
  5
BD6
 10
-0.768323
 20
-2.92705
 30
0.000000
  70
    32
  0
VERTEX
  8
0
  5
BD7
 10
-0.768550
 20
-2.92677
 30
0.000000
  70
    32
  0
VERTEX
  8
0
  5
BD8
 10
-0.768773
 20
-2.92650
 30
0.000000
  70
    32
  0
VERTEX
  8
0
  5
BD9
 10
-0.768994
 20
-2.92622
 30
0.000000
  70
    32
  0
VERTEX
  8
0
  5
BDA
 10
-0.769211
 20
-2.92593
 30
0.000000
  70
    32
  0
VERTEX
  8
0
  5
BDB
 10
-0.769424
 20
-2.92565
 30
0.000000
  70
    32
  0
VERTEX
  8
0
  5
BDC
 10
-0.769635
 20
-2.92536
 30
0.000000
  70
    32
  0
VERTEX
  8
0
  5
BDD
 10
-0.769842
 20
-2.92507
 30
0.000000
  70
    32
  0
VERTEX
  8
0
  5
BDE
 10
-0.770045
 20
-2.92478
 30
0.000000
  70
    32
  0
VERTEX
  8
0
  5
BDF
 10
-0.770246
 20
-2.92448
 30
0.000000
  70
    32
  0
VERTEX
  8
0
  5
BE0
 10
-0.770442
 20
-2.92418
 30
0.000000
  70
    32
  0
VERTEX
  8
0
  5
BE1
 10
-0.770635
 20
-2.92388
 30
0.000000
  70
    32
  0
VERTEX
  8
0
  5
BE2
 10
-0.770825
 20
-2.92358
 30
0.000000
  70
    32
  0
VERTEX
  8
0
  5
BE3
 10
-0.771011
 20
-2.92327
 30
0.000000
  70
    32
  0
VERTEX
  8
0
  5
BE4
 10
-0.771194
 20
-2.92296
 30
0.000000
  70
    32
  0
VERTEX
  8
0
  5
BE5
 10
-0.771373
 20
-2.92265
 30
0.000000
  70
    32
  0
VERTEX
  8
0
  5
BE6
 10
-0.771548
 20
-2.92234
 30
0.000000
  70
    32
  0
VERTEX
  8
0
  5
BE7
 10
-0.771720
 20
-2.92202
 30
0.000000
  70
    32
  0
VERTEX
  8
0
  5
BE8
 10
-0.771888
 20
-2.92170
 30
0.000000
  70
    32
  0
VERTEX
  8
0
  5
BE9
 10
-0.772052
 20
-2.92138
 30
0.000000
  70
    32
  0
VERTEX
  8
0
  5
BEA
 10
-0.772213
 20
-2.92106
 30
0.000000
  70
    32
  0
VERTEX
  8
0
  5
BEB
 10
-0.772369
 20
-2.92074
 30
0.000000
  70
    32
  0
VERTEX
  8
0
  5
BEC
 10
-0.772522
 20
-2.92041
 30
0.000000
  70
    32
  0
VERTEX
  8
0
  5
BED
 10
-0.772671
 20
-2.92008
 30
0.000000
  70
    32
  0
VERTEX
  8
0
  5
BEE
 10
-0.772817
 20
-2.91975
 30
0.000000
  70
    32
  0
VERTEX
  8
0
  5
BEF
 10
-0.772958
 20
-2.91942
 30
0.000000
  70
    32
  0
VERTEX
  8
0
  5
BF0
 10
-0.773095
 20
-2.91908
 30
0.000000
  70
    32
  0
VERTEX
  8
0
  5
BF1
 10
-0.773229
 20
-2.91875
 30
0.000000
  70
    32
  0
VERTEX
  8
0
  5
BF2
 10
-0.773358
 20
-2.91841
 30
0.000000
  70
    32
  0
VERTEX
  8
0
  5
BF3
 10
-0.773484
 20
-2.91807
 30
0.000000
  70
    32
  0
VERTEX
  8
0
  5
BF4
 10
-0.773605
 20
-2.91772
 30
0.000000
  70
    32
  0
VERTEX
  8
0
  5
BF5
 10
-0.773722
 20
-2.91738
 30
0.000000
  70
    32
  0
VERTEX
  8
0
  5
BF6
 10
-0.773836
 20
-2.91703
 30
0.000000
  70
    32
  0
VERTEX
  8
0
  5
BF7
 10
-0.773945
 20
-2.91668
 30
0.000000
  70
    32
  0
VERTEX
  8
0
  5
BF8
 10
-0.774050
 20
-2.91633
 30
0.000000
  70
    32
  0
VERTEX
  8
0
  5
BF9
 10
-0.774151
 20
-2.91598
 30
0.000000
  70
    32
  0
VERTEX
  8
0
  5
BFA
 10
-0.774247
 20
-2.91563
 30
0.000000
  70
    32
  0
VERTEX
  8
0
  5
BFB
 10
-0.774339
 20
-2.91527
 30
0.000000
  70
    32
  0
VERTEX
  8
0
  5
BFC
 10
-0.774427
 20
-2.91491
 30
0.000000
  70
    32
  0
VERTEX
  8
0
  5
BFD
 10
-0.774511
 20
-2.91455
 30
0.000000
  70
    32
  0
VERTEX
  8
0
  5
BFE
 10
-0.774591
 20
-2.91419
 30
0.000000
  70
    32
  0
VERTEX
  8
0
  5
BFF
 10
-0.774666
 20
-2.91383
 30
0.000000
  70
    32
  0
VERTEX
  8
0
  5
C00
 10
-0.774736
 20
-2.91347
 30
0.000000
  70
    32
  0
VERTEX
  8
0
  5
C01
 10
-0.774803
 20
-2.91310
 30
0.000000
  70
    32
  0
VERTEX
  8
0
  5
C02
 10
-0.774864
 20
-2.91273
 30
0.000000
  70
    32
  0
VERTEX
  8
0
  5
C03
 10
-0.774922
 20
-2.91236
 30
0.000000
  70
    32
  0
VERTEX
  8
0
  5
C04
 10
-0.774975
 20
-2.91199
 30
0.000000
  70
    32
  0
VERTEX
  8
0
  5
C05
 10
-0.775023
 20
-2.91162
 30
0.000000
  70
    32
  0
VERTEX
  8
0
  5
C06
 10
-0.775067
 20
-2.91125
 30
0.000000
  70
    32
  0
VERTEX
  8
0
  5
C07
 10
-0.775106
 20
-2.91087
 30
0.000000
  70
    32
  0
VERTEX
  8
0
  5
C08
 10
-0.775140
 20
-2.91050
 30
0.000000
  70
    32
  0
VERTEX
  8
0
  5
C09
 10
-0.775170
 20
-2.91012
 30
0.000000
  70
    32
  0
VERTEX
  8
0
  5
C0A
 10
-0.775196
 20
-2.90974
 30
0.000000
  70
    32
  0
VERTEX
  8
0
  5
C0B
 10
-0.775216
 20
-2.90936
 30
0.000000
  70
    32
  0
VERTEX
  8
0
  5
C0C
 10
-0.775232
 20
-2.90898
 30
0.000000
  70
    32
  0
VERTEX
  8
0
  5
C0D
 10
-0.775243
 20
-2.90860
 30
0.000000
  70
    32
  0
SEQEND
  8
0
  5
C0E
  0
POLYLINE
  8
0
  5
C0F
  66
     1
 10
0.000000
 20
0.000000
 30
0.000000
  70
     8
  0
VERTEX
  8
0
  5
C10
 10
-0.709657
 20
-2.93778
 30
0.000000
  70
    32
  0
VERTEX
  8
0
  5
C11
 10
-0.709237
 20
-2.93779
 30
0.000000
  70
    32
  0
VERTEX
  8
0
  5
C12
 10
-0.708818
 20
-2.93779
 30
0.000000
  70
    32
  0
VERTEX
  8
0
  5
C13
 10
-0.708400
 20
-2.93780
 30
0.000000
  70
    32
  0
VERTEX
  8
0
  5
C14
 10
-0.707982
 20
-2.93782
 30
0.000000
  70
    32
  0
VERTEX
  8
0
  5
C15
 10
-0.707566
 20
-2.93784
 30
0.000000
  70
    32
  0
VERTEX
  8
0
  5
C16
 10
-0.707151
 20
-2.93786
 30
0.000000
  70
    32
  0
VERTEX
  8
0
  5
C17
 10
-0.706737
 20
-2.93789
 30
0.000000
  70
    32
  0
VERTEX
  8
0
  5
C18
 10
-0.706325
 20
-2.93792
 30
0.000000
  70
    32
  0
VERTEX
  8
0
  5
C19
 10
-0.705913
 20
-2.93796
 30
0.000000
  70
    32
  0
VERTEX
  8
0
  5
C1A
 10
-0.705503
 20
-2.93800
 30
0.000000
  70
    32
  0
VERTEX
  8
0
  5
C1B
 10
-0.705094
 20
-2.93805
 30
0.000000
  70
    32
  0
VERTEX
  8
0
  5
C1C
 10
-0.704686
 20
-2.93810
 30
0.000000
  70
    32
  0
VERTEX
  8
0
  5
C1D
 10
-0.704279
 20
-2.93815
 30
0.000000
  70
    32
  0
VERTEX
  8
0
  5
C1E
 10
-0.703873
 20
-2.93821
 30
0.000000
  70
    32
  0
VERTEX
  8
0
  5
C1F
 10
-0.703469
 20
-2.93827
 30
0.000000
  70
    32
  0
VERTEX
  8
0
  5
C20
 10
-0.703066
 20
-2.93833
 30
0.000000
  70
    32
  0
VERTEX
  8
0
  5
C21
 10
-0.702665
 20
-2.93840
 30
0.000000
  70
    32
  0
VERTEX
  8
0
  5
C22
 10
-0.702265
 20
-2.93848
 30
0.000000
  70
    32
  0
VERTEX
  8
0
  5
C23
 10
-0.701866
 20
-2.93856
 30
0.000000
  70
    32
  0
VERTEX
  8
0
  5
C24
 10
-0.701469
 20
-2.93864
 30
0.000000
  70
    32
  0
VERTEX
  8
0
  5
C25
 10
-0.701073
 20
-2.93872
 30
0.000000
  70
    32
  0
VERTEX
  8
0
  5
C26
 10
-0.700678
 20
-2.93881
 30
0.000000
  70
    32
  0
VERTEX
  8
0
  5
C27
 10
-0.700286
 20
-2.93891
 30
0.000000
  70
    32
  0
VERTEX
  8
0
  5
C28
 10
-0.699894
 20
-2.93901
 30
0.000000
  70
    32
  0
VERTEX
  8
0
  5
C29
 10
-0.699504
 20
-2.93911
 30
0.000000
  70
    32
  0
VERTEX
  8
0
  5
C2A
 10
-0.699116
 20
-2.93921
 30
0.000000
  70
    32
  0
VERTEX
  8
0
  5
C2B
 10
-0.698729
 20
-2.93932
 30
0.000000
  70
    32
  0
VERTEX
  8
0
  5
C2C
 10
-0.698344
 20
-2.93944
 30
0.000000
  70
    32
  0
VERTEX
  8
0
  5
C2D
 10
-0.697960
 20
-2.93955
 30
0.000000
  70
    32
  0
VERTEX
  8
0
  5
C2E
 10
-0.697578
 20
-2.93967
 30
0.000000
  70
    32
  0
VERTEX
  8
0
  5
C2F
 10
-0.697198
 20
-2.93980
 30
0.000000
  70
    32
  0
VERTEX
  8
0
  5
C30
 10
-0.696819
 20
-2.93993
 30
0.000000
  70
    32
  0
VERTEX
  8
0
  5
C31
 10
-0.696442
 20
-2.94006
 30
0.000000
  70
    32
  0
VERTEX
  8
0
  5
C32
 10
-0.696067
 20
-2.94019
 30
0.000000
  70
    32
  0
VERTEX
  8
0
  5
C33
 10
-0.695693
 20
-2.94033
 30
0.000000
  70
    32
  0
VERTEX
  8
0
  5
C34
 10
-0.695321
 20
-2.94048
 30
0.000000
  70
    32
  0
VERTEX
  8
0
  5
C35
 10
-0.694951
 20
-2.94062
 30
0.000000
  70
    32
  0
VERTEX
  8
0
  5
C36
 10
-0.694583
 20
-2.94077
 30
0.000000
  70
    32
  0
VERTEX
  8
0
  5
C37
 10
-0.694217
 20
-2.94093
 30
0.000000
  70
    32
  0
VERTEX
  8
0
  5
C38
 10
-0.693852
 20
-2.94109
 30
0.000000
  70
    32
  0
VERTEX
  8
0
  5
C39
 10
-0.693489
 20
-2.94125
 30
0.000000
  70
    32
  0
VERTEX
  8
0
  5
C3A
 10
-0.693129
 20
-2.94141
 30
0.000000
  70
    32
  0
VERTEX
  8
0
  5
C3B
 10
-0.692770
 20
-2.94158
 30
0.000000
  70
    32
  0
VERTEX
  8
0
  5
C3C
 10
-0.692413
 20
-2.94175
 30
0.000000
  70
    32
  0
VERTEX
  8
0
  5
C3D
 10
-0.692058
 20
-2.94193
 30
0.000000
  70
    32
  0
VERTEX
  8
0
  5
C3E
 10
-0.691705
 20
-2.94210
 30
0.000000
  70
    32
  0
VERTEX
  8
0
  5
C3F
 10
-0.691354
 20
-2.94229
 30
0.000000
  70
    32
  0
VERTEX
  8
0
  5
C40
 10
-0.691005
 20
-2.94247
 30
0.000000
  70
    32
  0
VERTEX
  8
0
  5
C41
 10
-0.690659
 20
-2.94266
 30
0.000000
  70
    32
  0
VERTEX
  8
0
  5
C42
 10
-0.690314
 20
-2.94285
 30
0.000000
  70
    32
  0
VERTEX
  8
0
  5
C43
 10
-0.689971
 20
-2.94305
 30
0.000000
  70
    32
  0
VERTEX
  8
0
  5
C44
 10
-0.689631
 20
-2.94325
 30
0.000000
  70
    32
  0
VERTEX
  8
0
  5
C45
 10
-0.689292
 20
-2.94345
 30
0.000000
  70
    32
  0
VERTEX
  8
0
  5
C46
 10
-0.688956
 20
-2.94365
 30
0.000000
  70
    32
  0
VERTEX
  8
0
  5
C47
 10
-0.688622
 20
-2.94386
 30
0.000000
  70
    32
  0
VERTEX
  8
0
  5
C48
 10
-0.688290
 20
-2.94407
 30
0.000000
  70
    32
  0
VERTEX
  8
0
  5
C49
 10
-0.687960
 20
-2.94429
 30
0.000000
  70
    32
  0
VERTEX
  8
0
  5
C4A
 10
-0.687633
 20
-2.94451
 30
0.000000
  70
    32
  0
VERTEX
  8
0
  5
C4B
 10
-0.687308
 20
-2.94473
 30
0.000000
  70
    32
  0
VERTEX
  8
0
  5
C4C
 10
-0.686985
 20
-2.94495
 30
0.000000
  70
    32
  0
VERTEX
  8
0
  5
C4D
 10
-0.686664
 20
-2.94518
 30
0.000000
  70
    32
  0
VERTEX
  8
0
  5
C4E
 10
-0.686346
 20
-2.94541
 30
0.000000
  70
    32
  0
VERTEX
  8
0
  5
C4F
 10
-0.686030
 20
-2.94564
 30
0.000000
  70
    32
  0
VERTEX
  8
0
  5
C50
 10
-0.685717
 20
-2.94588
 30
0.000000
  70
    32
  0
VERTEX
  8
0
  5
C51
 10
-0.685406
 20
-2.94612
 30
0.000000
  70
    32
  0
VERTEX
  8
0
  5
C52
 10
-0.685097
 20
-2.94636
 30
0.000000
  70
    32
  0
VERTEX
  8
0
  5
C53
 10
-0.684791
 20
-2.94661
 30
0.000000
  70
    32
  0
VERTEX
  8
0
  5
C54
 10
-0.684488
 20
-2.94685
 30
0.000000
  70
    32
  0
VERTEX
  8
0
  5
C55
 10
-0.684187
 20
-2.94711
 30
0.000000
  70
    32
  0
VERTEX
  8
0
  5
C56
 10
-0.683888
 20
-2.94736
 30
0.000000
  70
    32
  0
VERTEX
  8
0
  5
C57
 10
-0.683592
 20
-2.94762
 30
0.000000
  70
    32
  0
VERTEX
  8
0
  5
C58
 10
-0.683298
 20
-2.94788
 30
0.000000
  70
    32
  0
VERTEX
  8
0
  5
C59
 10
-0.683007
 20
-2.94814
 30
0.000000
  70
    32
  0
VERTEX
  8
0
  5
C5A
 10
-0.682719
 20
-2.94841
 30
0.000000
  70
    32
  0
VERTEX
  8
0
  5
C5B
 10
-0.682433
 20
-2.94867
 30
0.000000
  70
    32
  0
VERTEX
  8
0
  5
C5C
 10
-0.682150
 20
-2.94895
 30
0.000000
  70
    32
  0
VERTEX
  8
0
  5
C5D
 10
-0.681870
 20
-2.94922
 30
0.000000
  70
    32
  0
VERTEX
  8
0
  5
C5E
 10
-0.681592
 20
-2.94950
 30
0.000000
  70
    32
  0
VERTEX
  8
0
  5
C5F
 10
-0.681317
 20
-2.94978
 30
0.000000
  70
    32
  0
VERTEX
  8
0
  5
C60
 10
-0.681045
 20
-2.95006
 30
0.000000
  70
    32
  0
VERTEX
  8
0
  5
C61
 10
-0.680775
 20
-2.95034
 30
0.000000
  70
    32
  0
VERTEX
  8
0
  5
C62
 10
-0.680509
 20
-2.95063
 30
0.000000
  70
    32
  0
VERTEX
  8
0
  5
C63
 10
-0.680245
 20
-2.95092
 30
0.000000
  70
    32
  0
VERTEX
  8
0
  5
C64
 10
-0.679984
 20
-2.95121
 30
0.000000
  70
    32
  0
VERTEX
  8
0
  5
C65
 10
-0.679726
 20
-2.95151
 30
0.000000
  70
    32
  0
VERTEX
  8
0
  5
C66
 10
-0.679470
 20
-2.95181
 30
0.000000
  70
    32
  0
VERTEX
  8
0
  5
C67
 10
-0.679218
 20
-2.95211
 30
0.000000
  70
    32
  0
VERTEX
  8
0
  5
C68
 10
-0.678968
 20
-2.95241
 30
0.000000
  70
    32
  0
VERTEX
  8
0
  5
C69
 10
-0.678722
 20
-2.95272
 30
0.000000
  70
    32
  0
VERTEX
  8
0
  5
C6A
 10
-0.678478
 20
-2.95303
 30
0.000000
  70
    32
  0
VERTEX
  8
0
  5
C6B
 10
-0.678237
 20
-2.95334
 30
0.000000
  70
    32
  0
VERTEX
  8
0
  5
C6C
 10
-0.678000
 20
-2.95365
 30
0.000000
  70
    32
  0
VERTEX
  8
0
  5
C6D
 10
-0.677765
 20
-2.95396
 30
0.000000
  70
    32
  0
VERTEX
  8
0
  5
C6E
 10
-0.677534
 20
-2.95428
 30
0.000000
  70
    32
  0
VERTEX
  8
0
  5
C6F
 10
-0.677305
 20
-2.95460
 30
0.000000
  70
    32
  0
VERTEX
  8
0
  5
C70
 10
-0.677080
 20
-2.95492
 30
0.000000
  70
    32
  0
VERTEX
  8
0
  5
C71
 10
-0.676858
 20
-2.95525
 30
0.000000
  70
    32
  0
VERTEX
  8
0
  5
C72
 10
-0.676638
 20
-2.95558
 30
0.000000
  70
    32
  0
VERTEX
  8
0
  5
C73
 10
-0.676422
 20
-2.95591
 30
0.000000
  70
    32
  0
VERTEX
  8
0
  5
C74
 10
-0.676210
 20
-2.95624
 30
0.000000
  70
    32
  0
VERTEX
  8
0
  5
C75
 10
-0.676000
 20
-2.95657
 30
0.000000
  70
    32
  0
VERTEX
  8
0
  5
C76
 10
-0.675794
 20
-2.95691
 30
0.000000
  70
    32
  0
VERTEX
  8
0
  5
C77
 10
-0.675591
 20
-2.95725
 30
0.000000
  70
    32
  0
VERTEX
  8
0
  5
C78
 10
-0.675391
 20
-2.95759
 30
0.000000
  70
    32
  0
VERTEX
  8
0
  5
C79
 10
-0.675194
 20
-2.95793
 30
0.000000
  70
    32
  0
VERTEX
  8
0
  5
C7A
 10
-0.675001
 20
-2.95827
 30
0.000000
  70
    32
  0
VERTEX
  8
0
  5
C7B
 10
-0.674811
 20
-2.95862
 30
0.000000
  70
    32
  0
VERTEX
  8
0
  5
C7C
 10
-0.674625
 20
-2.95897
 30
0.000000
  70
    32
  0
VERTEX
  8
0
  5
C7D
 10
-0.674442
 20
-2.95932
 30
0.000000
  70
    32
  0
VERTEX
  8
0
  5
C7E
 10
-0.674262
 20
-2.95967
 30
0.000000
  70
    32
  0
VERTEX
  8
0
  5
C7F
 10
-0.674086
 20
-2.96003
 30
0.000000
  70
    32
  0
VERTEX
  8
0
  5
C80
 10
-0.673913
 20
-2.96038
 30
0.000000
  70
    32
  0
VERTEX
  8
0
  5
C81
 10
-0.673743
 20
-2.96074
 30
0.000000
  70
    32
  0
VERTEX
  8
0
  5
C82
 10
-0.673577
 20
-2.96110
 30
0.000000
  70
    32
  0
VERTEX
  8
0
  5
C83
 10
-0.673415
 20
-2.96147
 30
0.000000
  70
    32
  0
VERTEX
  8
0
  5
C84
 10
-0.673256
 20
-2.96183
 30
0.000000
  70
    32
  0
VERTEX
  8
0
  5
C85
 10
-0.673101
 20
-2.96220
 30
0.000000
  70
    32
  0
VERTEX
  8
0
  5
C86
 10
-0.672949
 20
-2.96257
 30
0.000000
  70
    32
  0
VERTEX
  8
0
  5
C87
 10
-0.672801
 20
-2.96294
 30
0.000000
  70
    32
  0
VERTEX
  8
0
  5
C88
 10
-0.672657
 20
-2.96331
 30
0.000000
  70
    32
  0
VERTEX
  8
0
  5
C89
 10
-0.672516
 20
-2.96368
 30
0.000000
  70
    32
  0
VERTEX
  8
0
  5
C8A
 10
-0.672379
 20
-2.96406
 30
0.000000
  70
    32
  0
VERTEX
  8
0
  5
C8B
 10
-0.672246
 20
-2.96444
 30
0.000000
  70
    32
  0
VERTEX
  8
0
  5
C8C
 10
-0.672116
 20
-2.96482
 30
0.000000
  70
    32
  0
VERTEX
  8
0
  5
C8D
 10
-0.671990
 20
-2.96520
 30
0.000000
  70
    32
  0
VERTEX
  8
0
  5
C8E
 10
-0.671868
 20
-2.96558
 30
0.000000
  70
    32
  0
VERTEX
  8
0
  5
C8F
 10
-0.671749
 20
-2.96596
 30
0.000000
  70
    32
  0
SEQEND
  8
0
  5
C90
  0
POLYLINE
  8
0
  5
C91
  66
     1
 10
0.000000
 20
0.000000
 30
0.000000
  70
     8
  0
VERTEX
  8
0
  5
C92
 10
-1.04434
 20
-0.974557
 30
0.000000
  70
    32
  0
VERTEX
  8
0
  5
C93
 10
-1.04435
 20
-0.974333
 30
0.000000
  70
    32
  0
VERTEX
  8
0
  5
C94
 10
-1.04435
 20
-0.974108
 30
0.000000
  70
    32
  0
VERTEX
  8
0
  5
C95
 10
-1.04436
 20
-0.973883
 30
0.000000
  70
    32
  0
VERTEX
  8
0
  5
C96
 10
-1.04436
 20
-0.973659
 30
0.000000
  70
    32
  0
VERTEX
  8
0
  5
C97
 10
-1.04437
 20
-0.973434
 30
0.000000
  70
    32
  0
VERTEX
  8
0
  5
C98
 10
-1.04437
 20
-0.973210
 30
0.000000
  70
    32
  0
VERTEX
  8
0
  5
C99
 10
-1.04437
 20
-0.972985
 30
0.000000
  70
    32
  0
VERTEX
  8
0
  5
C9A
 10
-1.04438
 20
-0.972761
 30
0.000000
  70
    32
  0
VERTEX
  8
0
  5
C9B
 10
-1.04438
 20
-0.972536
 30
0.000000
  70
    32
  0
VERTEX
  8
0
  5
C9C
 10
-1.04439
 20
-0.972312
 30
0.000000
  70
    32
  0
VERTEX
  8
0
  5
C9D
 10
-1.04439
 20
-0.972087
 30
0.000000
  70
    32
  0
VERTEX
  8
0
  5
C9E
 10
-1.04439
 20
-0.971863
 30
0.000000
  70
    32
  0
VERTEX
  8
0
  5
C9F
 10
-1.04440
 20
-0.971638
 30
0.000000
  70
    32
  0
VERTEX
  8
0
  5
CA0
 10
-1.04440
 20
-0.971414
 30
0.000000
  70
    32
  0
VERTEX
  8
0
  5
CA1
 10
-1.04440
 20
-0.971190
 30
0.000000
  70
    32
  0
VERTEX
  8
0
  5
CA2
 10
-1.04441
 20
-0.970965
 30
0.000000
  70
    32
  0
VERTEX
  8
0
  5
CA3
 10
-1.04441
 20
-0.970741
 30
0.000000
  70
    32
  0
VERTEX
  8
0
  5
CA4
 10
-1.04441
 20
-0.970517
 30
0.000000
  70
    32
  0
VERTEX
  8
0
  5
CA5
 10
-1.04441
 20
-0.970292
 30
0.000000
  70
    32
  0
VERTEX
  8
0
  5
CA6
 10
-1.04442
 20
-0.970068
 30
0.000000
  70
    32
  0
VERTEX
  8
0
  5
CA7
 10
-1.04442
 20
-0.969844
 30
0.000000
  70
    32
  0
VERTEX
  8
0
  5
CA8
 10
-1.04442
 20
-0.969619
 30
0.000000
  70
    32
  0
VERTEX
  8
0
  5
CA9
 10
-1.04442
 20
-0.969395
 30
0.000000
  70
    32
  0
VERTEX
  8
0
  5
CAA
 10
-1.04443
 20
-0.969171
 30
0.000000
  70
    32
  0
VERTEX
  8
0
  5
CAB
 10
-1.04443
 20
-0.968947
 30
0.000000
  70
    32
  0
VERTEX
  8
0
  5
CAC
 10
-1.04443
 20
-0.968723
 30
0.000000
  70
    32
  0
VERTEX
  8
0
  5
CAD
 10
-1.04443
 20
-0.968498
 30
0.000000
  70
    32
  0
VERTEX
  8
0
  5
CAE
 10
-1.04443
 20
-0.968274
 30
0.000000
  70
    32
  0
VERTEX
  8
0
  5
CAF
 10
-1.04444
 20
-0.968050
 30
0.000000
  70
    32
  0
VERTEX
  8
0
  5
CB0
 10
-1.04444
 20
-0.967826
 30
0.000000
  70
    32
  0
VERTEX
  8
0
  5
CB1
 10
-1.04444
 20
-0.967602
 30
0.000000
  70
    32
  0
VERTEX
  8
0
  5
CB2
 10
-1.04444
 20
-0.967378
 30
0.000000
  70
    32
  0
VERTEX
  8
0
  5
CB3
 10
-1.04444
 20
-0.967154
 30
0.000000
  70
    32
  0
VERTEX
  8
0
  5
CB4
 10
-1.04444
 20
-0.966929
 30
0.000000
  70
    32
  0
VERTEX
  8
0
  5
CB5
 10
-1.04445
 20
-0.966705
 30
0.000000
  70
    32
  0
VERTEX
  8
0
  5
CB6
 10
-1.04445
 20
-0.966481
 30
0.000000
  70
    32
  0
VERTEX
  8
0
  5
CB7
 10
-1.04445
 20
-0.966257
 30
0.000000
  70
    32
  0
VERTEX
  8
0
  5
CB8
 10
-1.04445
 20
-0.966033
 30
0.000000
  70
    32
  0
VERTEX
  8
0
  5
CB9
 10
-1.04445
 20
-0.965809
 30
0.000000
  70
    32
  0
VERTEX
  8
0
  5
CBA
 10
-1.04445
 20
-0.965585
 30
0.000000
  70
    32
  0
VERTEX
  8
0
  5
CBB
 10
-1.04445
 20
-0.965361
 30
0.000000
  70
    32
  0
VERTEX
  8
0
  5
CBC
 10
-1.04445
 20
-0.965137
 30
0.000000
  70
    32
  0
VERTEX
  8
0
  5
CBD
 10
-1.04445
 20
-0.964913
 30
0.000000
  70
    32
  0
VERTEX
  8
0
  5
CBE
 10
-1.04445
 20
-0.964689
 30
0.000000
  70
    32
  0
VERTEX
  8
0
  5
CBF
 10
-1.04445
 20
-0.964466
 30
0.000000
  70
    32
  0
VERTEX
  8
0
  5
CC0
 10
-1.04445
 20
-0.964242
 30
0.000000
  70
    32
  0
VERTEX
  8
0
  5
CC1
 10
-1.04445
 20
-0.964018
 30
0.000000
  70
    32
  0
VERTEX
  8
0
  5
CC2
 10
-1.04445
 20
-0.963794
 30
0.000000
  70
    32
  0
VERTEX
  8
0
  5
CC3
 10
-1.04445
 20
-0.963570
 30
0.000000
  70
    32
  0
VERTEX
  8
0
  5
CC4
 10
-1.04445
 20
-0.963346
 30
0.000000
  70
    32
  0
VERTEX
  8
0
  5
CC5
 10
-1.04445
 20
-0.963122
 30
0.000000
  70
    32
  0
VERTEX
  8
0
  5
CC6
 10
-1.04445
 20
-0.962898
 30
0.000000
  70
    32
  0
VERTEX
  8
0
  5
CC7
 10
-1.04445
 20
-0.962675
 30
0.000000
  70
    32
  0
VERTEX
  8
0
  5
CC8
 10
-1.04445
 20
-0.962451
 30
0.000000
  70
    32
  0
VERTEX
  8
0
  5
CC9
 10
-1.04445
 20
-0.962227
 30
0.000000
  70
    32
  0
VERTEX
  8
0
  5
CCA
 10
-1.04445
 20
-0.962003
 30
0.000000
  70
    32
  0
VERTEX
  8
0
  5
CCB
 10
-1.04445
 20
-0.961779
 30
0.000000
  70
    32
  0
VERTEX
  8
0
  5
CCC
 10
-1.04445
 20
-0.961556
 30
0.000000
  70
    32
  0
VERTEX
  8
0
  5
CCD
 10
-1.04445
 20
-0.961332
 30
0.000000
  70
    32
  0
VERTEX
  8
0
  5
CCE
 10
-1.04444
 20
-0.961108
 30
0.000000
  70
    32
  0
VERTEX
  8
0
  5
CCF
 10
-1.04444
 20
-0.960884
 30
0.000000
  70
    32
  0
VERTEX
  8
0
  5
CD0
 10
-1.04444
 20
-0.960661
 30
0.000000
  70
    32
  0
VERTEX
  8
0
  5
CD1
 10
-1.04444
 20
-0.960437
 30
0.000000
  70
    32
  0
VERTEX
  8
0
  5
CD2
 10
-1.04444
 20
-0.960213
 30
0.000000
  70
    32
  0
VERTEX
  8
0
  5
CD3
 10
-1.04444
 20
-0.959989
 30
0.000000
  70
    32
  0
VERTEX
  8
0
  5
CD4
 10
-1.04443
 20
-0.959766
 30
0.000000
  70
    32
  0
VERTEX
  8
0
  5
CD5
 10
-1.04443
 20
-0.959542
 30
0.000000
  70
    32
  0
VERTEX
  8
0
  5
CD6
 10
-1.04443
 20
-0.959318
 30
0.000000
  70
    32
  0
VERTEX
  8
0
  5
CD7
 10
-1.04443
 20
-0.959095
 30
0.000000
  70
    32
  0
VERTEX
  8
0
  5
CD8
 10
-1.04443
 20
-0.958871
 30
0.000000
  70
    32
  0
VERTEX
  8
0
  5
CD9
 10
-1.04442
 20
-0.958647
 30
0.000000
  70
    32
  0
VERTEX
  8
0
  5
CDA
 10
-1.04442
 20
-0.958424
 30
0.000000
  70
    32
  0
VERTEX
  8
0
  5
CDB
 10
-1.04442
 20
-0.958200
 30
0.000000
  70
    32
  0
VERTEX
  8
0
  5
CDC
 10
-1.04442
 20
-0.957977
 30
0.000000
  70
    32
  0
VERTEX
  8
0
  5
CDD
 10
-1.04441
 20
-0.957753
 30
0.000000
  70
    32
  0
VERTEX
  8
0
  5
CDE
 10
-1.04441
 20
-0.957529
 30
0.000000
  70
    32
  0
VERTEX
  8
0
  5
CDF
 10
-1.04441
 20
-0.957306
 30
0.000000
  70
    32
  0
VERTEX
  8
0
  5
CE0
 10
-1.04440
 20
-0.957082
 30
0.000000
  70
    32
  0
VERTEX
  8
0
  5
CE1
 10
-1.04440
 20
-0.956859
 30
0.000000
  70
    32
  0
VERTEX
  8
0
  5
CE2
 10
-1.04440
 20
-0.956635
 30
0.000000
  70
    32
  0
VERTEX
  8
0
  5
CE3
 10
-1.04439
 20
-0.956412
 30
0.000000
  70
    32
  0
VERTEX
  8
0
  5
CE4
 10
-1.04439
 20
-0.956188
 30
0.000000
  70
    32
  0
VERTEX
  8
0
  5
CE5
 10
-1.04439
 20
-0.955964
 30
0.000000
  70
    32
  0
VERTEX
  8
0
  5
CE6
 10
-1.04438
 20
-0.955741
 30
0.000000
  70
    32
  0
VERTEX
  8
0
  5
CE7
 10
-1.04438
 20
-0.955517
 30
0.000000
  70
    32
  0
VERTEX
  8
0
  5
CE8
 10
-1.04438
 20
-0.955294
 30
0.000000
  70
    32
  0
VERTEX
  8
0
  5
CE9
 10
-1.04437
 20
-0.955070
 30
0.000000
  70
    32
  0
VERTEX
  8
0
  5
CEA
 10
-1.04437
 20
-0.954847
 30
0.000000
  70
    32
  0
VERTEX
  8
0
  5
CEB
 10
-1.04436
 20
-0.954623
 30
0.000000
  70
    32
  0
VERTEX
  8
0
  5
CEC
 10
-1.04436
 20
-0.954400
 30
0.000000
  70
    32
  0
VERTEX
  8
0
  5
CED
 10
-1.04436
 20
-0.954176
 30
0.000000
  70
    32
  0
VERTEX
  8
0
  5
CEE
 10
-1.04435
 20
-0.953953
 30
0.000000
  70
    32
  0
VERTEX
  8
0
  5
CEF
 10
-1.04435
 20
-0.953729
 30
0.000000
  70
    32
  0
VERTEX
  8
0
  5
CF0
 10
-1.04434
 20
-0.953506
 30
0.000000
  70
    32
  0
VERTEX
  8
0
  5
CF1
 10
-1.04434
 20
-0.953282
 30
0.000000
  70
    32
  0
VERTEX
  8
0
  5
CF2
 10
-1.04433
 20
-0.953059
 30
0.000000
  70
    32
  0
VERTEX
  8
0
  5
CF3
 10
-1.04433
 20
-0.952836
 30
0.000000
  70
    32
  0
VERTEX
  8
0
  5
CF4
 10
-1.04432
 20
-0.952612
 30
0.000000
  70
    32
  0
VERTEX
  8
0
  5
CF5
 10
-1.04432
 20
-0.952389
 30
0.000000
  70
    32
  0
VERTEX
  8
0
  5
CF6
 10
-1.04431
 20
-0.952165
 30
0.000000
  70
    32
  0
VERTEX
  8
0
  5
CF7
 10
-1.04431
 20
-0.951942
 30
0.000000
  70
    32
  0
VERTEX
  8
0
  5
CF8
 10
-1.04430
 20
-0.951718
 30
0.000000
  70
    32
  0
VERTEX
  8
0
  5
CF9
 10
-1.04430
 20
-0.951495
 30
0.000000
  70
    32
  0
VERTEX
  8
0
  5
CFA
 10
-1.04429
 20
-0.951272
 30
0.000000
  70
    32
  0
VERTEX
  8
0
  5
CFB
 10
-1.04428
 20
-0.951048
 30
0.000000
  70
    32
  0
VERTEX
  8
0
  5
CFC
 10
-1.04428
 20
-0.950825
 30
0.000000
  70
    32
  0
VERTEX
  8
0
  5
CFD
 10
-1.04427
 20
-0.950601
 30
0.000000
  70
    32
  0
VERTEX
  8
0
  5
CFE
 10
-1.04427
 20
-0.950378
 30
0.000000
  70
    32
  0
VERTEX
  8
0
  5
CFF
 10
-1.04426
 20
-0.950155
 30
0.000000
  70
    32
  0
VERTEX
  8
0
  5
D00
 10
-1.04425
 20
-0.949931
 30
0.000000
  70
    32
  0
VERTEX
  8
0
  5
D01
 10
-1.04425
 20
-0.949708
 30
0.000000
  70
    32
  0
VERTEX
  8
0
  5
D02
 10
-1.04424
 20
-0.949484
 30
0.000000
  70
    32
  0
VERTEX
  8
0
  5
D03
 10
-1.04423
 20
-0.949261
 30
0.000000
  70
    32
  0
VERTEX
  8
0
  5
D04
 10
-1.04423
 20
-0.949038
 30
0.000000
  70
    32
  0
VERTEX
  8
0
  5
D05
 10
-1.04422
 20
-0.948814
 30
0.000000
  70
    32
  0
VERTEX
  8
0
  5
D06
 10
-1.04421
 20
-0.948591
 30
0.000000
  70
    32
  0
VERTEX
  8
0
  5
D07
 10
-1.04421
 20
-0.948368
 30
0.000000
  70
    32
  0
VERTEX
  8
0
  5
D08
 10
-1.04420
 20
-0.948144
 30
0.000000
  70
    32
  0
VERTEX
  8
0
  5
D09
 10
-1.04419
 20
-0.947921
 30
0.000000
  70
    32
  0
VERTEX
  8
0
  5
D0A
 10
-1.04418
 20
-0.947698
 30
0.000000
  70
    32
  0
VERTEX
  8
0
  5
D0B
 10
-1.04418
 20
-0.947474
 30
0.000000
  70
    32
  0
VERTEX
  8
0
  5
D0C
 10
-1.04417
 20
-0.947251
 30
0.000000
  70
    32
  0
VERTEX
  8
0
  5
D0D
 10
-1.04416
 20
-0.947028
 30
0.000000
  70
    32
  0
VERTEX
  8
0
  5
D0E
 10
-1.04415
 20
-0.946804
 30
0.000000
  70
    32
  0
VERTEX
  8
0
  5
D0F
 10
-1.04415
 20
-0.946581
 30
0.000000
  70
    32
  0
VERTEX
  8
0
  5
D10
 10
-1.04414
 20
-0.946357
 30
0.000000
  70
    32
  0
VERTEX
  8
0
  5
D11
 10
-1.04413
 20
-0.946134
 30
0.000000
  70
    32
  0
SEQEND
  8
0
  5
D12
  0
POLYLINE
  8
0
  5
D13
  66
     1
 10
0.000000
 20
0.000000
 30
0.000000
  70
     8
  0
VERTEX
  8
0
  5
D14
 10
-1.11066
 20
-0.943774
 30
0.000000
  70
    32
  0
VERTEX
  8
0
  5
D15
 10
-1.12686
 20
-0.942926
 30
0.000000
  70
    32
  0
VERTEX
  8
0
  5
D16
 10
-1.14307
 20
-0.942066
 30
0.000000
  70
    32
  0
VERTEX
  8
0
  5
D17
 10
-1.15929
 20
-0.941194
 30
0.000000
  70
    32
  0
VERTEX
  8
0
  5
D18
 10
-1.17551
 20
-0.940310
 30
0.000000
  70
    32
  0
VERTEX
  8
0
  5
D19
 10
-1.19174
 20
-0.939414
 30
0.000000
  70
    32
  0
VERTEX
  8
0
  5
D1A
 10
-1.20797
 20
-0.938505
 30
0.000000
  70
    32
  0
VERTEX
  8
0
  5
D1B
 10
-1.22421
 20
-0.937584
 30
0.000000
  70
    32
  0
VERTEX
  8
0
  5
D1C
 10
-1.24046
 20
-0.936651
 30
0.000000
  70
    32
  0
VERTEX
  8
0
  5
D1D
 10
-1.25671
 20
-0.935706
 30
0.000000
  70
    32
  0
VERTEX
  8
0
  5
D1E
 10
-1.27296
 20
-0.934748
 30
0.000000
  70
    32
  0
VERTEX
  8
0
  5
D1F
 10
-1.28922
 20
-0.933778
 30
0.000000
  70
    32
  0
VERTEX
  8
0
  5
D20
 10
-1.30549
 20
-0.932797
 30
0.000000
  70
    32
  0
VERTEX
  8
0
  5
D21
 10
-1.32176
 20
-0.931802
 30
0.000000
  70
    32
  0
VERTEX
  8
0
  5
D22
 10
-1.33804
 20
-0.930796
 30
0.000000
  70
    32
  0
VERTEX
  8
0
  5
D23
 10
-1.35432
 20
-0.929778
 30
0.000000
  70
    32
  0
VERTEX
  8
0
  5
D24
 10
-1.37060
 20
-0.928747
 30
0.000000
  70
    32
  0
VERTEX
  8
0
  5
D25
 10
-1.38689
 20
-0.927704
 30
0.000000
  70
    32
  0
VERTEX
  8
0
  5
D26
 10
-1.40318
 20
-0.926649
 30
0.000000
  70
    32
  0
VERTEX
  8
0
  5
D27
 10
-1.41948
 20
-0.925582
 30
0.000000
  70
    32
  0
VERTEX
  8
0
  5
D28
 10
-1.43578
 20
-0.924502
 30
0.000000
  70
    32
  0
VERTEX
  8
0
  5
D29
 10
-1.45209
 20
-0.923410
 30
0.000000
  70
    32
  0
VERTEX
  8
0
  5
D2A
 10
-1.46840
 20
-0.922307
 30
0.000000
  70
    32
  0
VERTEX
  8
0
  5
D2B
 10
-1.48471
 20
-0.921191
 30
0.000000
  70
    32
  0
VERTEX
  8
0
  5
D2C
 10
-1.50103
 20
-0.920062
 30
0.000000
  70
    32
  0
VERTEX
  8
0
  5
D2D
 10
-1.51735
 20
-0.918922
 30
0.000000
  70
    32
  0
VERTEX
  8
0
  5
D2E
 10
-1.53367
 20
-0.917769
 30
0.000000
  70
    32
  0
VERTEX
  8
0
  5
D2F
 10
-1.55000
 20
-0.916605
 30
0.000000
  70
    32
  0
VERTEX
  8
0
  5
D30
 10
-1.56633
 20
-0.915428
 30
0.000000
  70
    32
  0
VERTEX
  8
0
  5
D31
 10
-1.58266
 20
-0.914238
 30
0.000000
  70
    32
  0
VERTEX
  8
0
  5
D32
 10
-1.59900
 20
-0.913037
 30
0.000000
  70
    32
  0
VERTEX
  8
0
  5
D33
 10
-1.61534
 20
-0.911824
 30
0.000000
  70
    32
  0
VERTEX
  8
0
  5
D34
 10
-1.63168
 20
-0.910598
 30
0.000000
  70
    32
  0
VERTEX
  8
0
  5
D35
 10
-1.64802
 20
-0.909360
 30
0.000000
  70
    32
  0
VERTEX
  8
0
  5
D36
 10
-1.66437
 20
-0.908110
 30
0.000000
  70
    32
  0
VERTEX
  8
0
  5
D37
 10
-1.68072
 20
-0.906848
 30
0.000000
  70
    32
  0
VERTEX
  8
0
  5
D38
 10
-1.69707
 20
-0.905574
 30
0.000000
  70
    32
  0
VERTEX
  8
0
  5
D39
 10
-1.71342
 20
-0.904287
 30
0.000000
  70
    32
  0
VERTEX
  8
0
  5
D3A
 10
-1.72978
 20
-0.902988
 30
0.000000
  70
    32
  0
VERTEX
  8
0
  5
D3B
 10
-1.74613
 20
-0.901678
 30
0.000000
  70
    32
  0
VERTEX
  8
0
  5
D3C
 10
-1.76249
 20
-0.900355
 30
0.000000
  70
    32
  0
VERTEX
  8
0
  5
D3D
 10
-1.77885
 20
-0.899019
 30
0.000000
  70
    32
  0
VERTEX
  8
0
  5
D3E
 10
-1.79521
 20
-0.897672
 30
0.000000
  70
    32
  0
VERTEX
  8
0
  5
D3F
 10
-1.81158
 20
-0.896313
 30
0.000000
  70
    32
  0
VERTEX
  8
0
  5
D40
 10
-1.82794
 20
-0.894941
 30
0.000000
  70
    32
  0
VERTEX
  8
0
  5
D41
 10
-1.84430
 20
-0.893557
 30
0.000000
  70
    32
  0
VERTEX
  8
0
  5
D42
 10
-1.86067
 20
-0.892161
 30
0.000000
  70
    32
  0
VERTEX
  8
0
  5
D43
 10
-1.87704
 20
-0.890753
 30
0.000000
  70
    32
  0
VERTEX
  8
0
  5
D44
 10
-1.89340
 20
-0.889333
 30
0.000000
  70
    32
  0
VERTEX
  8
0
  5
D45
 10
-1.90977
 20
-0.887900
 30
0.000000
  70
    32
  0
VERTEX
  8
0
  5
D46
 10
-1.92614
 20
-0.886456
 30
0.000000
  70
    32
  0
VERTEX
  8
0
  5
D47
 10
-1.94251
 20
-0.884999
 30
0.000000
  70
    32
  0
VERTEX
  8
0
  5
D48
 10
-1.95888
 20
-0.883530
 30
0.000000
  70
    32
  0
VERTEX
  8
0
  5
D49
 10
-1.97525
 20
-0.882049
 30
0.000000
  70
    32
  0
VERTEX
  8
0
  5
D4A
 10
-1.99162
 20
-0.880556
 30
0.000000
  70
    32
  0
VERTEX
  8
0
  5
D4B
 10
-2.00799
 20
-0.879051
 30
0.000000
  70
    32
  0
VERTEX
  8
0
  5
D4C
 10
-2.02436
 20
-0.877533
 30
0.000000
  70
    32
  0
VERTEX
  8
0
  5
D4D
 10
-2.04072
 20
-0.876004
 30
0.000000
  70
    32
  0
VERTEX
  8
0
  5
D4E
 10
-2.05709
 20
-0.874462
 30
0.000000
  70
    32
  0
VERTEX
  8
0
  5
D4F
 10
-2.07346
 20
-0.872908
 30
0.000000
  70
    32
  0
VERTEX
  8
0
  5
D50
 10
-2.08983
 20
-0.871342
 30
0.000000
  70
    32
  0
VERTEX
  8
0
  5
D51
 10
-2.10619
 20
-0.869764
 30
0.000000
  70
    32
  0
VERTEX
  8
0
  5
D52
 10
-2.12256
 20
-0.868174
 30
0.000000
  70
    32
  0
VERTEX
  8
0
  5
D53
 10
-2.13892
 20
-0.866571
 30
0.000000
  70
    32
  0
VERTEX
  8
0
  5
D54
 10
-2.15528
 20
-0.864957
 30
0.000000
  70
    32
  0
VERTEX
  8
0
  5
D55
 10
-2.17165
 20
-0.863330
 30
0.000000
  70
    32
  0
VERTEX
  8
0
  5
D56
 10
-2.18801
 20
-0.861691
 30
0.000000
  70
    32
  0
VERTEX
  8
0
  5
D57
 10
-2.20436
 20
-0.860040
 30
0.000000
  70
    32
  0
VERTEX
  8
0
  5
D58
 10
-2.22072
 20
-0.858377
 30
0.000000
  70
    32
  0
VERTEX
  8
0
  5
D59
 10
-2.23708
 20
-0.856702
 30
0.000000
  70
    32
  0
VERTEX
  8
0
  5
D5A
 10
-2.25343
 20
-0.855015
 30
0.000000
  70
    32
  0
VERTEX
  8
0
  5
D5B
 10
-2.26978
 20
-0.853315
 30
0.000000
  70
    32
  0
VERTEX
  8
0
  5
D5C
 10
-2.28613
 20
-0.851604
 30
0.000000
  70
    32
  0
VERTEX
  8
0
  5
D5D
 10
-2.30248
 20
-0.849880
 30
0.000000
  70
    32
  0
VERTEX
  8
0
  5
D5E
 10
-2.31882
 20
-0.848144
 30
0.000000
  70
    32
  0
VERTEX
  8
0
  5
D5F
 10
-2.33516
 20
-0.846397
 30
0.000000
  70
    32
  0
VERTEX
  8
0
  5
D60
 10
-2.35150
 20
-0.844637
 30
0.000000
  70
    32
  0
VERTEX
  8
0
  5
D61
 10
-2.36784
 20
-0.842864
 30
0.000000
  70
    32
  0
VERTEX
  8
0
  5
D62
 10
-2.38417
 20
-0.841080
 30
0.000000
  70
    32
  0
VERTEX
  8
0
  5
D63
 10
-2.40050
 20
-0.839284
 30
0.000000
  70
    32
  0
VERTEX
  8
0
  5
D64
 10
-2.41683
 20
-0.837475
 30
0.000000
  70
    32
  0
VERTEX
  8
0
  5
D65
 10
-2.43315
 20
-0.835655
 30
0.000000
  70
    32
  0
VERTEX
  8
0
  5
D66
 10
-2.44947
 20
-0.833822
 30
0.000000
  70
    32
  0
VERTEX
  8
0
  5
D67
 10
-2.46579
 20
-0.831977
 30
0.000000
  70
    32
  0
VERTEX
  8
0
  5
D68
 10
-2.48210
 20
-0.830120
 30
0.000000
  70
    32
  0
VERTEX
  8
0
  5
D69
 10
-2.49841
 20
-0.828251
 30
0.000000
  70
    32
  0
VERTEX
  8
0
  5
D6A
 10
-2.51472
 20
-0.826370
 30
0.000000
  70
    32
  0
VERTEX
  8
0
  5
D6B
 10
-2.53102
 20
-0.824477
 30
0.000000
  70
    32
  0
VERTEX
  8
0
  5
D6C
 10
-2.54732
 20
-0.822572
 30
0.000000
  70
    32
  0
VERTEX
  8
0
  5
D6D
 10
-2.56361
 20
-0.820654
 30
0.000000
  70
    32
  0
VERTEX
  8
0
  5
D6E
 10
-2.57990
 20
-0.818725
 30
0.000000
  70
    32
  0
VERTEX
  8
0
  5
D6F
 10
-2.59619
 20
-0.816783
 30
0.000000
  70
    32
  0
VERTEX
  8
0
  5
D70
 10
-2.61247
 20
-0.814830
 30
0.000000
  70
    32
  0
VERTEX
  8
0
  5
D71
 10
-2.62874
 20
-0.812864
 30
0.000000
  70
    32
  0
VERTEX
  8
0
  5
D72
 10
-2.64501
 20
-0.810886
 30
0.000000
  70
    32
  0
VERTEX
  8
0
  5
D73
 10
-2.66128
 20
-0.808896
 30
0.000000
  70
    32
  0
VERTEX
  8
0
  5
D74
 10
-2.67754
 20
-0.806894
 30
0.000000
  70
    32
  0
VERTEX
  8
0
  5
D75
 10
-2.69380
 20
-0.804880
 30
0.000000
  70
    32
  0
VERTEX
  8
0
  5
D76
 10
-2.71005
 20
-0.802854
 30
0.000000
  70
    32
  0
VERTEX
  8
0
  5
D77
 10
-2.72629
 20
-0.800815
 30
0.000000
  70
    32
  0
VERTEX
  8
0
  5
D78
 10
-2.74253
 20
-0.798765
 30
0.000000
  70
    32
  0
VERTEX
  8
0
  5
D79
 10
-2.75877
 20
-0.796703
 30
0.000000
  70
    32
  0
VERTEX
  8
0
  5
D7A
 10
-2.77500
 20
-0.794628
 30
0.000000
  70
    32
  0
VERTEX
  8
0
  5
D7B
 10
-2.79122
 20
-0.792541
 30
0.000000
  70
    32
  0
VERTEX
  8
0
  5
D7C
 10
-2.80743
 20
-0.790443
 30
0.000000
  70
    32
  0
VERTEX
  8
0
  5
D7D
 10
-2.82364
 20
-0.788332
 30
0.000000
  70
    32
  0
VERTEX
  8
0
  5
D7E
 10
-2.83985
 20
-0.786209
 30
0.000000
  70
    32
  0
VERTEX
  8
0
  5
D7F
 10
-2.85605
 20
-0.784074
 30
0.000000
  70
    32
  0
VERTEX
  8
0
  5
D80
 10
-2.87224
 20
-0.781927
 30
0.000000
  70
    32
  0
VERTEX
  8
0
  5
D81
 10
-2.88842
 20
-0.779768
 30
0.000000
  70
    32
  0
VERTEX
  8
0
  5
D82
 10
-2.90460
 20
-0.777597
 30
0.000000
  70
    32
  0
VERTEX
  8
0
  5
D83
 10
-2.92077
 20
-0.775414
 30
0.000000
  70
    32
  0
VERTEX
  8
0
  5
D84
 10
-2.93693
 20
-0.773218
 30
0.000000
  70
    32
  0
VERTEX
  8
0
  5
D85
 10
-2.95309
 20
-0.771011
 30
0.000000
  70
    32
  0
VERTEX
  8
0
  5
D86
 10
-2.96924
 20
-0.768792
 30
0.000000
  70
    32
  0
VERTEX
  8
0
  5
D87
 10
-2.98538
 20
-0.766560
 30
0.000000
  70
    32
  0
VERTEX
  8
0
  5
D88
 10
-3.00152
 20
-0.764317
 30
0.000000
  70
    32
  0
VERTEX
  8
0
  5
D89
 10
-3.01765
 20
-0.762061
 30
0.000000
  70
    32
  0
VERTEX
  8
0
  5
D8A
 10
-3.03377
 20
-0.759793
 30
0.000000
  70
    32
  0
VERTEX
  8
0
  5
D8B
 10
-3.04988
 20
-0.757514
 30
0.000000
  70
    32
  0
VERTEX
  8
0
  5
D8C
 10
-3.06598
 20
-0.755222
 30
0.000000
  70
    32
  0
VERTEX
  8
0
  5
D8D
 10
-3.08208
 20
-0.752918
 30
0.000000
  70
    32
  0
VERTEX
  8
0
  5
D8E
 10
-3.09816
 20
-0.750602
 30
0.000000
  70
    32
  0
VERTEX
  8
0
  5
D8F
 10
-3.11424
 20
-0.748274
 30
0.000000
  70
    32
  0
VERTEX
  8
0
  5
D90
 10
-3.13032
 20
-0.745934
 30
0.000000
  70
    32
  0
VERTEX
  8
0
  5
D91
 10
-3.14638
 20
-0.743582
 30
0.000000
  70
    32
  0
VERTEX
  8
0
  5
D92
 10
-3.16243
 20
-0.741218
 30
0.000000
  70
    32
  0
VERTEX
  8
0
  5
D93
 10
-3.17848
 20
-0.738842
 30
0.000000
  70
    32
  0
SEQEND
  8
0
  5
D94
  0
POLYLINE
  8
0
  5
D95
  66
     1
 10
0.000000
 20
0.000000
 30
0.000000
  70
     8
  0
VERTEX
  8
0
  5
D96
 10
-3.23767
 20
-0.671475
 30
0.000000
  70
    32
  0
VERTEX
  8
0
  5
D97
 10
-3.23767
 20
-0.671354
 30
0.000000
  70
    32
  0
VERTEX
  8
0
  5
D98
 10
-3.23768
 20
-0.670991
 30
0.000000
  70
    32
  0
VERTEX
  8
0
  5
D99
 10
-3.23769
 20
-0.670392
 30
0.000000
  70
    32
  0
VERTEX
  8
0
  5
D9A
 10
-3.23770
 20
-0.669559
 30
0.000000
  70
    32
  0
VERTEX
  8
0
  5
D9B
 10
-3.23772
 20
-0.668497
 30
0.000000
  70
    32
  0
VERTEX
  8
0
  5
D9C
 10
-3.23774
 20
-0.667209
 30
0.000000
  70
    32
  0
VERTEX
  8
0
  5
D9D
 10
-3.23777
 20
-0.665699
 30
0.000000
  70
    32
  0
VERTEX
  8
0
  5
D9E
 10
-3.23780
 20
-0.663972
 30
0.000000
  70
    32
  0
VERTEX
  8
0
  5
D9F
 10
-3.23783
 20
-0.662030
 30
0.000000
  70
    32
  0
VERTEX
  8
0
  5
DA0
 10
-3.23787
 20
-0.659879
 30
0.000000
  70
    32
  0
VERTEX
  8
0
  5
DA1
 10
-3.23791
 20
-0.657520
 30
0.000000
  70
    32
  0
VERTEX
  8
0
  5
DA2
 10
-3.23795
 20
-0.654959
 30
0.000000
  70
    32
  0
VERTEX
  8
0
  5
DA3
 10
-3.23800
 20
-0.652199
 30
0.000000
  70
    32
  0
VERTEX
  8
0
  5
DA4
 10
-3.23805
 20
-0.649244
 30
0.000000
  70
    32
  0
VERTEX
  8
0
  5
DA5
 10
-3.23810
 20
-0.646097
 30
0.000000
  70
    32
  0
VERTEX
  8
0
  5
DA6
 10
-3.23816
 20
-0.642764
 30
0.000000
  70
    32
  0
VERTEX
  8
0
  5
DA7
 10
-3.23822
 20
-0.639246
 30
0.000000
  70
    32
  0
VERTEX
  8
0
  5
DA8
 10
-3.23828
 20
-0.635549
 30
0.000000
  70
    32
  0
VERTEX
  8
0
  5
DA9
 10
-3.23835
 20
-0.631675
 30
0.000000
  70
    32
  0
VERTEX
  8
0
  5
DAA
 10
-3.23842
 20
-0.627630
 30
0.000000
  70
    32
  0
VERTEX
  8
0
  5
DAB
 10
-3.23849
 20
-0.623416
 30
0.000000
  70
    32
  0
VERTEX
  8
0
  5
DAC
 10
-3.23857
 20
-0.619037
 30
0.000000
  70
    32
  0
VERTEX
  8
0
  5
DAD
 10
-3.23865
 20
-0.614498
 30
0.000000
  70
    32
  0
VERTEX
  8
0
  5
DAE
 10
-3.23873
 20
-0.609802
 30
0.000000
  70
    32
  0
VERTEX
  8
0
  5
DAF
 10
-3.23881
 20
-0.604952
 30
0.000000
  70
    32
  0
VERTEX
  8
0
  5
DB0
 10
-3.23890
 20
-0.599953
 30
0.000000
  70
    32
  0
VERTEX
  8
0
  5
DB1
 10
-3.23899
 20
-0.594809
 30
0.000000
  70
    32
  0
VERTEX
  8
0
  5
DB2
 10
-3.23908
 20
-0.589523
 30
0.000000
  70
    32
  0
VERTEX
  8
0
  5
DB3
 10
-3.23917
 20
-0.584099
 30
0.000000
  70
    32
  0
VERTEX
  8
0
  5
DB4
 10
-3.23927
 20
-0.578541
 30
0.000000
  70
    32
  0
VERTEX
  8
0
  5
DB5
 10
-3.23937
 20
-0.572853
 30
0.000000
  70
    32
  0
VERTEX
  8
0
  5
DB6
 10
-3.23947
 20
-0.567038
 30
0.000000
  70
    32
  0
VERTEX
  8
0
  5
DB7
 10
-3.23957
 20
-0.561101
 30
0.000000
  70
    32
  0
VERTEX
  8
0
  5
DB8
 10
-3.23967
 20
-0.555044
 30
0.000000
  70
    32
  0
VERTEX
  8
0
  5
DB9
 10
-3.23978
 20
-0.548873
 30
0.000000
  70
    32
  0
VERTEX
  8
0
  5
DBA
 10
-3.23989
 20
-0.542590
 30
0.000000
  70
    32
  0
VERTEX
  8
0
  5
DBB
 10
-3.24000
 20
-0.536201
 30
0.000000
  70
    32
  0
VERTEX
  8
0
  5
DBC
 10
-3.24011
 20
-0.529707
 30
0.000000
  70
    32
  0
VERTEX
  8
0
  5
DBD
 10
-3.24023
 20
-0.523114
 30
0.000000
  70
    32
  0
VERTEX
  8
0
  5
DBE
 10
-3.24034
 20
-0.516424
 30
0.000000
  70
    32
  0
VERTEX
  8
0
  5
DBF
 10
-3.24046
 20
-0.509643
 30
0.000000
  70
    32
  0
VERTEX
  8
0
  5
DC0
 10
-3.24058
 20
-0.502773
 30
0.000000
  70
    32
  0
VERTEX
  8
0
  5
DC1
 10
-3.24070
 20
-0.495819
 30
0.000000
  70
    32
  0
VERTEX
  8
0
  5
DC2
 10
-3.24083
 20
-0.488784
 30
0.000000
  70
    32
  0
VERTEX
  8
0
  5
DC3
 10
-3.24095
 20
-0.481672
 30
0.000000
  70
    32
  0
VERTEX
  8
0
  5
DC4
 10
-3.24107
 20
-0.474487
 30
0.000000
  70
    32
  0
VERTEX
  8
0
  5
DC5
 10
-3.24120
 20
-0.467233
 30
0.000000
  70
    32
  0
VERTEX
  8
0
  5
DC6
 10
-3.24133
 20
-0.459913
 30
0.000000
  70
    32
  0
VERTEX
  8
0
  5
DC7
 10
-3.24146
 20
-0.452531
 30
0.000000
  70
    32
  0
VERTEX
  8
0
  5
DC8
 10
-3.24159
 20
-0.445092
 30
0.000000
  70
    32
  0
VERTEX
  8
0
  5
DC9
 10
-3.24172
 20
-0.437599
 30
0.000000
  70
    32
  0
VERTEX
  8
0
  5
DCA
 10
-3.24185
 20
-0.430055
 30
0.000000
  70
    32
  0
VERTEX
  8
0
  5
DCB
 10
-3.24199
 20
-0.422465
 30
0.000000
  70
    32
  0
VERTEX
  8
0
  5
DCC
 10
-3.24212
 20
-0.414833
 30
0.000000
  70
    32
  0
VERTEX
  8
0
  5
DCD
 10
-3.24225
 20
-0.407161
 30
0.000000
  70
    32
  0
VERTEX
  8
0
  5
DCE
 10
-3.24239
 20
-0.399455
 30
0.000000
  70
    32
  0
VERTEX
  8
0
  5
DCF
 10
-3.24253
 20
-0.391717
 30
0.000000
  70
    32
  0
VERTEX
  8
0
  5
DD0
 10
-3.24266
 20
-0.383952
 30
0.000000
  70
    32
  0
VERTEX
  8
0
  5
DD1
 10
-3.24280
 20
-0.376164
 30
0.000000
  70
    32
  0
VERTEX
  8
0
  5
DD2
 10
-3.24294
 20
-0.368356
 30
0.000000
  70
    32
  0
VERTEX
  8
0
  5
DD3
 10
-3.24308
 20
-0.360532
 30
0.000000
  70
    32
  0
VERTEX
  8
0
  5
DD4
 10
-3.24321
 20
-0.352696
 30
0.000000
  70
    32
  0
VERTEX
  8
0
  5
DD5
 10
-3.24335
 20
-0.344851
 30
0.000000
  70
    32
  0
VERTEX
  8
0
  5
DD6
 10
-3.24349
 20
-0.337002
 30
0.000000
  70
    32
  0
VERTEX
  8
0
  5
DD7
 10
-3.24363
 20
-0.329153
 30
0.000000
  70
    32
  0
VERTEX
  8
0
  5
DD8
 10
-3.24377
 20
-0.321306
 30
0.000000
  70
    32
  0
VERTEX
  8
0
  5
DD9
 10
-3.24391
 20
-0.313467
 30
0.000000
  70
    32
  0
VERTEX
  8
0
  5
DDA
 10
-3.24405
 20
-0.305638
 30
0.000000
  70
    32
  0
VERTEX
  8
0
  5
DDB
 10
-3.24419
 20
-0.297824
 30
0.000000
  70
    32
  0
VERTEX
  8
0
  5
DDC
 10
-3.24433
 20
-0.290028
 30
0.000000
  70
    32
  0
VERTEX
  8
0
  5
DDD
 10
-3.24447
 20
-0.282255
 30
0.000000
  70
    32
  0
VERTEX
  8
0
  5
DDE
 10
-3.24461
 20
-0.274507
 30
0.000000
  70
    32
  0
VERTEX
  8
0
  5
DDF
 10
-3.24475
 20
-0.266789
 30
0.000000
  70
    32
  0
VERTEX
  8
0
  5
DE0
 10
-3.24488
 20
-0.259105
 30
0.000000
  70
    32
  0
VERTEX
  8
0
  5
DE1
 10
-3.24502
 20
-0.251459
 30
0.000000
  70
    32
  0
VERTEX
  8
0
  5
DE2
 10
-3.24516
 20
-0.243853
 30
0.000000
  70
    32
  0
VERTEX
  8
0
  5
DE3
 10
-3.24529
 20
-0.236293
 30
0.000000
  70
    32
  0
VERTEX
  8
0
  5
DE4
 10
-3.24543
 20
-0.228782
 30
0.000000
  70
    32
  0
VERTEX
  8
0
  5
DE5
 10
-3.24557
 20
-0.221323
 30
0.000000
  70
    32
  0
VERTEX
  8
0
  5
DE6
 10
-3.24570
 20
-0.213921
 30
0.000000
  70
    32
  0
VERTEX
  8
0
  5
DE7
 10
-3.24583
 20
-0.206579
 30
0.000000
  70
    32
  0
VERTEX
  8
0
  5
DE8
 10
-3.24597
 20
-0.199301
 30
0.000000
  70
    32
  0
VERTEX
  8
0
  5
DE9
 10
-3.24610
 20
-0.192092
 30
0.000000
  70
    32
  0
VERTEX
  8
0
  5
DEA
 10
-3.24623
 20
-0.184954
 30
0.000000
  70
    32
  0
VERTEX
  8
0
  5
DEB
 10
-3.24636
 20
-0.177891
 30
0.000000
  70
    32
  0
VERTEX
  8
0
  5
DEC
 10
-3.24649
 20
-0.170908
 30
0.000000
  70
    32
  0
VERTEX
  8
0
  5
DED
 10
-3.24661
 20
-0.164008
 30
0.000000
  70
    32
  0
VERTEX
  8
0
  5
DEE
 10
-3.24674
 20
-0.157196
 30
0.000000
  70
    32
  0
VERTEX
  8
0
  5
DEF
 10
-3.24687
 20
-0.150474
 30
0.000000
  70
    32
  0
VERTEX
  8
0
  5
DF0
 10
-3.24699
 20
-0.143846
 30
0.000000
  70
    32
  0
VERTEX
  8
0
  5
DF1
 10
-3.24711
 20
-0.137317
 30
0.000000
  70
    32
  0
VERTEX
  8
0
  5
DF2
 10
-3.24723
 20
-0.130891
 30
0.000000
  70
    32
  0
VERTEX
  8
0
  5
DF3
 10
-3.24735
 20
-0.124570
 30
0.000000
  70
    32
  0
VERTEX
  8
0
  5
DF4
 10
-3.24747
 20
-0.118359
 30
0.000000
  70
    32
  0
VERTEX
  8
0
  5
DF5
 10
-3.24758
 20
-0.112262
 30
0.000000
  70
    32
  0
VERTEX
  8
0
  5
DF6
 10
-3.24770
 20
-0.106283
 30
0.000000
  70
    32
  0
VERTEX
  8
0
  5
DF7
 10
-3.24781
 20
-0.100425
 30
0.000000
  70
    32
  0
VERTEX
  8
0
  5
DF8
 10
-3.24792
 20
-0.0946915
 30
0.000000
  70
    32
  0
VERTEX
  8
0
  5
DF9
 10
-3.24803
 20
-0.0890874
 30
0.000000
  70
    32
  0
VERTEX
  8
0
  5
DFA
 10
-3.24813
 20
-0.0836160
 30
0.000000
  70
    32
  0
VERTEX
  8
0
  5
DFB
 10
-3.24824
 20
-0.0782812
 30
0.000000
  70
    32
  0
VERTEX
  8
0
  5
DFC
 10
-3.24834
 20
-0.0730868
 30
0.000000
  70
    32
  0
VERTEX
  8
0
  5
DFD
 10
-3.24844
 20
-0.0680366
 30
0.000000
  70
    32
  0
VERTEX
  8
0
  5
DFE
 10
-3.24853
 20
-0.0631344
 30
0.000000
  70
    32
  0
VERTEX
  8
0
  5
DFF
 10
-3.24863
 20
-0.0583840
 30
0.000000
  70
    32
  0
VERTEX
  8
0
  5
E00
 10
-3.24872
 20
-0.0537892
 30
0.000000
  70
    32
  0
VERTEX
  8
0
  5
E01
 10
-3.24881
 20
-0.0493539
 30
0.000000
  70
    32
  0
VERTEX
  8
0
  5
E02
 10
-3.24890
 20
-0.0450818
 30
0.000000
  70
    32
  0
VERTEX
  8
0
  5
E03
 10
-3.24898
 20
-0.0409767
 30
0.000000
  70
    32
  0
VERTEX
  8
0
  5
E04
 10
-3.24907
 20
-0.0370426
 30
0.000000
  70
    32
  0
VERTEX
  8
0
  5
E05
 10
-3.24915
 20
-0.0332831
 30
0.000000
  70
    32
  0
VERTEX
  8
0
  5
E06
 10
-3.24922
 20
-0.0297022
 30
0.000000
  70
    32
  0
VERTEX
  8
0
  5
E07
 10
-3.24930
 20
-0.0263035
 30
0.000000
  70
    32
  0
VERTEX
  8
0
  5
E08
 10
-3.24937
 20
-0.0230910
 30
0.000000
  70
    32
  0
VERTEX
  8
0
  5
E09
 10
-3.24944
 20
-0.0200684
 30
0.000000
  70
    32
  0
VERTEX
  8
0
  5
E0A
 10
-3.24950
 20
-0.0172396
 30
0.000000
  70
    32
  0
VERTEX
  8
0
  5
E0B
 10
-3.24956
 20
-0.0146083
 30
0.000000
  70
    32
  0
VERTEX
  8
0
  5
E0C
 10
-3.24962
 20
-0.0121784
 30
0.000000
  70
    32
  0
VERTEX
  8
0
  5
E0D
 10
-3.24968
 20
-0.00995368
 30
0.000000
  70
    32
  0
VERTEX
  8
0
  5
E0E
 10
-3.24973
 20
-0.00793795
 30
0.000000
  70
    32
  0
VERTEX
  8
0
  5
E0F
 10
-3.24978
 20
-0.00613504
 30
0.000000
  70
    32
  0
VERTEX
  8
0
  5
E10
 10
-3.24982
 20
-0.00454874
 30
0.000000
  70
    32
  0
VERTEX
  8
0
  5
E11
 10
-3.24987
 20
-0.00318288
 30
0.000000
  70
    32
  0
VERTEX
  8
0
  5
E12
 10
-3.24991
 20
-0.00204126
 30
0.000000
  70
    32
  0
VERTEX
  8
0
  5
E13
 10
-3.24994
 20
-0.00112770
 30
0.000000
  70
    32
  0
VERTEX
  8
0
  5
E14
 10
-3.24997
 20
-0.000446010
 30
0.000000
  70
    32
  0
VERTEX
  8
0
  5
E15
 10
-3.25000
 20
-4.15167e-013
 30
0.000000
  70
    32
  0
SEQEND
  8
0
  5
E16
  0
POLYLINE
  8
0
  5
E17
  66
     1
 10
0.000000
 20
0.000000
 30
0.000000
  70
     8
  0
VERTEX
  8
0
  5
E18
 10
-0.781454
 20
-2.46489
 30
0.000000
  70
    32
  0
VERTEX
  8
0
  5
E19
 10
-0.781477
 20
-2.45967
 30
0.000000
  70
    32
  0
VERTEX
  8
0
  5
E1A
 10
-0.781511
 20
-2.45445
 30
0.000000
  70
    32
  0
VERTEX
  8
0
  5
E1B
 10
-0.781557
 20
-2.44924
 30
0.000000
  70
    32
  0
VERTEX
  8
0
  5
E1C
 10
-0.781614
 20
-2.44403
 30
0.000000
  70
    32
  0
VERTEX
  8
0
  5
E1D
 10
-0.781682
 20
-2.43882
 30
0.000000
  70
    32
  0
VERTEX
  8
0
  5
E1E
 10
-0.781763
 20
-2.43362
 30
0.000000
  70
    32
  0
VERTEX
  8
0
  5
E1F
 10
-0.781854
 20
-2.42843
 30
0.000000
  70
    32
  0
VERTEX
  8
0
  5
E20
 10
-0.781958
 20
-2.42324
 30
0.000000
  70
    32
  0
VERTEX
  8
0
  5
E21
 10
-0.782074
 20
-2.41805
 30
0.000000
  70
    32
  0
VERTEX
  8
0
  5
E22
 10
-0.782201
 20
-2.41287
 30
0.000000
  70
    32
  0
VERTEX
  8
0
  5
E23
 10
-0.782340
 20
-2.40769
 30
0.000000
  70
    32
  0
VERTEX
  8
0
  5
E24
 10
-0.782492
 20
-2.40252
 30
0.000000
  70
    32
  0
VERTEX
  8
0
  5
E25
 10
-0.782655
 20
-2.39735
 30
0.000000
  70
    32
  0
VERTEX
  8
0
  5
E26
 10
-0.782831
 20
-2.39218
 30
0.000000
  70
    32
  0
VERTEX
  8
0
  5
E27
 10
-0.783019
 20
-2.38702
 30
0.000000
  70
    32
  0
VERTEX
  8
0
  5
E28
 10
-0.783220
 20
-2.38186
 30
0.000000
  70
    32
  0
VERTEX
  8
0
  5
E29
 10
-0.783433
 20
-2.37671
 30
0.000000
  70
    32
  0
VERTEX
  8
0
  5
E2A
 10
-0.783658
 20
-2.37156
 30
0.000000
  70
    32
  0
VERTEX
  8
0
  5
E2B
 10
-0.783896
 20
-2.36641
 30
0.000000
  70
    32
  0
VERTEX
  8
0
  5
E2C
 10
-0.784147
 20
-2.36127
 30
0.000000
  70
    32
  0
VERTEX
  8
0
  5
E2D
 10
-0.784410
 20
-2.35613
 30
0.000000
  70
    32
  0
VERTEX
  8
0
  5
E2E
 10
-0.784687
 20
-2.35100
 30
0.000000
  70
    32
  0
VERTEX
  8
0
  5
E2F
 10
-0.784976
 20
-2.34587
 30
0.000000
  70
    32
  0
VERTEX
  8
0
  5
E30
 10
-0.785278
 20
-2.34074
 30
0.000000
  70
    32
  0
VERTEX
  8
0
  5
E31
 10
-0.785593
 20
-2.33562
 30
0.000000
  70
    32
  0
VERTEX
  8
0
  5
E32
 10
-0.785921
 20
-2.33050
 30
0.000000
  70
    32
  0
VERTEX
  8
0
  5
E33
 10
-0.786263
 20
-2.32538
 30
0.000000
  70
    32
  0
VERTEX
  8
0
  5
E34
 10
-0.786618
 20
-2.32027
 30
0.000000
  70
    32
  0
VERTEX
  8
0
  5
E35
 10
-0.786986
 20
-2.31516
 30
0.000000
  70
    32
  0
VERTEX
  8
0
  5
E36
 10
-0.787367
 20
-2.31006
 30
0.000000
  70
    32
  0
VERTEX
  8
0
  5
E37
 10
-0.787762
 20
-2.30496
 30
0.000000
  70
    32
  0
VERTEX
  8
0
  5
E38
 10
-0.788171
 20
-2.29986
 30
0.000000
  70
    32
  0
VERTEX
  8
0
  5
E39
 10
-0.788593
 20
-2.29477
 30
0.000000
  70
    32
  0
VERTEX
  8
0
  5
E3A
 10
-0.789029
 20
-2.28968
 30
0.000000
  70
    32
  0
VERTEX
  8
0
  5
E3B
 10
-0.789479
 20
-2.28459
 30
0.000000
  70
    32
  0
VERTEX
  8
0
  5
E3C
 10
-0.789942
 20
-2.27950
 30
0.000000
  70
    32
  0
VERTEX
  8
0
  5
E3D
 10
-0.790420
 20
-2.27442
 30
0.000000
  70
    32
  0
VERTEX
  8
0
  5
E3E
 10
-0.790911
 20
-2.26935
 30
0.000000
  70
    32
  0
VERTEX
  8
0
  5
E3F
 10
-0.791417
 20
-2.26427
 30
0.000000
  70
    32
  0
VERTEX
  8
0
  5
E40
 10
-0.791937
 20
-2.25920
 30
0.000000
  70
    32
  0
VERTEX
  8
0
  5
E41
 10
-0.792471
 20
-2.25413
 30
0.000000
  70
    32
  0
VERTEX
  8
0
  5
E42
 10
-0.793020
 20
-2.24907
 30
0.000000
  70
    32
  0
VERTEX
  8
0
  5
E43
 10
-0.793582
 20
-2.24401
 30
0.000000
  70
    32
  0
VERTEX
  8
0
  5
E44
 10
-0.794160
 20
-2.23895
 30
0.000000
  70
    32
  0
VERTEX
  8
0
  5
E45
 10
-0.794751
 20
-2.23389
 30
0.000000
  70
    32
  0
VERTEX
  8
0
  5
E46
 10
-0.795358
 20
-2.22884
 30
0.000000
  70
    32
  0
VERTEX
  8
0
  5
E47
 10
-0.795979
 20
-2.22379
 30
0.000000
  70
    32
  0
VERTEX
  8
0
  5
E48
 10
-0.796615
 20
-2.21874
 30
0.000000
  70
    32
  0
VERTEX
  8
0
  5
E49
 10
-0.797266
 20
-2.21369
 30
0.000000
  70
    32
  0
VERTEX
  8
0
  5
E4A
 10
-0.797931
 20
-2.20865
 30
0.000000
  70
    32
  0
VERTEX
  8
0
  5
E4B
 10
-0.798612
 20
-2.20361
 30
0.000000
  70
    32
  0
VERTEX
  8
0
  5
E4C
 10
-0.799308
 20
-2.19858
 30
0.000000
  70
    32
  0
VERTEX
  8
0
  5
E4D
 10
-0.800019
 20
-2.19354
 30
0.000000
  70
    32
  0
VERTEX
  8
0
  5
E4E
 10
-0.800745
 20
-2.18851
 30
0.000000
  70
    32
  0
VERTEX
  8
0
  5
E4F
 10
-0.801486
 20
-2.18348
 30
0.000000
  70
    32
  0
VERTEX
  8
0
  5
E50
 10
-0.802243
 20
-2.17846
 30
0.000000
  70
    32
  0
VERTEX
  8
0
  5
E51
 10
-0.803015
 20
-2.17343
 30
0.000000
  70
    32
  0
VERTEX
  8
0
  5
E52
 10
-0.803803
 20
-2.16841
 30
0.000000
  70
    32
  0
VERTEX
  8
0
  5
E53
 10
-0.804607
 20
-2.16339
 30
0.000000
  70
    32
  0
VERTEX
  8
0
  5
E54
 10
-0.805426
 20
-2.15838
 30
0.000000
  70
    32
  0
VERTEX
  8
0
  5
E55
 10
-0.806260
 20
-2.15336
 30
0.000000
  70
    32
  0
VERTEX
  8
0
  5
E56
 10
-0.807111
 20
-2.14835
 30
0.000000
  70
    32
  0
VERTEX
  8
0
  5
E57
 10
-0.807978
 20
-2.14334
 30
0.000000
  70
    32
  0
VERTEX
  8
0
  5
E58
 10
-0.808860
 20
-2.13834
 30
0.000000
  70
    32
  0
VERTEX
  8
0
  5
E59
 10
-0.809759
 20
-2.13333
 30
0.000000
  70
    32
  0
VERTEX
  8
0
  5
E5A
 10
-0.810673
 20
-2.12833
 30
0.000000
  70
    32
  0
VERTEX
  8
0
  5
E5B
 10
-0.811604
 20
-2.12333
 30
0.000000
  70
    32
  0
VERTEX
  8
0
  5
E5C
 10
-0.812551
 20
-2.11833
 30
0.000000
  70
    32
  0
VERTEX
  8
0
  5
E5D
 10
-0.813515
 20
-2.11333
 30
0.000000
  70
    32
  0
VERTEX
  8
0
  5
E5E
 10
-0.814495
 20
-2.10834
 30
0.000000
  70
    32
  0
VERTEX
  8
0
  5
E5F
 10
-0.815491
 20
-2.10335
 30
0.000000
  70
    32
  0
VERTEX
  8
0
  5
E60
 10
-0.816504
 20
-2.09836
 30
0.000000
  70
    32
  0
VERTEX
  8
0
  5
E61
 10
-0.817534
 20
-2.09337
 30
0.000000
  70
    32
  0
VERTEX
  8
0
  5
E62
 10
-0.818580
 20
-2.08838
 30
0.000000
  70
    32
  0
VERTEX
  8
0
  5
E63
 10
-0.819643
 20
-2.08340
 30
0.000000
  70
    32
  0
VERTEX
  8
0
  5
E64
 10
-0.820723
 20
-2.07841
 30
0.000000
  70
    32
  0
VERTEX
  8
0
  5
E65
 10
-0.821820
 20
-2.07343
 30
0.000000
  70
    32
  0
VERTEX
  8
0
  5
E66
 10
-0.822934
 20
-2.06845
 30
0.000000
  70
    32
  0
VERTEX
  8
0
  5
E67
 10
-0.824066
 20
-2.06347
 30
0.000000
  70
    32
  0
VERTEX
  8
0
  5
E68
 10
-0.825214
 20
-2.05850
 30
0.000000
  70
    32
  0
VERTEX
  8
0
  5
E69
 10
-0.826379
 20
-2.05352
 30
0.000000
  70
    32
  0
VERTEX
  8
0
  5
E6A
 10
-0.827562
 20
-2.04855
 30
0.000000
  70
    32
  0
VERTEX
  8
0
  5
E6B
 10
-0.828763
 20
-2.04358
 30
0.000000
  70
    32
  0
VERTEX
  8
0
  5
E6C
 10
-0.829980
 20
-2.03861
 30
0.000000
  70
    32
  0
VERTEX
  8
0
  5
E6D
 10
-0.831216
 20
-2.03364
 30
0.000000
  70
    32
  0
VERTEX
  8
0
  5
E6E
 10
-0.832469
 20
-2.02867
 30
0.000000
  70
    32
  0
VERTEX
  8
0
  5
E6F
 10
-0.833739
 20
-2.02370
 30
0.000000
  70
    32
  0
VERTEX
  8
0
  5
E70
 10
-0.835028
 20
-2.01874
 30
0.000000
  70
    32
  0
VERTEX
  8
0
  5
E71
 10
-0.836334
 20
-2.01377
 30
0.000000
  70
    32
  0
VERTEX
  8
0
  5
E72
 10
-0.837658
 20
-2.00881
 30
0.000000
  70
    32
  0
VERTEX
  8
0
  5
E73
 10
-0.839000
 20
-2.00385
 30
0.000000
  70
    32
  0
VERTEX
  8
0
  5
E74
 10
-0.840361
 20
-1.99889
 30
0.000000
  70
    32
  0
VERTEX
  8
0
  5
E75
 10
-0.841739
 20
-1.99393
 30
0.000000
  70
    32
  0
VERTEX
  8
0
  5
E76
 10
-0.843136
 20
-1.98897
 30
0.000000
  70
    32
  0
VERTEX
  8
0
  5
E77
 10
-0.844551
 20
-1.98402
 30
0.000000
  70
    32
  0
VERTEX
  8
0
  5
E78
 10
-0.845984
 20
-1.97906
 30
0.000000
  70
    32
  0
VERTEX
  8
0
  5
E79
 10
-0.847436
 20
-1.97411
 30
0.000000
  70
    32
  0
VERTEX
  8
0
  5
E7A
 10
-0.848906
 20
-1.96915
 30
0.000000
  70
    32
  0
VERTEX
  8
0
  5
E7B
 10
-0.850395
 20
-1.96420
 30
0.000000
  70
    32
  0
VERTEX
  8
0
  5
E7C
 10
-0.851903
 20
-1.95925
 30
0.000000
  70
    32
  0
VERTEX
  8
0
  5
E7D
 10
-0.853429
 20
-1.95430
 30
0.000000
  70
    32
  0
VERTEX
  8
0
  5
E7E
 10
-0.854974
 20
-1.94934
 30
0.000000
  70
    32
  0
VERTEX
  8
0
  5
E7F
 10
-0.856538
 20
-1.94439
 30
0.000000
  70
    32
  0
VERTEX
  8
0
  5
E80
 10
-0.858121
 20
-1.93945
 30
0.000000
  70
    32
  0
VERTEX
  8
0
  5
E81
 10
-0.859723
 20
-1.93450
 30
0.000000
  70
    32
  0
VERTEX
  8
0
  5
E82
 10
-0.861345
 20
-1.92955
 30
0.000000
  70
    32
  0
VERTEX
  8
0
  5
E83
 10
-0.862985
 20
-1.92460
 30
0.000000
  70
    32
  0
VERTEX
  8
0
  5
E84
 10
-0.864645
 20
-1.91966
 30
0.000000
  70
    32
  0
VERTEX
  8
0
  5
E85
 10
-0.866324
 20
-1.91471
 30
0.000000
  70
    32
  0
VERTEX
  8
0
  5
E86
 10
-0.868022
 20
-1.90976
 30
0.000000
  70
    32
  0
VERTEX
  8
0
  5
E87
 10
-0.869740
 20
-1.90482
 30
0.000000
  70
    32
  0
VERTEX
  8
0
  5
E88
 10
-0.871762
 20
-1.89921
 30
0.000000
  70
    32
  0
VERTEX
  8
0
  5
E89
 10
-0.874074
 20
-1.89299
 30
0.000000
  70
    32
  0
VERTEX
  8
0
  5
E8A
 10
-0.876386
 20
-1.88683
 30
0.000000
  70
    32
  0
VERTEX
  8
0
  5
E8B
 10
-0.878698
 20
-1.88074
 30
0.000000
  70
    32
  0
VERTEX
  8
0
  5
E8C
 10
-0.881011
 20
-1.87470
 30
0.000000
  70
    32
  0
VERTEX
  8
0
  5
E8D
 10
-0.883323
 20
-1.86872
 30
0.000000
  70
    32
  0
VERTEX
  8
0
  5
E8E
 10
-0.885634
 20
-1.86280
 30
0.000000
  70
    32
  0
VERTEX
  8
0
  5
E8F
 10
-0.887943
 20
-1.85694
 30
0.000000
  70
    32
  0
VERTEX
  8
0
  5
E90
 10
-0.890251
 20
-1.85113
 30
0.000000
  70
    32
  0
VERTEX
  8
0
  5
E91
 10
-0.892557
 20
-1.84537
 30
0.000000
  70
    32
  0
VERTEX
  8
0
  5
E92
 10
-0.894860
 20
-1.83967
 30
0.000000
  70
    32
  0
VERTEX
  8
0
  5
E93
 10
-0.897160
 20
-1.83402
 30
0.000000
  70
    32
  0
VERTEX
  8
0
  5
E94
 10
-0.899456
 20
-1.82841
 30
0.000000
  70
    32
  0
VERTEX
  8
0
  5
E95
 10
-0.901749
 20
-1.82286
 30
0.000000
  70
    32
  0
VERTEX
  8
0
  5
E96
 10
-0.904037
 20
-1.81735
 30
0.000000
  70
    32
  0
VERTEX
  8
0
  5
E97
 10
-0.906321
 20
-1.81189
 30
0.000000
  70
    32
  0
VERTEX
  8
0
  5
E98
 10
-0.908599
 20
-1.80647
 30
0.000000
  70
    32
  0
VERTEX
  8
0
  5
E99
 10
-0.910872
 20
-1.80109
 30
0.000000
  70
    32
  0
VERTEX
  8
0
  5
E9A
 10
-0.913138
 20
-1.79576
 30
0.000000
  70
    32
  0
VERTEX
  8
0
  5
E9B
 10
-0.915399
 20
-1.79047
 30
0.000000
  70
    32
  0
VERTEX
  8
0
  5
E9C
 10
-0.917652
 20
-1.78522
 30
0.000000
  70
    32
  0
VERTEX
  8
0
  5
E9D
 10
-0.919898
 20
-1.78000
 30
0.000000
  70
    32
  0
VERTEX
  8
0
  5
E9E
 10
-0.922136
 20
-1.77482
 30
0.000000
  70
    32
  0
VERTEX
  8
0
  5
E9F
 10
-0.924366
 20
-1.76968
 30
0.000000
  70
    32
  0
VERTEX
  8
0
  5
EA0
 10
-0.926587
 20
-1.76457
 30
0.000000
  70
    32
  0
VERTEX
  8
0
  5
EA1
 10
-0.928800
 20
-1.75949
 30
0.000000
  70
    32
  0
VERTEX
  8
0
  5
EA2
 10
-0.931003
 20
-1.75445
 30
0.000000
  70
    32
  0
VERTEX
  8
0
  5
EA3
 10
-0.933196
 20
-1.74943
 30
0.000000
  70
    32
  0
VERTEX
  8
0
  5
EA4
 10
-0.935379
 20
-1.74445
 30
0.000000
  70
    32
  0
VERTEX
  8
0
  5
EA5
 10
-0.937551
 20
-1.73949
 30
0.000000
  70
    32
  0
VERTEX
  8
0
  5
EA6
 10
-0.939712
 20
-1.73456
 30
0.000000
  70
    32
  0
VERTEX
  8
0
  5
EA7
 10
-0.941861
 20
-1.72965
 30
0.000000
  70
    32
  0
VERTEX
  8
0
  5
EA8
 10
-0.943998
 20
-1.72477
 30
0.000000
  70
    32
  0
VERTEX
  8
0
  5
EA9
 10
-0.946123
 20
-1.71991
 30
0.000000
  70
    32
  0
VERTEX
  8
0
  5
EAA
 10
-0.948235
 20
-1.71506
 30
0.000000
  70
    32
  0
VERTEX
  8
0
  5
EAB
 10
-0.950334
 20
-1.71024
 30
0.000000
  70
    32
  0
VERTEX
  8
0
  5
EAC
 10
-0.952419
 20
-1.70544
 30
0.000000
  70
    32
  0
VERTEX
  8
0
  5
EAD
 10
-0.954490
 20
-1.70066
 30
0.000000
  70
    32
  0
VERTEX
  8
0
  5
EAE
 10
-0.956547
 20
-1.69589
 30
0.000000
  70
    32
  0
VERTEX
  8
0
  5
EAF
 10
-0.958588
 20
-1.69113
 30
0.000000
  70
    32
  0
VERTEX
  8
0
  5
EB0
 10
-0.960614
 20
-1.68639
 30
0.000000
  70
    32
  0
VERTEX
  8
0
  5
EB1
 10
-0.962624
 20
-1.68166
 30
0.000000
  70
    32
  0
VERTEX
  8
0
  5
EB2
 10
-0.964618
 20
-1.67694
 30
0.000000
  70
    32
  0
VERTEX
  8
0
  5
EB3
 10
-0.966595
 20
-1.67223
 30
0.000000
  70
    32
  0
VERTEX
  8
0
  5
EB4
 10
-0.968555
 20
-1.66753
 30
0.000000
  70
    32
  0
VERTEX
  8
0
  5
EB5
 10
-0.970498
 20
-1.66284
 30
0.000000
  70
    32
  0
VERTEX
  8
0
  5
EB6
 10
-0.972423
 20
-1.65815
 30
0.000000
  70
    32
  0
VERTEX
  8
0
  5
EB7
 10
-0.974329
 20
-1.65346
 30
0.000000
  70
    32
  0
VERTEX
  8
0
  5
EB8
 10
-0.976216
 20
-1.64878
 30
0.000000
  70
    32
  0
VERTEX
  8
0
  5
EB9
 10
-0.978084
 20
-1.64410
 30
0.000000
  70
    32
  0
VERTEX
  8
0
  5
EBA
 10
-0.979933
 20
-1.63942
 30
0.000000
  70
    32
  0
VERTEX
  8
0
  5
EBB
 10
-0.981761
 20
-1.63474
 30
0.000000
  70
    32
  0
VERTEX
  8
0
  5
EBC
 10
-0.983569
 20
-1.63005
 30
0.000000
  70
    32
  0
VERTEX
  8
0
  5
EBD
 10
-0.985356
 20
-1.62537
 30
0.000000
  70
    32
  0
VERTEX
  8
0
  5
EBE
 10
-0.987122
 20
-1.62067
 30
0.000000
  70
    32
  0
VERTEX
  8
0
  5
EBF
 10
-0.988865
 20
-1.61597
 30
0.000000
  70
    32
  0
VERTEX
  8
0
  5
EC0
 10
-0.990587
 20
-1.61127
 30
0.000000
  70
    32
  0
VERTEX
  8
0
  5
EC1
 10
-0.992286
 20
-1.60655
 30
0.000000
  70
    32
  0
VERTEX
  8
0
  5
EC2
 10
-0.993962
 20
-1.60183
 30
0.000000
  70
    32
  0
VERTEX
  8
0
  5
EC3
 10
-0.995614
 20
-1.59709
 30
0.000000
  70
    32
  0
VERTEX
  8
0
  5
EC4
 10
-0.997242
 20
-1.59234
 30
0.000000
  70
    32
  0
VERTEX
  8
0
  5
EC5
 10
-0.998846
 20
-1.58758
 30
0.000000
  70
    32
  0
VERTEX
  8
0
  5
EC6
 10
-1.00043
 20
-1.58280
 30
0.000000
  70
    32
  0
VERTEX
  8
0
  5
EC7
 10
-1.00198
 20
-1.57800
 30
0.000000
  70
    32
  0
VERTEX
  8
0
  5
EC8
 10
-1.00351
 20
-1.57319
 30
0.000000
  70
    32
  0
VERTEX
  8
0
  5
EC9
 10
-1.00501
 20
-1.56836
 30
0.000000
  70
    32
  0
VERTEX
  8
0
  5
ECA
 10
-1.00649
 20
-1.56350
 30
0.000000
  70
    32
  0
VERTEX
  8
0
  5
ECB
 10
-1.00794
 20
-1.55863
 30
0.000000
  70
    32
  0
VERTEX
  8
0
  5
ECC
 10
-1.00936
 20
-1.55373
 30
0.000000
  70
    32
  0
VERTEX
  8
0
  5
ECD
 10
-1.01075
 20
-1.54881
 30
0.000000
  70
    32
  0
VERTEX
  8
0
  5
ECE
 10
-1.01212
 20
-1.54386
 30
0.000000
  70
    32
  0
VERTEX
  8
0
  5
ECF
 10
-1.01345
 20
-1.53888
 30
0.000000
  70
    32
  0
VERTEX
  8
0
  5
ED0
 10
-1.01476
 20
-1.53388
 30
0.000000
  70
    32
  0
VERTEX
  8
0
  5
ED1
 10
-1.01604
 20
-1.52884
 30
0.000000
  70
    32
  0
VERTEX
  8
0
  5
ED2
 10
-1.01729
 20
-1.52378
 30
0.000000
  70
    32
  0
VERTEX
  8
0
  5
ED3
 10
-1.01851
 20
-1.51868
 30
0.000000
  70
    32
  0
VERTEX
  8
0
  5
ED4
 10
-1.01970
 20
-1.51355
 30
0.000000
  70
    32
  0
VERTEX
  8
0
  5
ED5
 10
-1.02085
 20
-1.50839
 30
0.000000
  70
    32
  0
VERTEX
  8
0
  5
ED6
 10
-1.02198
 20
-1.50318
 30
0.000000
  70
    32
  0
VERTEX
  8
0
  5
ED7
 10
-1.02307
 20
-1.49795
 30
0.000000
  70
    32
  0
VERTEX
  8
0
  5
ED8
 10
-1.02413
 20
-1.49267
 30
0.000000
  70
    32
  0
VERTEX
  8
0
  5
ED9
 10
-1.02516
 20
-1.48735
 30
0.000000
  70
    32
  0
VERTEX
  8
0
  5
EDA
 10
-1.02615
 20
-1.48199
 30
0.000000
  70
    32
  0
VERTEX
  8
0
  5
EDB
 10
-1.02711
 20
-1.47659
 30
0.000000
  70
    32
  0
VERTEX
  8
0
  5
EDC
 10
-1.02804
 20
-1.47114
 30
0.000000
  70
    32
  0
VERTEX
  8
0
  5
EDD
 10
-1.02893
 20
-1.46565
 30
0.000000
  70
    32
  0
VERTEX
  8
0
  5
EDE
 10
-1.02979
 20
-1.46012
 30
0.000000
  70
    32
  0
VERTEX
  8
0
  5
EDF
 10
-1.03061
 20
-1.45453
 30
0.000000
  70
    32
  0
VERTEX
  8
0
  5
EE0
 10
-1.03139
 20
-1.44890
 30
0.000000
  70
    32
  0
VERTEX
  8
0
  5
EE1
 10
-1.03214
 20
-1.44321
 30
0.000000
  70
    32
  0
VERTEX
  8
0
  5
EE2
 10
-1.03286
 20
-1.43748
 30
0.000000
  70
    32
  0
VERTEX
  8
0
  5
EE3
 10
-1.03353
 20
-1.43169
 30
0.000000
  70
    32
  0
VERTEX
  8
0
  5
EE4
 10
-1.03417
 20
-1.42584
 30
0.000000
  70
    32
  0
VERTEX
  8
0
  5
EE5
 10
-1.03477
 20
-1.41994
 30
0.000000
  70
    32
  0
VERTEX
  8
0
  5
EE6
 10
-1.03533
 20
-1.41399
 30
0.000000
  70
    32
  0
VERTEX
  8
0
  5
EE7
 10
-1.03585
 20
-1.40797
 30
0.000000
  70
    32
  0
VERTEX
  8
0
  5
EE8
 10
-1.03634
 20
-1.40190
 30
0.000000
  70
    32
  0
VERTEX
  8
0
  5
EE9
 10
-1.03678
 20
-1.39576
 30
0.000000
  70
    32
  0
VERTEX
  8
0
  5
EEA
 10
-1.03719
 20
-1.38957
 30
0.000000
  70
    32
  0
VERTEX
  8
0
  5
EEB
 10
-1.03755
 20
-1.38331
 30
0.000000
  70
    32
  0
VERTEX
  8
0
  5
EEC
 10
-1.03787
 20
-1.37698
 30
0.000000
  70
    32
  0
VERTEX
  8
0
  5
EED
 10
-1.03815
 20
-1.37059
 30
0.000000
  70
    32
  0
VERTEX
  8
0
  5
EEE
 10
-1.03839
 20
-1.36413
 30
0.000000
  70
    32
  0
VERTEX
  8
0
  5
EEF
 10
-1.03859
 20
-1.35760
 30
0.000000
  70
    32
  0
VERTEX
  8
0
  5
EF0
 10
-1.03874
 20
-1.35101
 30
0.000000
  70
    32
  0
VERTEX
  8
0
  5
EF1
 10
-1.03885
 20
-1.34434
 30
0.000000
  70
    32
  0
VERTEX
  8
0
  5
EF2
 10
-1.03892
 20
-1.33760
 30
0.000000
  70
    32
  0
VERTEX
  8
0
  5
EF3
 10
-1.03894
 20
-1.33078
 30
0.000000
  70
    32
  0
VERTEX
  8
0
  5
EF4
 10
-1.03892
 20
-1.32389
 30
0.000000
  70
    32
  0
VERTEX
  8
0
  5
EF5
 10
-1.03886
 20
-1.31693
 30
0.000000
  70
    32
  0
VERTEX
  8
0
  5
EF6
 10
-1.03875
 20
-1.30988
 30
0.000000
  70
    32
  0
VERTEX
  8
0
  5
EF7
 10
-1.03859
 20
-1.30276
 30
0.000000
  70
    32
  0
SEQEND
  8
0
  5
EF8
  0
POLYLINE
  8
0
  5
EF9
  66
     1
 10
0.000000
 20
0.000000
 30
0.000000
  70
     8
  0
VERTEX
  8
0
  5
EFA
 10
-0.781454
 20
-2.45676
 30
0.000000
  70
    32
  0
VERTEX
  8
0
  5
EFB
 10
-0.781491
 20
-2.45031
 30
0.000000
  70
    32
  0
VERTEX
  8
0
  5
EFC
 10
-0.781546
 20
-2.44387
 30
0.000000
  70
    32
  0
VERTEX
  8
0
  5
EFD
 10
-0.781619
 20
-2.43746
 30
0.000000
  70
    32
  0
VERTEX
  8
0
  5
EFE
 10
-0.781709
 20
-2.43106
 30
0.000000
  70
    32
  0
VERTEX
  8
0
  5
EFF
 10
-0.781818
 20
-2.42467
 30
0.000000
  70
    32
  0
VERTEX
  8
0
  5
F00
 10
-0.781945
 20
-2.41831
 30
0.000000
  70
    32
  0
VERTEX
  8
0
  5
F01
 10
-0.782089
 20
-2.41196
 30
0.000000
  70
    32
  0
VERTEX
  8
0
  5
F02
 10
-0.782252
 20
-2.40564
 30
0.000000
  70
    32
  0
VERTEX
  8
0
  5
F03
 10
-0.782434
 20
-2.39932
 30
0.000000
  70
    32
  0
VERTEX
  8
0
  5
F04
 10
-0.782633
 20
-2.39303
 30
0.000000
  70
    32
  0
VERTEX
  8
0
  5
F05
 10
-0.782851
 20
-2.38675
 30
0.000000
  70
    32
  0
VERTEX
  8
0
  5
F06
 10
-0.783088
 20
-2.38049
 30
0.000000
  70
    32
  0
VERTEX
  8
0
  5
F07
 10
-0.783342
 20
-2.37424
 30
0.000000
  70
    32
  0
VERTEX
  8
0
  5
F08
 10
-0.783616
 20
-2.36801
 30
0.000000
  70
    32
  0
VERTEX
  8
0
  5
F09
 10
-0.783908
 20
-2.36180
 30
0.000000
  70
    32
  0
VERTEX
  8
0
  5
F0A
 10
-0.784218
 20
-2.35560
 30
0.000000
  70
    32
  0
VERTEX
  8
0
  5
F0B
 10
-0.784548
 20
-2.34942
 30
0.000000
  70
    32
  0
VERTEX
  8
0
  5
F0C
 10
-0.784896
 20
-2.34325
 30
0.000000
  70
    32
  0
VERTEX
  8
0
  5
F0D
 10
-0.785263
 20
-2.33709
 30
0.000000
  70
    32
  0
VERTEX
  8
0
  5
F0E
 10
-0.785649
 20
-2.33096
 30
0.000000
  70
    32
  0
VERTEX
  8
0
  5
F0F
 10
-0.786053
 20
-2.32483
 30
0.000000
  70
    32
  0
VERTEX
  8
0
  5
F10
 10
-0.786477
 20
-2.31872
 30
0.000000
  70
    32
  0
VERTEX
  8
0
  5
F11
 10
-0.786920
 20
-2.31263
 30
0.000000
  70
    32
  0
VERTEX
  8
0
  5
F12
 10
-0.787382
 20
-2.30654
 30
0.000000
  70
    32
  0
VERTEX
  8
0
  5
F13
 10
-0.787863
 20
-2.30048
 30
0.000000
  70
    32
  0
VERTEX
  8
0
  5
F14
 10
-0.788364
 20
-2.29442
 30
0.000000
  70
    32
  0
VERTEX
  8
0
  5
F15
 10
-0.788883
 20
-2.28838
 30
0.000000
  70
    32
  0
VERTEX
  8
0
  5
F16
 10
-0.789423
 20
-2.28235
 30
0.000000
  70
    32
  0
VERTEX
  8
0
  5
F17
 10
-0.789981
 20
-2.27634
 30
0.000000
  70
    32
  0
VERTEX
  8
0
  5
F18
 10
-0.790559
 20
-2.27033
 30
0.000000
  70
    32
  0
VERTEX
  8
0
  5
F19
 10
-0.791157
 20
-2.26434
 30
0.000000
  70
    32
  0
VERTEX
  8
0
  5
F1A
 10
-0.791774
 20
-2.25836
 30
0.000000
  70
    32
  0
VERTEX
  8
0
  5
F1B
 10
-0.792411
 20
-2.25240
 30
0.000000
  70
    32
  0
VERTEX
  8
0
  5
F1C
 10
-0.793067
 20
-2.24644
 30
0.000000
  70
    32
  0
VERTEX
  8
0
  5
F1D
 10
-0.793744
 20
-2.24050
 30
0.000000
  70
    32
  0
VERTEX
  8
0
  5
F1E
 10
-0.794440
 20
-2.23456
 30
0.000000
  70
    32
  0
VERTEX
  8
0
  5
F1F
 10
-0.795156
 20
-2.22864
 30
0.000000
  70
    32
  0
VERTEX
  8
0
  5
F20
 10
-0.795892
 20
-2.22273
 30
0.000000
  70
    32
  0
VERTEX
  8
0
  5
F21
 10
-0.796648
 20
-2.21683
 30
0.000000
  70
    32
  0
VERTEX
  8
0
  5
F22
 10
-0.797424
 20
-2.21094
 30
0.000000
  70
    32
  0
VERTEX
  8
0
  5
F23
 10
-0.798221
 20
-2.20506
 30
0.000000
  70
    32
  0
VERTEX
  8
0
  5
F24
 10
-0.799037
 20
-2.19919
 30
0.000000
  70
    32
  0
VERTEX
  8
0
  5
F25
 10
-0.799874
 20
-2.19334
 30
0.000000
  70
    32
  0
VERTEX
  8
0
  5
F26
 10
-0.800731
 20
-2.18749
 30
0.000000
  70
    32
  0
VERTEX
  8
0
  5
F27
 10
-0.801609
 20
-2.18165
 30
0.000000
  70
    32
  0
VERTEX
  8
0
  5
F28
 10
-0.802506
 20
-2.17581
 30
0.000000
  70
    32
  0
VERTEX
  8
0
  5
F29
 10
-0.803425
 20
-2.16999
 30
0.000000
  70
    32
  0
VERTEX
  8
0
  5
F2A
 10
-0.804364
 20
-2.16418
 30
0.000000
  70
    32
  0
VERTEX
  8
0
  5
F2B
 10
-0.805323
 20
-2.15837
 30
0.000000
  70
    32
  0
VERTEX
  8
0
  5
F2C
 10
-0.806303
 20
-2.15258
 30
0.000000
  70
    32
  0
VERTEX
  8
0
  5
F2D
 10
-0.807304
 20
-2.14679
 30
0.000000
  70
    32
  0
VERTEX
  8
0
  5
F2E
 10
-0.808326
 20
-2.14101
 30
0.000000
  70
    32
  0
VERTEX
  8
0
  5
F2F
 10
-0.809369
 20
-2.13523
 30
0.000000
  70
    32
  0
VERTEX
  8
0
  5
F30
 10
-0.810432
 20
-2.12947
 30
0.000000
  70
    32
  0
VERTEX
  8
0
  5
F31
 10
-0.811516
 20
-2.12371
 30
0.000000
  70
    32
  0
VERTEX
  8
0
  5
F32
 10
-0.812622
 20
-2.11796
 30
0.000000
  70
    32
  0
VERTEX
  8
0
  5
F33
 10
-0.813748
 20
-2.11221
 30
0.000000
  70
    32
  0
VERTEX
  8
0
  5
F34
 10
-0.814896
 20
-2.10648
 30
0.000000
  70
    32
  0
VERTEX
  8
0
  5
F35
 10
-0.816065
 20
-2.10075
 30
0.000000
  70
    32
  0
VERTEX
  8
0
  5
F36
 10
-0.817255
 20
-2.09502
 30
0.000000
  70
    32
  0
VERTEX
  8
0
  5
F37
 10
-0.818467
 20
-2.08930
 30
0.000000
  70
    32
  0
VERTEX
  8
0
  5
F38
 10
-0.819699
 20
-2.08359
 30
0.000000
  70
    32
  0
VERTEX
  8
0
  5
F39
 10
-0.820954
 20
-2.07788
 30
0.000000
  70
    32
  0
VERTEX
  8
0
  5
F3A
 10
-0.822230
 20
-2.07218
 30
0.000000
  70
    32
  0
VERTEX
  8
0
  5
F3B
 10
-0.823527
 20
-2.06648
 30
0.000000
  70
    32
  0
VERTEX
  8
0
  5
F3C
 10
-0.824846
 20
-2.06079
 30
0.000000
  70
    32
  0
VERTEX
  8
0
  5
F3D
 10
-0.826186
 20
-2.05510
 30
0.000000
  70
    32
  0
VERTEX
  8
0
  5
F3E
 10
-0.827549
 20
-2.04941
 30
0.000000
  70
    32
  0
VERTEX
  8
0
  5
F3F
 10
-0.828933
 20
-2.04374
 30
0.000000
  70
    32
  0
VERTEX
  8
0
  5
F40
 10
-0.830339
 20
-2.03806
 30
0.000000
  70
    32
  0
VERTEX
  8
0
  5
F41
 10
-0.831767
 20
-2.03239
 30
0.000000
  70
    32
  0
VERTEX
  8
0
  5
F42
 10
-0.833217
 20
-2.02672
 30
0.000000
  70
    32
  0
VERTEX
  8
0
  5
F43
 10
-0.834689
 20
-2.02106
 30
0.000000
  70
    32
  0
VERTEX
  8
0
  5
F44
 10
-0.836183
 20
-2.01540
 30
0.000000
  70
    32
  0
VERTEX
  8
0
  5
F45
 10
-0.837699
 20
-2.00974
 30
0.000000
  70
    32
  0
VERTEX
  8
0
  5
F46
 10
-0.839237
 20
-2.00408
 30
0.000000
  70
    32
  0
VERTEX
  8
0
  5
F47
 10
-0.840798
 20
-1.99843
 30
0.000000
  70
    32
  0
VERTEX
  8
0
  5
F48
 10
-0.842381
 20
-1.99278
 30
0.000000
  70
    32
  0
VERTEX
  8
0
  5
F49
 10
-0.843986
 20
-1.98713
 30
0.000000
  70
    32
  0
VERTEX
  8
0
  5
F4A
 10
-0.845614
 20
-1.98149
 30
0.000000
  70
    32
  0
VERTEX
  8
0
  5
F4B
 10
-0.847264
 20
-1.97584
 30
0.000000
  70
    32
  0
VERTEX
  8
0
  5
F4C
 10
-0.848937
 20
-1.97020
 30
0.000000
  70
    32
  0
VERTEX
  8
0
  5
F4D
 10
-0.850632
 20
-1.96456
 30
0.000000
  70
    32
  0
VERTEX
  8
0
  5
F4E
 10
-0.852350
 20
-1.95891
 30
0.000000
  70
    32
  0
VERTEX
  8
0
  5
F4F
 10
-0.854091
 20
-1.95327
 30
0.000000
  70
    32
  0
VERTEX
  8
0
  5
F50
 10
-0.855855
 20
-1.94764
 30
0.000000
  70
    32
  0
VERTEX
  8
0
  5
F51
 10
-0.857641
 20
-1.94200
 30
0.000000
  70
    32
  0
VERTEX
  8
0
  5
F52
 10
-0.859451
 20
-1.93636
 30
0.000000
  70
    32
  0
VERTEX
  8
0
  5
F53
 10
-0.861283
 20
-1.93072
 30
0.000000
  70
    32
  0
VERTEX
  8
0
  5
F54
 10
-0.863139
 20
-1.92508
 30
0.000000
  70
    32
  0
VERTEX
  8
0
  5
F55
 10
-0.865017
 20
-1.91944
 30
0.000000
  70
    32
  0
VERTEX
  8
0
  5
F56
 10
-0.866919
 20
-1.91380
 30
0.000000
  70
    32
  0
VERTEX
  8
0
  5
F57
 10
-0.868844
 20
-1.90816
 30
0.000000
  70
    32
  0
VERTEX
  8
0
  5
F58
 10
-0.870792
 20
-1.90252
 30
0.000000
  70
    32
  0
VERTEX
  8
0
  5
F59
 10
-0.872764
 20
-1.89688
 30
0.000000
  70
    32
  0
VERTEX
  8
0
  5
F5A
 10
-0.874758
 20
-1.89123
 30
0.000000
  70
    32
  0
VERTEX
  8
0
  5
F5B
 10
-0.876777
 20
-1.88559
 30
0.000000
  70
    32
  0
VERTEX
  8
0
  5
F5C
 10
-0.878819
 20
-1.87994
 30
0.000000
  70
    32
  0
VERTEX
  8
0
  5
F5D
 10
-0.880884
 20
-1.87429
 30
0.000000
  70
    32
  0
VERTEX
  8
0
  5
F5E
 10
-0.882973
 20
-1.86864
 30
0.000000
  70
    32
  0
VERTEX
  8
0
  5
F5F
 10
-0.885086
 20
-1.86298
 30
0.000000
  70
    32
  0
VERTEX
  8
0
  5
F60
 10
-0.887222
 20
-1.85732
 30
0.000000
  70
    32
  0
VERTEX
  8
0
  5
F61
 10
-0.889383
 20
-1.85166
 30
0.000000
  70
    32
  0
VERTEX
  8
0
  5
F62
 10
-0.891567
 20
-1.84600
 30
0.000000
  70
    32
  0
VERTEX
  8
0
  5
F63
 10
-0.893775
 20
-1.84033
 30
0.000000
  70
    32
  0
VERTEX
  8
0
  5
F64
 10
-0.896007
 20
-1.83466
 30
0.000000
  70
    32
  0
VERTEX
  8
0
  5
F65
 10
-0.898263
 20
-1.82898
 30
0.000000
  70
    32
  0
VERTEX
  8
0
  5
F66
 10
-0.900543
 20
-1.82331
 30
0.000000
  70
    32
  0
VERTEX
  8
0
  5
F67
 10
-0.902847
 20
-1.81762
 30
0.000000
  70
    32
  0
VERTEX
  8
0
  5
F68
 10
-0.905176
 20
-1.81194
 30
0.000000
  70
    32
  0
VERTEX
  8
0
  5
F69
 10
-0.907529
 20
-1.80624
 30
0.000000
  70
    32
  0
VERTEX
  8
0
  5
F6A
 10
-0.909906
 20
-1.80055
 30
0.000000
  70
    32
  0
VERTEX
  8
0
  5
F6B
 10
-0.912308
 20
-1.79484
 30
0.000000
  70
    32
  0
VERTEX
  8
0
  5
F6C
 10
-0.914734
 20
-1.78914
 30
0.000000
  70
    32
  0
VERTEX
  8
0
  5
F6D
 10
-0.917184
 20
-1.78342
 30
0.000000
  70
    32
  0
VERTEX
  8
0
  5
F6E
 10
-0.919659
 20
-1.77770
 30
0.000000
  70
    32
  0
VERTEX
  8
0
  5
F6F
 10
-0.922159
 20
-1.77198
 30
0.000000
  70
    32
  0
VERTEX
  8
0
  5
F70
 10
-0.924683
 20
-1.76625
 30
0.000000
  70
    32
  0
VERTEX
  8
0
  5
F71
 10
-0.927232
 20
-1.76051
 30
0.000000
  70
    32
  0
VERTEX
  8
0
  5
F72
 10
-0.929806
 20
-1.75477
 30
0.000000
  70
    32
  0
VERTEX
  8
0
  5
F73
 10
-0.932405
 20
-1.74902
 30
0.000000
  70
    32
  0
VERTEX
  8
0
  5
F74
 10
-0.935029
 20
-1.74326
 30
0.000000
  70
    32
  0
VERTEX
  8
0
  5
F75
 10
-0.937678
 20
-1.73749
 30
0.000000
  70
    32
  0
VERTEX
  8
0
  5
F76
 10
-0.940352
 20
-1.73172
 30
0.000000
  70
    32
  0
VERTEX
  8
0
  5
F77
 10
-0.943051
 20
-1.72594
 30
0.000000
  70
    32
  0
VERTEX
  8
0
  5
F78
 10
-0.945775
 20
-1.72015
 30
0.000000
  70
    32
  0
VERTEX
  8
0
  5
F79
 10
-0.948524
 20
-1.71436
 30
0.000000
  70
    32
  0
SEQEND
  8
0
  5
F7A
  0
POLYLINE
  5
BD
  8
0
 66
     1
 10
0.0
 20
0.0
 30
0.0
  0
VERTEX
  5
BE
  8
0
 10
-1.0385898007589269
 20
-1.3027588160443879
 30
0.0
  0
VERTEX
  5
BF
  8
0
 10
-1.044344519971673
 20
-0.9745571314247172
 30
0.0
  0
SEQEND
  5
C0
  8
0
  0
POLYLINE
  5
C1
  8
0
 66
     1
 10
0.0
 20
0.0
 30
0.0
  0
VERTEX
  5
C2
  8
0
 10
-0.7509451848759455
 20
-4.3189624414676473
 30
0.0
  0
VERTEX
  5
C3
  8
0
 10
-0.7743294407241593
 20
-2.9776561411731559
 30
0.0
  0
SEQEND
  5
C4
  8
0
  0
POLYLINE
  5
C5
  8
0
 66
     1
 10
0.0
 20
0.0
 30
0.0
  0
VERTEX
  5
C6
  8
0
 10
-0.7752428882181448
 20
-2.9085995106215701
 30
0.0
  0
VERTEX
  5
C7
  8
0
 10
-0.7798101256885275
 20
-2.6356613993930291
 30
0.0
  0
SEQEND
  5
C8
  8
0
  0
POLYLINE
  5
C9
  8
0
 66
     1
 10
0.0
 20
0.0
 30
0.0
  0
VERTEX
  5
CA
  8
0
 10
-0.7812716416792683
 20
-2.487134836856967
 30
0.0
  0
VERTEX
  5
CB
  8
0
 10
-0.7814543311778835
 20
-2.45676270767899
 30
0.0
  0
SEQEND
  5
CC
  8
0
  0
POLYLINE
  5
CD
  8
0
 66
     1
 10
0.0
 20
0.0
 30
0.0
  0
VERTEX
  5
CE
  8
0
 10
-0.7798101256885275
 20
-2.6356613993930291
 30
0.0
  0
VERTEX
  5
CF
  8
0
 10
-0.7803581941852827
 20
-2.5788906376365039
 30
0.0
  0
SEQEND
  5
D0
  8
0
  0
POLYLINE
  5
D1
  8
0
 66
     1
 10
0.0
 20
0.0
 30
0.0
  0
VERTEX
  5
D2
  8
0
 10
-0.7798101256885275
 20
-2.6356613993930291
 30
0.0
  0
VERTEX
  5
D3
  8
0
 10
-0.7801755046862127
 20
-2.6066594414564861
 30
0.0
  0
VERTEX
  5
D4
  8
0
 10
-0.7807235731829679
 20
-2.5506651100699851
 30
0.0
  0
SEQEND
  5
D5
  8
0
  0
POLYLINE
  5
D6
  8
0
 66
     1
 10
0.0
 20
0.0
 30
0.0
  0
VERTEX
  5
D7
  8
0
 10
-0.7807235731829679
 20
-2.5477420780885041
 30
0.0
  0
VERTEX
  5
D8
  8
0
 10
-0.7809062626815831
 20
-2.487134836856967
 30
0.0
  0
SEQEND
  5
D9
  8
0
  0
POLYLINE
  5
DA
  8
0
 66
     1
 10
0.0
 20
0.0
 30
0.0
  0
VERTEX
  5
DB
  8
0
 10
-0.7807235731829679
 20
-2.5788906376365039
 30
0.0
  0
VERTEX
  5
DC
  8
0
 10
-0.7809062626815831
 20
-2.522028531130672
 30
0.0
  0
VERTEX
  5
DD
  8
0
 10
-0.7814543311778835
 20
-2.4648923903764621
 30
0.0
  0
SEQEND
  5
DE
  8
0
  0
POLYLINE
  8
0
  5
F7B
  66
     1
 10
0.000000
 20
0.000000
 30
0.000000
  70
     8
  0
VERTEX
  8
0
  5
F7C
 10
-0.948524
 20
-1.71436
 30
0.000000
  70
    32
  0
VERTEX
  8
0
  5
F7D
 10
-0.950148
 20
-1.71075
 30
0.000000
  70
    32
  0
VERTEX
  8
0
  5
F7E
 10
-0.951755
 20
-1.70716
 30
0.000000
  70
    32
  0
VERTEX
  8
0
  5
F7F
 10
-0.953345
 20
-1.70359
 30
0.000000
  70
    32
  0
VERTEX
  8
0
  5
F80
 10
-0.954916
 20
-1.70005
 30
0.000000
  70
    32
  0
VERTEX
  8
0
  5
F81
 10
-0.956471
 20
-1.69653
 30
0.000000
  70
    32
  0
VERTEX
  8
0
  5
F82
 10
-0.958008
 20
-1.69303
 30
0.000000
  70
    32
  0
VERTEX
  8
0
  5
F83
 10
-0.959528
 20
-1.68955
 30
0.000000
  70
    32
  0
VERTEX
  8
0
  5
F84
 10
-0.961030
 20
-1.68609
 30
0.000000
  70
    32
  0
VERTEX
  8
0
  5
F85
 10
-0.962515
 20
-1.68265
 30
0.000000
  70
    32
  0
VERTEX
  8
0
  5
F86
 10
-0.963984
 20
-1.67924
 30
0.000000
  70
    32
  0
VERTEX
  8
0
  5
F87
 10
-0.965435
 20
-1.67584
 30
0.000000
  70
    32
  0
VERTEX
  8
0
  5
F88
 10
-0.966869
 20
-1.67246
 30
0.000000
  70
    32
  0
VERTEX
  8
0
  5
F89
 10
-0.968287
 20
-1.66910
 30
0.000000
  70
    32
  0
VERTEX
  8
0
  5
F8A
 10
-0.969688
 20
-1.66576
 30
0.000000
  70
    32
  0
VERTEX
  8
0
  5
F8B
 10
-0.971072
 20
-1.66244
 30
0.000000
  70
    32
  0
VERTEX
  8
0
  5
F8C
 10
-0.972439
 20
-1.65913
 30
0.000000
  70
    32
  0
VERTEX
  8
0
  5
F8D
 10
-0.973790
 20
-1.65584
 30
0.000000
  70
    32
  0
VERTEX
  8
0
  5
F8E
 10
-0.975125
 20
-1.65257
 30
0.000000
  70
    32
  0
VERTEX
  8
0
  5
F8F
 10
-0.976443
 20
-1.64931
 30
0.000000
  70
    32
  0
VERTEX
  8
0
  5
F90
 10
-0.977745
 20
-1.64607
 30
0.000000
  70
    32
  0
VERTEX
  8
0
  5
F91
 10
-0.979031
 20
-1.64285
 30
0.000000
  70
    32
  0
VERTEX
  8
0
  5
F92
 10
-0.980300
 20
-1.63964
 30
0.000000
  70
    32
  0
VERTEX
  8
0
  5
F93
 10
-0.981553
 20
-1.63644
 30
0.000000
  70
    32
  0
VERTEX
  8
0
  5
F94
 10
-0.982791
 20
-1.63326
 30
0.000000
  70
    32
  0
VERTEX
  8
0
  5
F95
 10
-0.984012
 20
-1.63010
 30
0.000000
  70
    32
  0
VERTEX
  8
0
  5
F96
 10
-0.985218
 20
-1.62694
 30
0.000000
  70
    32
  0
VERTEX
  8
0
  5
F97
 10
-0.986407
 20
-1.62380
 30
0.000000
  70
    32
  0
VERTEX
  8
0
  5
F98
 10
-0.987581
 20
-1.62067
 30
0.000000
  70
    32
  0
VERTEX
  8
0
  5
F99
 10
-0.988740
 20
-1.61756
 30
0.000000
  70
    32
  0
VERTEX
  8
0
  5
F9A
 10
-0.989883
 20
-1.61445
 30
0.000000
  70
    32
  0
VERTEX
  8
0
  5
F9B
 10
-0.991010
 20
-1.61136
 30
0.000000
  70
    32
  0
VERTEX
  8
0
  5
F9C
 10
-0.992122
 20
-1.60827
 30
0.000000
  70
    32
  0
VERTEX
  8
0
  5
F9D
 10
-0.993219
 20
-1.60520
 30
0.000000
  70
    32
  0
VERTEX
  8
0
  5
F9E
 10
-0.994300
 20
-1.60214
 30
0.000000
  70
    32
  0
VERTEX
  8
0
  5
F9F
 10
-0.995366
 20
-1.59908
 30
0.000000
  70
    32
  0
VERTEX
  8
0
  5
FA0
 10
-0.996417
 20
-1.59604
 30
0.000000
  70
    32
  0
VERTEX
  8
0
  5
FA1
 10
-0.997454
 20
-1.59301
 30
0.000000
  70
    32
  0
VERTEX
  8
0
  5
FA2
 10
-0.998475
 20
-1.58998
 30
0.000000
  70
    32
  0
VERTEX
  8
0
  5
FA3
 10
-0.999481
 20
-1.58696
 30
0.000000
  70
    32
  0
VERTEX
  8
0
  5
FA4
 10
-1.00047
 20
-1.58395
 30
0.000000
  70
    32
  0
VERTEX
  8
0
  5
FA5
 10
-1.00145
 20
-1.58094
 30
0.000000
  70
    32
  0
VERTEX
  8
0
  5
FA6
 10
-1.00241
 20
-1.57794
 30
0.000000
  70
    32
  0
VERTEX
  8
0
  5
FA7
 10
-1.00336
 20
-1.57495
 30
0.000000
  70
    32
  0
VERTEX
  8
0
  5
FA8
 10
-1.00429
 20
-1.57196
 30
0.000000
  70
    32
  0
VERTEX
  8
0
  5
FA9
 10
-1.00521
 20
-1.56898
 30
0.000000
  70
    32
  0
VERTEX
  8
0
  5
FAA
 10
-1.00611
 20
-1.56601
 30
0.000000
  70
    32
  0
VERTEX
  8
0
  5
FAB
 10
-1.00700
 20
-1.56304
 30
0.000000
  70
    32
  0
VERTEX
  8
0
  5
FAC
 10
-1.00788
 20
-1.56007
 30
0.000000
  70
    32
  0
VERTEX
  8
0
  5
FAD
 10
-1.00874
 20
-1.55710
 30
0.000000
  70
    32
  0
VERTEX
  8
0
  5
FAE
 10
-1.00959
 20
-1.55414
 30
0.000000
  70
    32
  0
VERTEX
  8
0
  5
FAF
 10
-1.01042
 20
-1.55119
 30
0.000000
  70
    32
  0
VERTEX
  8
0
  5
FB0
 10
-1.01124
 20
-1.54823
 30
0.000000
  70
    32
  0
VERTEX
  8
0
  5
FB1
 10
-1.01205
 20
-1.54528
 30
0.000000
  70
    32
  0
VERTEX
  8
0
  5
FB2
 10
-1.01284
 20
-1.54232
 30
0.000000
  70
    32
  0
VERTEX
  8
0
  5
FB3
 10
-1.01362
 20
-1.53937
 30
0.000000
  70
    32
  0
VERTEX
  8
0
  5
FB4
 10
-1.01438
 20
-1.53642
 30
0.000000
  70
    32
  0
VERTEX
  8
0
  5
FB5
 10
-1.01513
 20
-1.53347
 30
0.000000
  70
    32
  0
VERTEX
  8
0
  5
FB6
 10
-1.01587
 20
-1.53052
 30
0.000000
  70
    32
  0
VERTEX
  8
0
  5
FB7
 10
-1.01660
 20
-1.52757
 30
0.000000
  70
    32
  0
VERTEX
  8
0
  5
FB8
 10
-1.01731
 20
-1.52462
 30
0.000000
  70
    32
  0
VERTEX
  8
0
  5
FB9
 10
-1.01801
 20
-1.52167
 30
0.000000
  70
    32
  0
VERTEX
  8
0
  5
FBA
 10
-1.01869
 20
-1.51872
 30
0.000000
  70
    32
  0
VERTEX
  8
0
  5
FBB
 10
-1.01936
 20
-1.51576
 30
0.000000
  70
    32
  0
VERTEX
  8
0
  5
FBC
 10
-1.02002
 20
-1.51280
 30
0.000000
  70
    32
  0
VERTEX
  8
0
  5
FBD
 10
-1.02067
 20
-1.50984
 30
0.000000
  70
    32
  0
VERTEX
  8
0
  5
FBE
 10
-1.02130
 20
-1.50687
 30
0.000000
  70
    32
  0
VERTEX
  8
0
  5
FBF
 10
-1.02192
 20
-1.50390
 30
0.000000
  70
    32
  0
VERTEX
  8
0
  5
FC0
 10
-1.02253
 20
-1.50093
 30
0.000000
  70
    32
  0
VERTEX
  8
0
  5
FC1
 10
-1.02312
 20
-1.49795
 30
0.000000
  70
    32
  0
VERTEX
  8
0
  5
FC2
 10
-1.02370
 20
-1.49496
 30
0.000000
  70
    32
  0
VERTEX
  8
0
  5
FC3
 10
-1.02427
 20
-1.49197
 30
0.000000
  70
    32
  0
VERTEX
  8
0
  5
FC4
 10
-1.02483
 20
-1.48898
 30
0.000000
  70
    32
  0
VERTEX
  8
0
  5
FC5
 10
-1.02538
 20
-1.48598
 30
0.000000
  70
    32
  0
VERTEX
  8
0
  5
FC6
 10
-1.02591
 20
-1.48297
 30
0.000000
  70
    32
  0
VERTEX
  8
0
  5
FC7
 10
-1.02643
 20
-1.47995
 30
0.000000
  70
    32
  0
VERTEX
  8
0
  5
FC8
 10
-1.02694
 20
-1.47693
 30
0.000000
  70
    32
  0
VERTEX
  8
0
  5
FC9
 10
-1.02743
 20
-1.47390
 30
0.000000
  70
    32
  0
VERTEX
  8
0
  5
FCA
 10
-1.02792
 20
-1.47086
 30
0.000000
  70
    32
  0
VERTEX
  8
0
  5
FCB
 10
-1.02839
 20
-1.46781
 30
0.000000
  70
    32
  0
VERTEX
  8
0
  5
FCC
 10
-1.02885
 20
-1.46475
 30
0.000000
  70
    32
  0
VERTEX
  8
0
  5
FCD
 10
-1.02930
 20
-1.46168
 30
0.000000
  70
    32
  0
VERTEX
  8
0
  5
FCE
 10
-1.02974
 20
-1.45860
 30
0.000000
  70
    32
  0
VERTEX
  8
0
  5
FCF
 10
-1.03016
 20
-1.45551
 30
0.000000
  70
    32
  0
VERTEX
  8
0
  5
FD0
 10
-1.03058
 20
-1.45241
 30
0.000000
  70
    32
  0
VERTEX
  8
0
  5
FD1
 10
-1.03098
 20
-1.44930
 30
0.000000
  70
    32
  0
VERTEX
  8
0
  5
FD2
 10
-1.03137
 20
-1.44618
 30
0.000000
  70
    32
  0
VERTEX
  8
0
  5
FD3
 10
-1.03175
 20
-1.44304
 30
0.000000
  70
    32
  0
VERTEX
  8
0
  5
FD4
 10
-1.03212
 20
-1.43990
 30
0.000000
  70
    32
  0
VERTEX
  8
0
  5
FD5
 10
-1.03248
 20
-1.43674
 30
0.000000
  70
    32
  0
VERTEX
  8
0
  5
FD6
 10
-1.03283
 20
-1.43356
 30
0.000000
  70
    32
  0
VERTEX
  8
0
  5
FD7
 10
-1.03316
 20
-1.43037
 30
0.000000
  70
    32
  0
VERTEX
  8
0
  5
FD8
 10
-1.03349
 20
-1.42717
 30
0.000000
  70
    32
  0
VERTEX
  8
0
  5
FD9
 10
-1.03380
 20
-1.42395
 30
0.000000
  70
    32
  0
VERTEX
  8
0
  5
FDA
 10
-1.03411
 20
-1.42072
 30
0.000000
  70
    32
  0
VERTEX
  8
0
  5
FDB
 10
-1.03440
 20
-1.41747
 30
0.000000
  70
    32
  0
VERTEX
  8
0
  5
FDC
 10
-1.03468
 20
-1.41420
 30
0.000000
  70
    32
  0
VERTEX
  8
0
  5
FDD
 10
-1.03495
 20
-1.41092
 30
0.000000
  70
    32
  0
VERTEX
  8
0
  5
FDE
 10
-1.03522
 20
-1.40763
 30
0.000000
  70
    32
  0
VERTEX
  8
0
  5
FDF
 10
-1.03547
 20
-1.40431
 30
0.000000
  70
    32
  0
VERTEX
  8
0
  5
FE0
 10
-1.03571
 20
-1.40098
 30
0.000000
  70
    32
  0
VERTEX
  8
0
  5
FE1
 10
-1.03594
 20
-1.39763
 30
0.000000
  70
    32
  0
VERTEX
  8
0
  5
FE2
 10
-1.03616
 20
-1.39426
 30
0.000000
  70
    32
  0
VERTEX
  8
0
  5
FE3
 10
-1.03637
 20
-1.39087
 30
0.000000
  70
    32
  0
VERTEX
  8
0
  5
FE4
 10
-1.03657
 20
-1.38746
 30
0.000000
  70
    32
  0
VERTEX
  8
0
  5
FE5
 10
-1.03676
 20
-1.38403
 30
0.000000
  70
    32
  0
VERTEX
  8
0
  5
FE6
 10
-1.03694
 20
-1.38058
 30
0.000000
  70
    32
  0
VERTEX
  8
0
  5
FE7
 10
-1.03711
 20
-1.37711
 30
0.000000
  70
    32
  0
VERTEX
  8
0
  5
FE8
 10
-1.03727
 20
-1.37362
 30
0.000000
  70
    32
  0
VERTEX
  8
0
  5
FE9
 10
-1.03742
 20
-1.37011
 30
0.000000
  70
    32
  0
VERTEX
  8
0
  5
FEA
 10
-1.03756
 20
-1.36658
 30
0.000000
  70
    32
  0
VERTEX
  8
0
  5
FEB
 10
-1.03770
 20
-1.36302
 30
0.000000
  70
    32
  0
VERTEX
  8
0
  5
FEC
 10
-1.03782
 20
-1.35945
 30
0.000000
  70
    32
  0
VERTEX
  8
0
  5
FED
 10
-1.03793
 20
-1.35584
 30
0.000000
  70
    32
  0
VERTEX
  8
0
  5
FEE
 10
-1.03804
 20
-1.35222
 30
0.000000
  70
    32
  0
VERTEX
  8
0
  5
FEF
 10
-1.03813
 20
-1.34857
 30
0.000000
  70
    32
  0
VERTEX
  8
0
  5
FF0
 10
-1.03822
 20
-1.34490
 30
0.000000
  70
    32
  0
VERTEX
  8
0
  5
FF1
 10
-1.03830
 20
-1.34120
 30
0.000000
  70
    32
  0
VERTEX
  8
0
  5
FF2
 10
-1.03837
 20
-1.33748
 30
0.000000
  70
    32
  0
VERTEX
  8
0
  5
FF3
 10
-1.03842
 20
-1.33373
 30
0.000000
  70
    32
  0
VERTEX
  8
0
  5
FF4
 10
-1.03848
 20
-1.32995
 30
0.000000
  70
    32
  0
VERTEX
  8
0
  5
FF5
 10
-1.03852
 20
-1.32615
 30
0.000000
  70
    32
  0
VERTEX
  8
0
  5
FF6
 10
-1.03855
 20
-1.32232
 30
0.000000
  70
    32
  0
VERTEX
  8
0
  5
FF7
 10
-1.03858
 20
-1.31846
 30
0.000000
  70
    32
  0
VERTEX
  8
0
  5
FF8
 10
-1.03859
 20
-1.31458
 30
0.000000
  70
    32
  0
VERTEX
  8
0
  5
FF9
 10
-1.03860
 20
-1.31067
 30
0.000000
  70
    32
  0
VERTEX
  8
0
  5
FFA
 10
-1.03860
 20
-1.30673
 30
0.000000
  70
    32
  0
VERTEX
  8
0
  5
FFB
 10
-1.03859
 20
-1.30276
 30
0.000000
  70
    32
  0
SEQEND
  8
0
  5
FFC
  0
POLYLINE
  5
E0
  8
0
 66
     1
 10
0.0
 20
0.0
 30
0.0
  0
VERTEX
  5
E1
  8
0
 10
-0.6718406318896087
 20
-2.9655072895020562
 30
0.0
  0
VERTEX
  5
E2
  8
0
 10
-0.7626373128000524
 20
-2.9655072895020562
 30
0.0
  0
SEQEND
  5
E3
  8
0
  0
POLYLINE
  5
E4
  8
0
 66
     1
 10
0.0
 20
0.0
 30
0.0
  0
VERTEX
  5
E5
  8
0
 10
-0.7096573581438861
 20
-2.9377841580571831
 30
0.0
  0
VERTEX
  5
E6
  8
0
 10
-0.7451904656631996
 20
-2.9377841580571831
 30
0.0
  0
SEQEND
  5
E7
  8
0
  0
POLYLINE
  5
E8
  8
0
 66
     1
 10
0.0
 20
0.0
 30
0.0
  0
VERTEX
  5
E9
  8
0
 10
-1.10682432856629
 20
-0.9438652956237092
 30
0.0
  0
VERTEX
  5
EA
  8
0
 10
-1.031099531307518
 20
-0.9466056381061208
 30
0.0
  0
SEQEND
  5
EB
  8
0
  0
POLYLINE
  5
EC
  8
0
 66
     1
 10
0.0
 20
0.0
 30
0.0
  0
VERTEX
  5
ED
  8
0
 10
-1.10682432856629
 20
-0.9438652956237092
 30
0.0
  0
VERTEX
  5
EE
  8
0
 10
-1.1104781185422321
 20
-0.9437739508744016
 30
0.0
  0
SEQEND
  5
EF
  8
0
  0
POLYLINE
  5
F0
  8
0
 66
     1
 10
0.0
 20
0.0
 30
0.0
  0
VERTEX
  5
F1
  8
0
 10
-0.6727540793835943
 20
-2.957560296303654
 30
0.0
  0
VERTEX
  5
F2
  8
0
 10
0.0
 20
-2.957560296303654
 30
0.0
  0
SEQEND
  5
F3
  8
0
  0
POLYLINE
  5
F4
  8
0
 66
     1
 10
0.0
 20
0.0
 30
0.0
  0
VERTEX
  5
14D
  8
0
 10
-3.2500000000004539
 20
0.0
 30
0.0
  0
VERTEX
  5
14E
  8
0
 10
0.0
 20
0.0
 30
0.0
  0
VERTEX
  5
14F
  8
0
 10
3.2500000000004539
 20
0.0
 30
0.0
  0
SEQEND
  5
150
  8
0
  0
POLYLINE
  5
F5
  8
0
 66
     1
 10
0.0
 20
0.0
 30
0.0
  0
VERTEX
  5
151
  8
0
 10
3.2192168194501392
 20
-0.6538913886311093
 30
0.0
  0
VERTEX
  5
152
  8
0
 10
-0.0000000000004547
 20
-0.6538913886311093
 30
0.0
  0
VERTEX
  5
153
  8
0
 10
-3.2192168194501392
 20
-0.6538913886311093
 30
0.0
  0
SEQEND
  5
154
  8
0
  0
POLYLINE
  5
F6
  8
0
 66
     1
 10
0.0
 20
0.0
 30
0.0
  0
VERTEX
  5
155
  8
0
 10
-2.6802827979481658
 20
-0.7925527182310362
 30
0.0
  0
VERTEX
  5
156
  8
0
 10
0.0000000000004547
 20
-0.7925527182310362
 30
0.0
  0
VERTEX
  5
157
  8
0
 10
2.6802827979481658
 20
-0.7925527182310362
 30
0.0
  0
SEQEND
  5
158
  8
0
  0
POLYLINE
  5
F7
  8
0
 66
     1
 10
0.0
 20
0.0
 30
0.0
  0
VERTEX
  5
159
  8
0
 10
-0.6785087985963401
 20
-2.965964013249049
 30
0.0
  0
VERTEX
  5
15A
  8
0
 10
0.0000000000004547
 20
-2.965964013249049
 30
0.0
  0
VERTEX
  5
15B
  8
0
 10
0.6785087985963401
 20
-2.965964013249049
 30
0.0
  0
SEQEND
  5
15C
  8
0
  0
ATTDEF
  5
F8
  8
DEFPOINTS
 10
0.0
 20
-0.005
 30
0.0
 40
0.001
  1
BRASS
  3

  2
MATERIAL
 70
     8
1001
AcDbAttr
1070
     0
1070
     1
  0
ATTDEF
  5
FA
  8
DEFPOINTS
 10
0.0
 20
-0.0033333333333333
 30
0.0
 40
0.001
  1
RITE-TEMP VALVE TRIM WITH DIVERTER
  3

  2
PRODUCT
 70
     8
1001
AcDbAttr
1070
     0
1070
     1
  0
ATTDEF
  5
FB
  8
DEFPOINTS
 10
0.0
 20
-0.0016666666666667
 30
0.0
 40
0.001
  1
TOOBI
  3

  2
TRADENAME
 70
     8
1001
AcDbAttr
1070
     0
1070
     1
  0
ATTDEF
  5
FC
  8
DEFPOINTS
 10
0.0
 20
0.0
 30
0.0
 40
0.001
  1
K-T8979-4
  3

  2
MODELNUMBER
 70
     8
1001
AcDbAttr
1070
     0
1070
     1
  0
ENDSEC
  0
EOF
