  0
SECTION
  2
HEADER
  9
$ACADVER
  1
AC1015
  9
$ACADMAINTVER
 70
    13
  9
$DWGCODEPAGE
  3
ANSI_1252
  9
$INSBASE
 10
0.0
 20
0.0
 30
0.0
  9
$EXTMIN
 10
-2.999191727850711
 20
-39.9991917278507
 30
0.0
  9
$EXTMAX
 10
2.999191727850711
 20
1.062857142857154
 30
0.0000000000000177
  9
$LIMMIN
 10
0.0
 20
0.0
  9
$LIMMAX
 10
12.0
 20
9.0
  9
$ORTHOMODE
 70
     0
  9
$REGENMODE
 70
     1
  9
$FILLMODE
 70
     1
  9
$QTEXTMODE
 70
     0
  9
$MIRRTEXT
 70
     1
  9
$LTSCALE
 40
1.0
  9
$ATTMODE
 70
     1
  9
$TEXTSIZE
 40
0.2
  9
$TRACEWID
 40
0.05
  9
$TEXTSTYLE
  7
STANDARD
  9
$CLAYER
  8
0
  9
$CELTYPE
  6
ByLayer
  9
$CECOLOR
 62
   256
  9
$CELTSCALE
 40
1.0
  9
$DISPSILH
 70
     0
  9
$DIMSCALE
 40
1.0
  9
$DIMASZ
 40
0.18
  9
$DIMEXO
 40
0.0625
  9
$DIMDLI
 40
0.38
  9
$DIMRND
 40
0.0
  9
$DIMDLE
 40
0.0
  9
$DIMEXE
 40
0.18
  9
$DIMTP
 40
0.0
  9
$DIMTM
 40
0.0
  9
$DIMTXT
 40
0.18
  9
$DIMCEN
 40
0.09
  9
$DIMTSZ
 40
0.0
  9
$DIMTOL
 70
     0
  9
$DIMLIM
 70
     0
  9
$DIMTIH
 70
     1
  9
$DIMTOH
 70
     1
  9
$DIMSE1
 70
     0
  9
$DIMSE2
 70
     0
  9
$DIMTAD
 70
     0
  9
$DIMZIN
 70
     0
  9
$DIMBLK
  1

  9
$DIMASO
 70
     1
  9
$DIMSHO
 70
     1
  9
$DIMPOST
  1

  9
$DIMAPOST
  1

  9
$DIMALT
 70
     0
  9
$DIMALTD
 70
     2
  9
$DIMALTF
 40
25.4
  9
$DIMLFAC
 40
1.0
  9
$DIMTOFL
 70
     0
  9
$DIMTVP
 40
0.0
  9
$DIMTIX
 70
     0
  9
$DIMSOXD
 70
     0
  9
$DIMSAH
 70
     0
  9
$DIMBLK1
  1

  9
$DIMBLK2
  1

  9
$DIMSTYLE
  2
Standard
  9
$DIMCLRD
 70
     0
  9
$DIMCLRE
 70
     0
  9
$DIMCLRT
 70
     0
  9
$DIMTFAC
 40
1.0
  9
$DIMGAP
 40
0.09
  9
$DIMJUST
 70
     0
  9
$DIMSD1
 70
     0
  9
$DIMSD2
 70
     0
  9
$DIMTOLJ
 70
     1
  9
$DIMTZIN
 70
     0
  9
$DIMALTZ
 70
     0
  9
$DIMALTTZ
 70
     0
  9
$DIMUPT
 70
     0
  9
$DIMDEC
 70
     4
  9
$DIMTDEC
 70
     4
  9
$DIMALTU
 70
     2
  9
$DIMALTTD
 70
     2
  9
$DIMTXSTY
  7
STANDARD
  9
$DIMAUNIT
 70
     0
  9
$DIMADEC
 70
     0
  9
$DIMALTRND
 40
0.0
  9
$DIMAZIN
 70
     0
  9
$DIMDSEP
 70
    46
  9
$DIMATFIT
 70
     3
  9
$DIMFRAC
 70
     0
  9
$DIMLDRBLK
  1

  9
$DIMLUNIT
 70
     2
  9
$DIMLWD
 70
    -2
  9
$DIMLWE
 70
    -2
  9
$DIMTMOVE
 70
     2
  9
$LUNITS
 70
     2
  9
$LUPREC
 70
     4
  9
$SKETCHINC
 40
0.1
  9
$FILLETRAD
 40
2.5
  9
$AUNITS
 70
     0
  9
$AUPREC
 70
     0
  9
$MENU
  1
acad
  9
$ELEVATION
 40
0.0
  9
$PELEVATION
 40
0.0
  9
$THICKNESS
 40
0.0
  9
$LIMCHECK
 70
     0
  9
$CHAMFERA
 40
0.0
  9
$CHAMFERB
 40
0.0
  9
$CHAMFERC
 40
0.0
  9
$CHAMFERD
 40
0.0
  9
$SKPOLY
 70
     0
  9
$TDCREATE
 40
2449695.602354976
  9
$TDUCREATE
 40
2449695.852354976
  9
$TDUPDATE
 40
2453066.687130347
  9
$TDUUPDATE
 40
2453066.937130347
  9
$TDINDWG
 40
0.0310046412
  9
$TDUSRTIMER
 40
0.0310046412
  9
$USRTIMER
 70
     1
  9
$ANGBASE
 50
0.0
  9
$ANGDIR
 70
     0
  9
$PDMODE
 70
     3
  9
$PDSIZE
 40
0.0
  9
$PLINEWID
 40
0.0
  9
$SPLFRAME
 70
     1
  9
$SPLINETYPE
 70
     6
  9
$SPLINESEGS
 70
     8
  9
$HANDSEED
  5
96
  9
$SURFTAB1
 70
    12
  9
$SURFTAB2
 70
     6
  9
$SURFTYPE
 70
     6
  9
$SURFU
 70
     6
  9
$SURFV
 70
     6
  9
$UCSBASE
  2

  9
$UCSNAME
  2

  9
$UCSORG
 10
0.0
 20
0.0
 30
0.0
  9
$UCSXDIR
 10
1.0
 20
0.0
 30
0.0
  9
$UCSYDIR
 10
0.0
 20
1.0
 30
0.0
  9
$UCSORTHOREF
  2

  9
$UCSORTHOVIEW
 70
     1
  9
$UCSORGTOP
 10
0.0
 20
0.0
 30
0.0
  9
$UCSORGBOTTOM
 10
0.0
 20
0.0
 30
0.0
  9
$UCSORGLEFT
 10
0.0
 20
0.0
 30
0.0
  9
$UCSORGRIGHT
 10
0.0
 20
0.0
 30
0.0
  9
$UCSORGFRONT
 10
0.0
 20
0.0
 30
0.0
  9
$UCSORGBACK
 10
0.0
 20
0.0
 30
0.0
  9
$PUCSBASE
  2

  9
$PUCSNAME
  2

  9
$PUCSORG
 10
0.0
 20
0.0
 30
0.0
  9
$PUCSXDIR
 10
1.0
 20
0.0
 30
0.0
  9
$PUCSYDIR
 10
0.0
 20
1.0
 30
0.0
  9
$PUCSORTHOREF
  2

  9
$PUCSORTHOVIEW
 70
     0
  9
$PUCSORGTOP
 10
0.0
 20
0.0
 30
0.0
  9
$PUCSORGBOTTOM
 10
0.0
 20
0.0
 30
0.0
  9
$PUCSORGLEFT
 10
0.0
 20
0.0
 30
0.0
  9
$PUCSORGRIGHT
 10
0.0
 20
0.0
 30
0.0
  9
$PUCSORGFRONT
 10
0.0
 20
0.0
 30
0.0
  9
$PUCSORGBACK
 10
0.0
 20
0.0
 30
0.0
  9
$USERI1
 70
     0
  9
$USERI2
 70
     0
  9
$USERI3
 70
     0
  9
$USERI4
 70
     0
  9
$USERI5
 70
     0
  9
$USERR1
 40
0.0
  9
$USERR2
 40
0.0
  9
$USERR3
 40
0.0
  9
$USERR4
 40
0.0
  9
$USERR5
 40
0.0
  9
$WORLDVIEW
 70
     1
  9
$SHADEDGE
 70
     3
  9
$SHADEDIF
 70
    70
  9
$TILEMODE
 70
     1
  9
$MAXACTVP
 70
    16
  9
$PINSBASE
 10
0.0
 20
0.0
 30
2.071405419302362
  9
$PLIMCHECK
 70
     0
  9
$PEXTMIN
 10
1.000000000000000E+20
 20
1.000000000000000E+20
 30
1.000000000000000E+20
  9
$PEXTMAX
 10
-1.000000000000000E+20
 20
-1.000000000000000E+20
 30
-1.000000000000000E+20
  9
$PLIMMIN
 10
0.0
 20
0.0
  9
$PLIMMAX
 10
12.0
 20
9.0
  9
$UNITMODE
 70
     0
  9
$VISRETAIN
 70
     0
  9
$PLINEGEN
 70
     0
  9
$PSLTSCALE
 70
     0
  9
$TREEDEPTH
 70
  3020
  9
$CMLSTYLE
  2
Standard
  9
$CMLJUST
 70
     0
  9
$CMLSCALE
 40
1.0
  9
$PROXYGRAPHICS
 70
     1
  9
$MEASUREMENT
 70
     0
  9
$CELWEIGHT
370
    -1
  9
$ENDCAPS
280
     0
  9
$JOINSTYLE
280
     0
  9
$LWDISPLAY
290
     0
  9
$INSUNITS
 70
     0
  9
$HYPERLINKBASE
  1

  9
$STYLESHEET
  1

  9
$XEDIT
290
     1
  9
$CEPSNTYPE
380
     0
  9
$PSTYLEMODE
290
     1
  9
$FINGERPRINTGUID
  2
{C79C8D29-4F87-4DE2-96DC-2841E38B4155}
  9
$VERSIONGUID
  2
{EC101DD1-317E-4644-9D4D-6B3E46CE28C0}
  9
$EXTNAMES
290
     1
  9
$PSVPSCALE
 40
0.0
  9
$OLESTARTUP
290
     0
  0
ENDSEC
  0
SECTION
  2
CLASSES
  0
CLASS
  1
ACDBDICTIONARYWDFLT
  2
AcDbDictionaryWithDefault
  3
AutoCAD 2000
 90
        0
280
     0
281
     0
  0
CLASS
  1
ACDBPLACEHOLDER
  2
AcDbPlaceHolder
  3
AutoCAD 2000
 90
        0
280
     0
281
     0
  0
CLASS
  1
LAYOUT
  2
AcDbLayout
  3
AutoCAD 2000
 90
        0
280
     0
281
     0
  0
CLASS
  1
DICTIONARYVAR
  2
AcDbDictionaryVar
  3
AutoCAD 2000
 90
        0
280
     0
281
     0
  0
ENDSEC
  0
SECTION
  2
TABLES
  0
TABLE
  2
VPORT
  5
19
330
0
100
AcDbSymbolTable
 70
     2
  0
VPORT
  5
95
330
19
100
AcDbSymbolTableRecord
100
AcDbViewportTableRecord
  2
*Active
 70
     0
 10
0.0
 20
0.0
 11
1.0
 21
1.0
 12
5.47441194382003
 22
-61.1732454499187
 13
0.0
 23
0.0
 14
1.0
 24
1.0
 15
0.0
 25
0.0
 16
0.0
 26
0.0
 36
1.0
 17
-3.996939240609007
 27
37.54108352301266
 37
25.27283206418854
 40
58.14944886545337
 41
2.058568329718004
 42
50.0
 43
0.0
 44
0.0
 50
0.0
 51
0.0
 71
     0
 72
   100
 73
     1
 74
     0
 75
     0
 76
     0
 77
     0
 78
     0
281
     0
 65
     1
110
0.0
120
0.0
130
0.0
111
1.0
121
0.0
131
0.0
112
0.0
122
1.0
132
0.0
 79
     1
146
0.0
  0
ENDTAB
  0
TABLE
  2
LTYPE
  5
14
330
0
100
AcDbSymbolTable
 70
     1
  0
LTYPE
  5
15
330
14
100
AcDbSymbolTableRecord
100
AcDbLinetypeTableRecord
  2
ByBlock
 70
     0
  3

 72
    65
 73
     0
 40
0.0
  0
LTYPE
  5
16
330
14
100
AcDbSymbolTableRecord
100
AcDbLinetypeTableRecord
  2
ByLayer
 70
     0
  3

 72
    65
 73
     0
 40
0.0
  0
LTYPE
  5
8
330
14
100
AcDbSymbolTableRecord
100
AcDbLinetypeTableRecord
  2
CONTINUOUS
 70
     0
  3
Solid line
 72
    65
 73
     0
 40
0.0
  0
ENDTAB
  0
TABLE
  2
LAYER
  5
10
102
{ACAD_XDICTIONARY
360
79
102
}
330
0
100
AcDbSymbolTable
 70
     1
  0
LAYER
  5
4
330
10
100
AcDbSymbolTableRecord
100
AcDbLayerTableRecord
  2
0
 70
     0
 62
     7
  6
CONTINUOUS
370
    -3
390
5
  0
ENDTAB
  0
TABLE
  2
STYLE
  5
11
330
0
100
AcDbSymbolTable
 70
     1
  0
STYLE
  5
12
330
11
100
AcDbSymbolTableRecord
100
AcDbTextStyleTableRecord
  2
STANDARD
 70
     0
 40
0.0
 41
1.0
 50
0.0
 71
     0
 42
0.2
  3
txt
  4

  0
ENDTAB
  0
TABLE
  2
VIEW
  5
17
330
0
100
AcDbSymbolTable
 70
     0
  0
ENDTAB
  0
TABLE
  2
UCS
  5
18
330
0
100
AcDbSymbolTable
 70
     0
  0
ENDTAB
  0
TABLE
  2
APPID
  5
1B
330
0
100
AcDbSymbolTable
 70
     1
  0
APPID
  5
1C
330
1B
100
AcDbSymbolTableRecord
100
AcDbRegAppTableRecord
  2
ACAD
 70
     0
  0
ENDTAB
  0
TABLE
  2
DIMSTYLE
  5
1D
330
0
100
AcDbSymbolTable
 70
     1
100
AcDbDimStyleTable
 71
     0
  0
DIMSTYLE
105
23
330
1D
100
AcDbSymbolTableRecord
100
AcDbDimStyleTableRecord
  2
Standard
 70
     0
340
12
  0
ENDTAB
  0
TABLE
  2
BLOCK_RECORD
  5
1
330
0
100
AcDbSymbolTable
 70
     0
  0
BLOCK_RECORD
  5
2
330
1
100
AcDbSymbolTableRecord
100
AcDbBlockTableRecord
  2
*Model_Space
340
A
  0
BLOCK_RECORD
  5
C
330
1
100
AcDbSymbolTableRecord
100
AcDbBlockTableRecord
  2
*Paper_Space
340
F
  0
ENDTAB
  0
ENDSEC
  0
SECTION
  2
BLOCKS
  0
BLOCK
  5
3
330
2
100
AcDbEntity
  8
0
 62
     1
100
AcDbBlockBegin
  2
*Model_Space
 70
     0
 10
0.0
 20
0.0
 30
0.0
  3
*Model_Space
  1

  0
ENDBLK
  5
9
330
2
100
AcDbEntity
  8
0
 62
     1
100
AcDbBlockEnd
  0
BLOCK
  5
D
330
C
100
AcDbEntity
 67
     1
  8
0
 62
     1
100
AcDbBlockBegin
  2
*Paper_Space
 70
     0
 10
0.0
 20
0.0
 30
0.0
  3
*Paper_Space
  1

  0
ENDBLK
  5
E
330
C
100
AcDbEntity
 67
     1
  8
0
 62
     1
100
AcDbBlockEnd
  0
ENDSEC
  0
SECTION
  2
ENTITIES
  0
ARC
  5
24
330
2
100
AcDbEntity
  8
0
  6
ByBlock
 62
     0
100
AcDbCircle
 10
0.0
 20
0.0
 30
0.0
 40
1.062857142857154
100
AcDbArc
 50
290.6189081426627
 51
249.3810918573376
  0
LINE
  5
25
330
2
100
AcDbEntity
  8
0
  6
ByBlock
 62
     0
100
AcDbLine
 10
0.374285714285719
 20
-3.519999999999996
 30
0.0000000000000016
 11
0.374285714285719
 21
0.0
 31
0.0
  0
LINE
  5
26
330
2
100
AcDbEntity
  8
0
  6
ByBlock
 62
     0
100
AcDbLine
 10
-0.3742857142857119
 20
0.0
 30
0.0
 11
-0.3742857142857119
 21
-3.519999999999996
 31
0.0000000000000016
  0
LINE
  5
27
330
2
100
AcDbEntity
  8
0
  6
ByBlock
 62
     0
100
AcDbLine
 10
0.3085714285714332
 20
-35.83428571428571
 30
0.0000000000000159
 11
0.3085714285714332
 21
-39.83428571428571
 31
0.0000000000000177
  0
LINE
  5
28
330
2
100
AcDbEntity
  8
0
  6
ByBlock
 62
     0
100
AcDbLine
 10
-0.3171428571428549
 20
-35.83428571428571
 30
0.0000000000000159
 11
-0.3171428571428549
 21
-39.83428571428571
 31
0.0000000000000177
  0
CIRCLE
  5
29
330
2
100
AcDbEntity
  8
0
  6
ByBlock
 62
     0
100
AcDbCircle
 10
0.0
 20
-36.99999999999999
 30
0.0000000000000164
 40
2.999191727850711
  0
ARC
  5
2A
330
2
100
AcDbEntity
  8
0
  6
ByBlock
 62
     0
100
AcDbCircle
 10
0.0
 20
-37.0
 30
0.0000000000000164
 40
2.75165553136022
100
AcDbArc
 50
276.4387082304399
 51
263.3816499823733
  0
ARC
  5
2B
330
2
100
AcDbEntity
  8
0
  6
ByBlock
 62
     0
100
AcDbCircle
 10
0.0
 20
-36.99999999999999
 30
0.0000000000000164
 40
2.375878784786794
100
AcDbArc
 50
277.4624705620602
 51
262.3290082799771
  0
ARC
  5
2C
330
2
100
AcDbEntity
  8
0
  6
ByBlock
 62
     0
100
AcDbCircle
 10
0.0
 20
-37.0
 30
0.0000000000000164
 40
1.248548545066534
100
AcDbArc
 50
284.3085799033037
 51
255.2851145626197
  0
LINE
  5
2D
330
2
100
AcDbEntity
  8
0
  6
ByBlock
 62
     0
100
AcDbLine
 10
-0.3171428571428549
 20
-39.83428571428571
 30
0.0000000000000177
 11
0.3085714285714332
 21
-39.83428571428571
 31
0.0000000000000177
  0
LINE
  5
2E
330
2
100
AcDbEntity
  8
0
  6
ByBlock
 62
     0
100
AcDbLine
 10
-0.3171428571428549
 20
-35.83428571428571
 30
0.0000000000000159
 11
0.3085714285714332
 21
-35.83428571428571
 31
0.0000000000000159
  0
LINE
  5
2F
330
2
100
AcDbEntity
  8
0
  6
ByBlock
 62
     0
100
AcDbLine
 10
-0.3799999999999954
 20
-3.522857142857134
 30
0.0000000000000016
 11
-0.2199999999999989
 21
-3.437142857142845
 31
0.0000000000000015
  0
LINE
  5
30
330
2
100
AcDbEntity
  8
0
  6
ByBlock
 62
     0
100
AcDbLine
 10
-0.5399999999999921
 20
-4.214285714285708
 30
0.0000000000000019
 11
-0.3114285714285643
 21
-4.094285714285717
 31
0.0000000000000018
  0
LINE
  5
31
330
2
100
AcDbEntity
  8
0
  6
ByBlock
 62
     0
100
AcDbLine
 10
-0.3799999999999954
 20
-4.051428571428573
 30
0.0000000000000018
 11
-0.2199999999999989
 21
-3.965714285714284
 31
0.0000000000000018
  0
LINE
  5
32
330
2
100
AcDbEntity
  8
0
  6
ByBlock
 62
     0
100
AcDbLine
 10
0.0
 20
-6.842857142857141
 30
0.000000000000003
 11
-0.625714285714281
 21
-6.754285714285714
 31
0.000000000000003
  0
LINE
  5
33
330
2
100
AcDbEntity
  8
0
  6
ByBlock
 62
     0
100
AcDbLine
 10
-0.625714285714281
 20
-5.608571428571423
 30
0.0000000000000025
 11
0.0
 21
-5.519999999999996
 31
0.0000000000000025
  0
LINE
  5
34
330
2
100
AcDbEntity
  8
0
  6
ByBlock
 62
     0
100
AcDbLine
 10
-0.4371428571428524
 20
-4.162857142857149
 30
0.0000000000000018
 11
-0.4371428571428524
 21
-3.637142857142862
 31
0.0000000000000016
  0
LINE
  5
35
330
2
100
AcDbEntity
  8
0
  6
ByBlock
 62
     0
100
AcDbLine
 10
-1.248571428571423
 20
-6.18285714285713
 30
0.0000000000000027
 11
-0.625714285714281
 21
-4.379999999999995
 31
0.0000000000000019
  0
LINE
  5
36
330
2
100
AcDbEntity
  8
0
  6
ByBlock
 62
     0
100
AcDbLine
 10
-1.248571428571423
 20
-6.18285714285713
 30
0.0000000000000027
 11
-1.082857142857136
 21
-5.85142857142857
 31
0.0000000000000026
  0
LINE
  5
37
330
2
100
AcDbEntity
  8
0
  6
ByBlock
 62
     0
100
AcDbLine
 10
-1.082857142857136
 20
-6.514285714285705
 30
0.0000000000000029
 11
-1.248571428571423
 21
-6.18285714285713
 31
0.0000000000000027
  0
LINE
  5
38
330
2
100
AcDbEntity
  8
0
  6
ByBlock
 62
     0
100
AcDbLine
 10
-1.082857142857136
 20
-5.85142857142857
 30
0.0000000000000026
 11
-0.625714285714281
 21
-5.608571428571423
 31
0.0000000000000025
  0
LINE
  5
39
330
2
100
AcDbEntity
  8
0
  6
ByBlock
 62
     0
100
AcDbLine
 10
-0.625714285714281
 20
-6.754285714285714
 30
0.000000000000003
 11
-1.082857142857136
 21
-6.514285714285705
 31
0.0000000000000029
  0
LINE
  5
3A
330
2
100
AcDbEntity
  8
0
  6
ByBlock
 62
     0
100
AcDbLine
 10
-0.625714285714281
 20
-4.379999999999995
 30
0.0000000000000019
 11
-0.5399999999999921
 21
-4.214285714285708
 31
0.0000000000000019
  0
LINE
  5
3B
330
2
100
AcDbEntity
  8
0
  6
ByBlock
 62
     0
100
AcDbLine
 10
-0.4342857142857071
 20
-4.159999999999996
 30
0.0000000000000018
 11
-0.3799999999999954
 21
-4.051428571428573
 31
0.0000000000000018
  0
LINE
  5
3C
330
2
100
AcDbEntity
  8
0
  6
ByBlock
 62
     0
100
AcDbLine
 10
-0.4371428571428524
 20
-3.637142857142862
 30
0.0000000000000016
 11
-0.3799999999999954
 21
-3.522857142857134
 31
0.0000000000000016
  0
LINE
  5
3D
330
2
100
AcDbEntity
  8
0
  6
ByBlock
 62
     0
100
AcDbLine
 10
0.4371428571428595
 20
-4.162857142857149
 30
0.0000000000000018
 11
0.4371428571428595
 21
-3.637142857142862
 31
0.0000000000000016
  0
LINE
  5
3E
330
2
100
AcDbEntity
  8
0
  6
ByBlock
 62
     0
100
AcDbLine
 10
1.24857142857143
 20
-6.18285714285713
 30
0.0000000000000027
 11
0.6257142857142881
 21
-4.379999999999995
 31
0.0000000000000019
  0
LINE
  5
3F
330
2
100
AcDbEntity
  8
0
  6
ByBlock
 62
     0
100
AcDbLine
 10
0.0
 20
-5.519999999999996
 30
0.0000000000000025
 11
0.6257142857142881
 21
-5.608571428571423
 31
0.0000000000000025
  0
LINE
  5
40
330
2
100
AcDbEntity
  8
0
  6
ByBlock
 62
     0
100
AcDbLine
 10
0.6257142857142881
 20
-6.754285714285714
 30
0.000000000000003
 11
0.0
 21
-6.842857142857141
 31
0.000000000000003
  0
LINE
  5
41
330
2
100
AcDbEntity
  8
0
  6
ByBlock
 62
     0
100
AcDbLine
 10
0.0
 20
-6.04857142857142
 30
0.0000000000000027
 11
0.1257142857142881
 21
-6.065714285714278
 31
0.0000000000000027
  0
LINE
  5
42
330
2
100
AcDbEntity
  8
0
  6
ByBlock
 62
     0
100
AcDbLine
 10
0.1257142857142881
 20
-6.065714285714278
 30
0.0000000000000027
 11
0.2171428571428606
 21
-6.114285714285713
 31
0.0000000000000027
  0
LINE
  5
43
330
2
100
AcDbEntity
  8
0
  6
ByBlock
 62
     0
100
AcDbLine
 10
0.2171428571428606
 20
-6.114285714285713
 30
0.0000000000000027
 11
0.2485714285714309
 21
-6.18285714285713
 31
0.0000000000000027
  0
LINE
  5
44
330
2
100
AcDbEntity
  8
0
  6
ByBlock
 62
     0
100
AcDbLine
 10
0.0
 20
-6.368571428571428
 30
0.0000000000000028
 11
0.1257142857142881
 21
-6.385714285714271
 31
0.0000000000000028
  0
LINE
  5
45
330
2
100
AcDbEntity
  8
0
  6
ByBlock
 62
     0
100
AcDbLine
 10
0.2171428571428606
 20
-6.434285714285721
 30
0.0000000000000029
 11
0.1257142857142881
 21
-6.385714285714271
 31
0.0000000000000028
  0
LINE
  5
46
330
2
100
AcDbEntity
  8
0
  6
ByBlock
 62
     0
100
AcDbLine
 10
0.2171428571428606
 20
-6.434285714285721
 30
0.0000000000000029
 11
0.2485714285714309
 21
-6.5
 31
0.0000000000000029
  0
LINE
  5
47
330
2
100
AcDbEntity
  8
0
  6
ByBlock
 62
     0
100
AcDbLine
 10
0.2485714285714309
 20
-6.5
 30
0.0000000000000029
 11
0.2171428571428606
 21
-6.565714285714278
 31
0.0000000000000029
  0
LINE
  5
48
330
2
100
AcDbEntity
  8
0
  6
ByBlock
 62
     0
100
AcDbLine
 10
0.1257142857142881
 20
-6.614285714285713
 30
0.0000000000000029
 11
0.2171428571428606
 21
-6.565714285714278
 31
0.0000000000000029
  0
LINE
  5
49
330
2
100
AcDbEntity
  8
0
  6
ByBlock
 62
     0
100
AcDbLine
 10
0.0
 20
-6.631428571428557
 30
0.0000000000000029
 11
0.1257142857142881
 21
-6.614285714285713
 31
0.0000000000000029
  0
LINE
  5
4A
330
2
100
AcDbEntity
  8
0
  6
ByBlock
 62
     0
100
AcDbLine
 10
0.2485714285714309
 20
-6.18285714285713
 30
0.0000000000000027
 11
0.2485714285714309
 21
-6.5
 31
0.0000000000000029
  0
LINE
  5
4B
330
2
100
AcDbEntity
  8
0
  6
ByBlock
 62
     0
100
AcDbLine
 10
-0.2171428571428535
 20
-6.114285714285713
 30
0.0000000000000027
 11
-0.2485714285714238
 21
-6.18285714285713
 31
0.0000000000000027
  0
LINE
  5
4C
330
2
100
AcDbEntity
  8
0
  6
ByBlock
 62
     0
100
AcDbLine
 10
-0.2171428571428535
 20
-6.114285714285713
 30
0.0000000000000027
 11
-0.125714285714281
 21
-6.065714285714278
 31
0.0000000000000027
  0
LINE
  5
4D
330
2
100
AcDbEntity
  8
0
  6
ByBlock
 62
     0
100
AcDbLine
 10
-0.2171428571428535
 20
-6.565714285714278
 30
0.0000000000000029
 11
-0.125714285714281
 21
-6.614285714285713
 31
0.0000000000000029
  0
LINE
  5
4E
330
2
100
AcDbEntity
  8
0
  6
ByBlock
 62
     0
100
AcDbLine
 10
-0.2485714285714238
 20
-6.5
 30
0.0000000000000029
 11
-0.2171428571428535
 21
-6.565714285714278
 31
0.0000000000000029
  0
LINE
  5
4F
330
2
100
AcDbEntity
  8
0
  6
ByBlock
 62
     0
100
AcDbLine
 10
-0.2171428571428535
 20
-6.434285714285721
 30
0.0000000000000029
 11
-0.2485714285714238
 21
-6.5
 31
0.0000000000000029
  0
LINE
  5
50
330
2
100
AcDbEntity
  8
0
  6
ByBlock
 62
     0
100
AcDbLine
 10
-0.2171428571428535
 20
-6.434285714285721
 30
0.0000000000000029
 11
-0.125714285714281
 21
-6.385714285714271
 31
0.0000000000000028
  0
LINE
  5
51
330
2
100
AcDbEntity
  8
0
  6
ByBlock
 62
     0
100
AcDbLine
 10
-0.2485714285714238
 20
-6.5
 30
0.0000000000000029
 11
-0.2485714285714238
 21
-6.18285714285713
 31
0.0000000000000027
  0
LINE
  5
52
330
2
100
AcDbEntity
  8
0
  6
ByBlock
 62
     0
100
AcDbLine
 10
-0.125714285714281
 20
-6.614285714285713
 30
0.0000000000000029
 11
0.0
 21
-6.631428571428557
 31
0.0000000000000029
  0
LINE
  5
53
330
2
100
AcDbEntity
  8
0
  6
ByBlock
 62
     0
100
AcDbLine
 10
-0.125714285714281
 20
-6.385714285714271
 30
0.0000000000000028
 11
0.0
 21
-6.368571428571428
 31
0.0000000000000028
  0
LINE
  5
54
330
2
100
AcDbEntity
  8
0
  6
ByBlock
 62
     0
100
AcDbLine
 10
-0.125714285714281
 20
-6.065714285714278
 30
0.0000000000000027
 11
0.0
 21
-6.04857142857142
 31
0.0000000000000027
  0
LINE
  5
55
330
2
100
AcDbEntity
  8
0
  6
ByBlock
 62
     0
100
AcDbLine
 10
0.6257142857142881
 20
-5.608571428571423
 30
0.0000000000000025
 11
1.08285714285715
 21
-5.85142857142857
 31
0.0000000000000026
  0
LINE
  5
56
330
2
100
AcDbEntity
  8
0
  6
ByBlock
 62
     0
100
AcDbLine
 10
1.24857142857143
 20
-6.18285714285713
 30
0.0000000000000027
 11
1.08285714285715
 21
-5.85142857142857
 31
0.0000000000000026
  0
LINE
  5
57
330
2
100
AcDbEntity
  8
0
  6
ByBlock
 62
     0
100
AcDbLine
 10
1.08285714285715
 20
-6.514285714285705
 30
0.0000000000000029
 11
0.6257142857142881
 21
-6.754285714285714
 31
0.000000000000003
  0
LINE
  5
58
330
2
100
AcDbEntity
  8
0
  6
ByBlock
 62
     0
100
AcDbLine
 10
1.24857142857143
 20
-6.18285714285713
 30
0.0000000000000027
 11
1.08285714285715
 21
-6.514285714285705
 31
0.0000000000000029
  0
LINE
  5
59
330
2
100
AcDbEntity
  8
0
  6
ByBlock
 62
     0
100
AcDbLine
 10
0.3114285714285785
 20
-4.094285714285717
 30
0.0000000000000018
 11
0.5400000000000063
 21
-4.214285714285708
 31
0.0000000000000019
  0
LINE
  5
5A
330
2
100
AcDbEntity
  8
0
  6
ByBlock
 62
     0
100
AcDbLine
 10
0.0
 20
-4.04857142857142
 30
0.0000000000000018
 11
0.3114285714285785
 21
-4.094285714285717
 31
0.0000000000000018
  0
LINE
  5
5B
330
2
100
AcDbEntity
  8
0
  6
ByBlock
 62
     0
100
AcDbLine
 10
0.0
 20
-4.002857142857138
 30
0.0000000000000018
 11
0.1571428571428584
 21
-4.022857142857134
 31
0.0000000000000018
  0
LINE
  5
5C
330
2
100
AcDbEntity
  8
0
  6
ByBlock
 62
     0
100
AcDbLine
 10
0.0
 20
-3.937142857142845
 30
0.0000000000000017
 11
0.2199999999999989
 21
-3.965714285714284
 31
0.0000000000000018
  0
LINE
  5
5D
330
2
100
AcDbEntity
  8
0
  6
ByBlock
 62
     0
100
AcDbLine
 10
0.2714285714285722
 20
-4.085714285714288
 30
0.0000000000000018
 11
0.2714285714285722
 21
-4.088571428571427
 31
0.0000000000000018
  0
LINE
  5
5E
330
2
100
AcDbEntity
  8
0
  6
ByBlock
 62
     0
100
AcDbLine
 10
0.2199999999999989
 20
-3.965714285714284
 30
0.0000000000000018
 11
0.3800000000000025
 21
-4.051428571428573
 31
0.0000000000000018
  0
LINE
  5
5F
330
2
100
AcDbEntity
  8
0
  6
ByBlock
 62
     0
100
AcDbLine
 10
0.1571428571428584
 20
-4.022857142857134
 30
0.0000000000000018
 11
0.2714285714285722
 21
-4.085714285714288
 31
0.0000000000000018
  0
LINE
  5
60
330
2
100
AcDbEntity
  8
0
  6
ByBlock
 62
     0
100
AcDbLine
 10
0.431428571428576
 20
-4.159999999999996
 30
0.0000000000000018
 11
0.3800000000000025
 21
-4.051428571428573
 31
0.0000000000000018
  0
LINE
  5
61
330
2
100
AcDbEntity
  8
0
  6
ByBlock
 62
     0
100
AcDbLine
 10
0.2714285714285722
 20
-4.085714285714288
 30
0.0000000000000018
 11
0.2714285714285722
 21
-4.091428571428565
 31
0.0000000000000018
  0
LINE
  5
62
330
2
100
AcDbEntity
  8
0
  6
ByBlock
 62
     0
100
AcDbLine
 10
-0.2714285714285722
 20
-4.088571428571427
 30
0.0000000000000018
 11
-0.2714285714285722
 21
-4.085714285714288
 31
0.0000000000000018
  0
LINE
  5
63
330
2
100
AcDbEntity
  8
0
  6
ByBlock
 62
     0
100
AcDbLine
 10
-0.2742857142857105
 20
-4.091428571428565
 30
0.0000000000000018
 11
-0.2714285714285722
 21
-4.085714285714288
 31
0.0000000000000018
  0
LINE
  5
64
330
2
100
AcDbEntity
  8
0
  6
ByBlock
 62
     0
100
AcDbLine
 10
-0.2714285714285722
 20
-4.085714285714288
 30
0.0000000000000018
 11
-0.1571428571428584
 21
-4.022857142857134
 31
0.0000000000000018
  0
LINE
  5
65
330
2
100
AcDbEntity
  8
0
  6
ByBlock
 62
     0
100
AcDbLine
 10
0.0
 20
-4.04857142857142
 30
0.0000000000000018
 11
-0.3114285714285643
 21
-4.094285714285717
 31
0.0000000000000018
  0
LINE
  5
66
330
2
100
AcDbEntity
  8
0
  6
ByBlock
 62
     0
100
AcDbLine
 10
-0.1571428571428584
 20
-4.022857142857134
 30
0.0000000000000018
 11
0.0
 21
-4.002857142857138
 31
0.0000000000000018
  0
LINE
  5
67
330
2
100
AcDbEntity
  8
0
  6
ByBlock
 62
     0
100
AcDbLine
 10
-0.2199999999999989
 20
-3.965714285714284
 30
0.0000000000000018
 11
0.0
 21
-3.937142857142845
 31
0.0000000000000017
  0
LINE
  5
68
330
2
100
AcDbEntity
  8
0
  6
ByBlock
 62
     0
100
AcDbLine
 10
0.6257142857142881
 20
-4.379999999999995
 30
0.0000000000000019
 11
0.5400000000000063
 21
-4.214285714285708
 31
0.0000000000000019
  0
LINE
  5
69
330
2
100
AcDbEntity
  8
0
  6
ByBlock
 62
     0
100
AcDbLine
 10
0.0
 20
-3.405714285714282
 30
0.0000000000000015
 11
0.2199999999999989
 21
-3.437142857142845
 31
0.0000000000000015
  0
LINE
  5
6A
330
2
100
AcDbEntity
  8
0
  6
ByBlock
 62
     0
100
AcDbLine
 10
0.2199999999999989
 20
-3.437142857142845
 30
0.0000000000000015
 11
0.3800000000000025
 21
-3.522857142857134
 31
0.0000000000000016
  0
LINE
  5
6B
330
2
100
AcDbEntity
  8
0
  6
ByBlock
 62
     0
100
AcDbLine
 10
0.4371428571428595
 20
-3.637142857142862
 30
0.0000000000000016
 11
0.3800000000000025
 21
-3.522857142857134
 31
0.0000000000000016
  0
LINE
  5
6C
330
2
100
AcDbEntity
  8
0
  6
ByBlock
 62
     0
100
AcDbLine
 10
-0.2199999999999989
 20
-3.437142857142845
 30
0.0000000000000015
 11
0.0
 21
-3.405714285714282
 31
0.0000000000000015
  0
ARC
  5
6D
330
2
100
AcDbEntity
  8
0
  6
ByBlock
 62
     0
100
AcDbCircle
 10
0.0
 20
0.0
 30
0.0
 40
0.6250550996120432
100
AcDbArc
 50
306.7843136189731
 51
233.2156863810273
  0
ARC
  5
6E
330
2
100
AcDbEntity
  8
0
  6
ByBlock
 62
     0
100
AcDbCircle
 10
0.0
 20
0.0
 30
0.0
 40
0.3740675481945066
100
AcDbArc
 50
0.0
 51
180.0
  0
ATTDEF
  5
88
330
2
100
AcDbEntity
  8
0
100
AcDbText
 10
-0.0000000039925165
 20
0.0000000029017322
 30
0.0
 40
0.001
  1
BRASS
100
AcDbAttributeDefinition
  3

  2
MATERIAL
 70
     8
  0
ATTDEF
  5
89
330
2
100
AcDbEntity
  8
0
100
AcDbText
 10
-0.0000000039925165
 20
0.0017000029017318
 30
0.0
 40
0.001
  1
FAUCETS
100
AcDbAttributeDefinition
  3

  2
PRODUCT
 70
     8
  0
ATTDEF
  5
8A
330
2
100
AcDbEntity
  8
0
100
AcDbText
 10
-0.0000000039925165
 20
0.0034000029017314
 30
0.0
 40
0.001
  1
TABORET
100
AcDbAttributeDefinition
  3

  2
TRADENAME
 70
     8
  0
ATTDEF
  5
8B
330
2
100
AcDbEntity
  8
0
100
AcDbText
 10
-0.0000000039925165
 20
0.005100002901731
 30
0.0
 40
0.001
  1
K-T8226-4
100
AcDbAttributeDefinition
  3

  2
MODELNUMBER
 70
     8
  0
ENDSEC
  0
SECTION
  2
OBJECTS
  0
DICTIONARY
  5
7
330
0
100
AcDbDictionary
281
     1
  3
ACAD_GROUP
350
1F
  3
ACAD_LAYOUT
350
B
  3
ACAD_MLINESTYLE
350
20
  3
ACAD_PLOTSETTINGS
350
21
  3
ACAD_PLOTSTYLENAME
350
6
  3
AcDbVariableDictionary
350
6F
  0
DICTIONARY
  5
79
330
10
100
AcDbDictionary
280
     1
281
     1
  3
ACAD_LAYERSTATES
360
7A
  0
DICTIONARY
  5
1F
102
{ACAD_REACTORS
330
7
102
}
330
7
100
AcDbDictionary
281
     1
  0
DICTIONARY
  5
B
102
{ACAD_REACTORS
330
7
102
}
330
7
100
AcDbDictionary
281
     1
  3
Layout1
350
F
  3
Model
350
A
  0
DICTIONARY
  5
20
102
{ACAD_REACTORS
330
7
102
}
330
7
100
AcDbDictionary
281
     1
  3
Standard
350
22
  0
DICTIONARY
  5
21
102
{ACAD_REACTORS
330
7
102
}
330
7
100
AcDbDictionary
281
     1
  0
ACDBDICTIONARYWDFLT
  5
6
102
{ACAD_REACTORS
330
7
102
}
330
7
100
AcDbDictionary
281
     1
  3
Normal
350
5
100
AcDbDictionaryWithDefault
340
5
  0
DICTIONARY
  5
6F
102
{ACAD_REACTORS
330
7
102
}
330
7
100
AcDbDictionary
281
     1
  3
DIMASSOC
350
71
  3
HIDETEXT
350
70
  0
DICTIONARY
  5
7A
102
{ACAD_REACTORS
330
79
102
}
330
79
100
AcDbDictionary
281
     1
  0
LAYOUT
  5
F
102
{ACAD_REACTORS
330
B
102
}
330
B
100
AcDbPlotSettings
  1

  2
HP OfficeJet T Series Printer
  4

  6

 40
0.0
 41
0.0
 42
0.0
 43
0.0
 44
0.0
 45
0.0
 46
0.0
 47
0.0
 48
0.0
 49
0.0
140
0.0
141
0.0
142
1.0
143
1.0
 70
   688
 72
     0
 73
     0
 74
     5
  7
Default R14 pen assignments.ctb
 75
    16
147
1.0
148
0.0
149
0.0
100
AcDbLayout
  1
Layout1
 70
     0
 71
     1
 10
0.0
 20
0.0
 11
12.0
 21
9.0
 12
0.0
 22
0.0
 32
2.071405419302362
 14
1.000000000000000E+20
 24
1.000000000000000E+20
 34
1.000000000000000E+20
 15
-1.000000000000000E+20
 25
-1.000000000000000E+20
 35
-1.000000000000000E+20
146
0.0
 13
0.0
 23
0.0
 33
0.0
 16
1.0
 26
0.0
 36
0.0
 17
0.0
 27
1.0
 37
0.0
 76
     0
330
C
  0
LAYOUT
  5
A
102
{ACAD_REACTORS
330
B
102
}
330
B
100
AcDbPlotSettings
  1

  2
HP OfficeJet T Series Printer
  4

  6

 40
0.0
 41
0.0
 42
0.0
 43
0.0
 44
0.0
 45
0.0
 46
0.0
 47
0.0
 48
0.0
 49
0.0
140
0.0
141
0.0
142
1.0
143
1.0
 70
  1712
 72
     0
 73
     0
 74
     0
  7
Default R14 pen assignments.ctb
 75
     0
147
1.0
148
0.0
149
0.0
100
AcDbLayout
  1
Model
 70
     1
 71
     0
 10
0.0
 20
0.0
 11
12.0
 21
9.0
 12
0.0
 22
0.0
 32
0.0
 14
0.0
 24
0.0
 34
0.0
 15
0.0
 25
0.0
 35
0.0
146
0.0
 13
0.0
 23
0.0
 33
0.0
 16
1.0
 26
0.0
 36
0.0
 17
0.0
 27
1.0
 37
0.0
 76
     0
330
2
  0
MLINESTYLE
  5
22
102
{ACAD_REACTORS
330
20
102
}
330
20
100
AcDbMlineStyle
  2
STANDARD
 70
     0
  3

 62
   256
 51
90.0
 52
90.0
 71
     2
 49
0.5
 62
   256
  6
BYLAYER
 49
-0.5
 62
   256
  6
BYLAYER
  0
ACDBPLACEHOLDER
  5
5
102
{ACAD_REACTORS
330
6
102
}
330
6
  0
DICTIONARYVAR
  5
71
102
{ACAD_REACTORS
330
6F
102
}
330
6F
100
DictionaryVariables
280
     0
  1
2
  0
DICTIONARYVAR
  5
70
102
{ACAD_REACTORS
330
6F
102
}
330
6F
100
DictionaryVariables
280
     0
  1
1
  0
ENDSEC
  0
EOF
