  0
SECTION
  2
HEADER
  9
$ACADVER
  1
AC1009
  9
$INSBASE
 10
123.657855523367
 20
7.0773579183038438
 30
0.0
  9
$EXTMIN
 10
119.09087128314989
 20
3.877583082065577
 30
0.0
  9
$EXTMAX
 10
123.677454947931
 20
10.27713275466558
 30
0.0
  9
$LIMMIN
 10
0.0
 20
0.0
  9
$LIMMAX
 10
11.692913385800001
 20
8.2677165353999982
  9
$ORTHOMODE
 70
     0
  9
$REGENMODE
 70
     1
  9
$FILLMODE
 70
     1
  9
$QTEXTMODE
 70
     0
  9
$MIRRTEXT
 70
     0
  9
$DRAGMODE
 70
     2
  9
$LTSCALE
 40
0.6431102362
  9
$OSMODE
 70
  3071
  9
$ATTMODE
 70
     1
  9
$TEXTSIZE
 40
0.2
  9
$TRACEWID
 40
0.05
  9
$TEXTSTYLE
  7
STANDARD
  9
$CLAYER
  8
0
  9
$CELTYPE
  6
BYLAYER
  9
$CECOLOR
 62
   256
  9
$DIMSCALE
 40
1.0
  9
$DIMASZ
 40
0.1875
  9
$DIMEXO
 40
0.0625
  9
$DIMDLI
 40
0.4443307087
  9
$DIMRND
 40
0.0
  9
$DIMDLE
 40
0.0
  9
$DIMEXE
 40
0.125
  9
$DIMTP
 40
0.01
  9
$DIMTM
 40
0.01
  9
$DIMTXT
 40
1.0
  9
$DIMCEN
 40
0.1052362205
  9
$DIMTSZ
 40
0.0
  9
$DIMTOL
 70
     1
  9
$DIMLIM
 70
     0
  9
$DIMTIH
 70
     1
  9
$DIMTOH
 70
     1
  9
$DIMSE1
 70
     0
  9
$DIMSE2
 70
     0
  9
$DIMTAD
 70
     0
  9
$DIMZIN
 70
     0
  9
$DIMBLK
  1

  9
$DIMASO
 70
     1
  9
$DIMSHO
 70
     1
  9
$DIMPOST
  1
\X
  9
$DIMAPOST
  1

  9
$DIMALT
 70
     1
  9
$DIMALTD
 70
     2
  9
$DIMALTF
 40
25.399999999999999
  9
$DIMLFAC
 40
1.0
  9
$DIMTOFL
 70
     0
  9
$DIMTVP
 40
0.0
  9
$DIMTIX
 70
     0
  9
$DIMSOXD
 70
     0
  9
$DIMSAH
 70
     0
  9
$DIMBLK1
  1

  9
$DIMBLK2
  1

  9
$DIMSTYLE
  2
STANDARD
  9
$DIMCLRD
 70
     0
  9
$DIMCLRE
 70
     0
  9
$DIMCLRT
 70
     0
  9
$DIMTFAC
 40
1.0
  9
$DIMGAP
 40
0.09
  9
$LUNITS
 70
     2
  9
$LUPREC
 70
     4
  9
$SKETCHINC
 40
0.1
  9
$FILLETRAD
 40
0.0
  9
$AUNITS
 70
     0
  9
$AUPREC
 70
     0
  9
$MENU
  1
.
  9
$ELEVATION
 40
0.0
  9
$PELEVATION
 40
0.0
  9
$THICKNESS
 40
0.0
  9
$LIMCHECK
 70
     0
  9
$BLIPMODE
 70
     0
  9
$CHAMFERA
 40
0.0
  9
$CHAMFERB
 40
0.0
  9
$SKPOLY
 70
     0
  9
$TDCREATE
 40
2458183.4770664121
  9
$TDUPDATE
 40
2458211.5861280672
  9
$TDINDWG
 40
0.0409174306
  9
$TDUSRTIMER
 40
0.0409174306
  9
$USRTIMER
 70
     1
  9
$ANGBASE
 50
0.0
  9
$ANGDIR
 70
     0
  9
$PDMODE
 70
     0
  9
$PDSIZE
 40
0.3125
  9
$PLINEWID
 40
0.0
  9
$COORDS
 70
     1
  9
$SPLFRAME
 70
     0
  9
$SPLINETYPE
 70
     6
  9
$SPLINESEGS
 70
     8
  9
$ATTDIA
 70
     1
  9
$ATTREQ
 70
     1
  9
$HANDLING
 70
     1
  9
$HANDSEED
  5
18B1
  9
$SURFTAB1
 70
     6
  9
$SURFTAB2
 70
     6
  9
$SURFTYPE
 70
     6
  9
$SURFU
 70
     6
  9
$SURFV
 70
     6
  9
$UCSNAME
  2

  9
$UCSORG
 10
0.0
 20
0.0
 30
0.0
  9
$UCSXDIR
 10
1.0
 20
0.0
 30
0.0
  9
$UCSYDIR
 10
0.0
 20
1.0
 30
0.0
  9
$PUCSNAME
  2

  9
$PUCSORG
 10
0.0
 20
0.0
 30
0.0
  9
$PUCSXDIR
 10
1.0
 20
0.0
 30
0.0
  9
$PUCSYDIR
 10
0.0
 20
1.0
 30
0.0
  9
$USERI1
 70
     0
  9
$USERI2
 70
     0
  9
$USERI3
 70
     0
  9
$USERI4
 70
     0
  9
$USERI5
 70
     0
  9
$USERR1
 40
0.0
  9
$USERR2
 40
0.0
  9
$USERR3
 40
0.0
  9
$USERR4
 40
0.0
  9
$USERR5
 40
0.0
  9
$WORLDVIEW
 70
     1
  9
$SHADEDGE
 70
     3
  9
$SHADEDIF
 70
    70
  9
$TILEMODE
 70
     1
  9
$MAXACTVP
 70
    64
  9
$PLIMCHECK
 70
     0
  9
$PEXTMIN
 10
1.0000000000000000E+020
 20
1.0000000000000000E+020
 30
1.0000000000000000E+020
  9
$PEXTMAX
 10
-1.0000000000000000E+020
 20
-1.0000000000000000E+020
 30
-1.0000000000000000E+020
  9
$PLIMMIN
 10
0.0
 20
0.0
  9
$PLIMMAX
 10
12.0
 20
9.0
  9
$UNITMODE
 70
     0
  9
$VISRETAIN
 70
     1
  9
$PLINEGEN
 70
     0
  9
$PSLTSCALE
 70
     1
  0
ENDSEC
  0
SECTION
  2
TABLES
  0
TABLE
  2
VPORT
 70
     1
  0
VPORT
  2
*ACTIVE
 70
     0
 10
0.0
 20
0.0
 11
1.0
 21
1.0
 12
0.0
 22
0.0
 13
0.0
 23
0.0
 14
1.0
 24
1.0
 15
0.0
 25
0.0
 16
0.0
 26
0.0
 36
21.997028549926029
 17
121.3841631155405
 27
7.0773579183655784
 37
0.0
 40
7.875048815662911
 41
2.0811403508771931
 42
50.0
 43
0.0
 44
0.0
 50
0.0
 51
0.0
 71
     0
 72
   100
 73
     1
 74
     1
 75
     0
 76
     0
 77
     0
 78
     0
  0
ENDTAB
  0
TABLE
  2
LTYPE
 70
     2
  0
LTYPE
  2
CONTINUOUS
 70
     0
  3
Solid line
 72
    65
 73
     0
 40
0.0
  0
LTYPE
  2
PHANTOM2
 70
     0
  3
___ _ _ ___ _ _ ___ _ _ ___ _ _
 72
    65
 73
     6
 40
1.25
 49
0.625
 49
-0.125
 49
0.125
 49
-0.125
 49
0.125
 49
-0.125
  0
ENDTAB
  0
TABLE
  2
LAYER
 70
     2
  0
LAYER
  2
0
 70
     0
 62
   255
  6
CONTINUOUS
  0
LAYER
  2
DEFPOINTS
 70
     0
 62
     7
  6
CONTINUOUS
  0
ENDTAB
  0
TABLE
  2
STYLE
 70
     1
  0
STYLE
  2
STANDARD
 70
     0
 40
0.0
 41
0.8
 50
0.0
 71
     0
 42
0.2
  3
txt
  4

  0
ENDTAB
  0
TABLE
  2
VIEW
 70
     0
  0
ENDTAB
  0
TABLE
  2
UCS
 70
     0
  0
ENDTAB
  0
TABLE
  2
APPID
 70
     9
  0
APPID
  2
ACAD
 70
     0
  0
APPID
  2
ACAD_MLEADERVER
 70
     0
  0
APPID
  2
ACAD_EXEMPT_FROM_CAD_STANDARDS
 70
     0
  0
APPID
  2
ACAD_DSTYLE_DIMJAG
 70
     0
  0
APPID
  2
ACAD_DSTYLE_DIMTALN
 70
     0
  0
APPID
  2
ACAD_NAV_VCDISPLAY
 70
     0
  0
APPID
  2
ACAECLAYERSTANDARD
 70
     0
  0
APPID
  2
ACCMTRANSPARENCY
 70
     0
  0
APPID
  2
ACDBATTR
 70
     0
  0
ENDTAB
  0
TABLE
  2
DIMSTYLE
 70
     1
  0
DIMSTYLE
  2
STANDARD
 70
     0
  3

  4

  5

  6

  7

 40
1.0
 41
0.1875
 42
0.0625
 43
0.38
 44
0.125
 45
0.0
 46
0.0
 47
0.01
 48
0.01
140
0.15625
141
0.09
142
0.0
143
25.399999999999999
144
1.0
145
0.0
146
1.0
147
0.09
 71
     1
 72
     0
 73
     1
 74
     1
 75
     0
 76
     0
 77
     0
 78
     4
170
     0
171
     2
172
     0
173
     0
174
     0
175
     0
176
     0
177
     0
178
     0
  0
ENDTAB
  0
ENDSEC
  0
SECTION
  2
BLOCKS
  0
BLOCK
  8
0
  2
$MODEL_SPACE
 70
     0
 10
0.0
 20
0.0
 30
0.0
  3
$MODEL_SPACE
  1

  0
ENDBLK
  5
21
  8
0
  0
BLOCK
 67
     1
  8
0
  2
$PAPER_SPACE
 70
     0
 10
0.0
 20
0.0
 30
0.0
  3
$PAPER_SPACE
  1

  0
ENDBLK
  5
1D
 67
     1
  8
0
  0
ENDSEC
  0
SECTION
  2
ENTITIES
  0
LINE
  5
151E
  8
0
 10
123.192469920967
 20
10.269009418765579
 30
0.0
 11
123.657855523367
 21
10.27713275466558
 31
0.0
  0
LINE
  5
151F
  8
0
 10
123.657855523367
 20
10.27713275466558
 30
0.0
 11
123.657855523367
 21
3.877583082065577
 31
0.0
  0
LINE
  5
1520
  8
0
 10
121.168855523367
 20
8.1103579183655796
 30
0.0
 11
120.551369090067
 21
8.1103579183655796
 31
0.0
  0
LINE
  5
1521
  8
0
 10
121.280761553567
 20
8.1251607463655802
 30
0.0
 11
123.0526219212375
 21
8.1870354738190017
 31
0.0
  0
LINE
  5
1522
  8
0
 10
121.222855523367
 20
8.0651847557655785
 30
0.0
 11
121.222855523367
 21
6.0895310808655756
 31
0.0
  0
LINE
  5
1523
  8
0
 10
121.198855523367
 20
8.0803579183655785
 30
0.0
 11
121.198855523367
 21
6.0743579183655854
 31
0.0
  0
LINE
  5
1524
  8
0
 10
121.280761553567
 20
6.029555090265581
 30
0.0
 11
123.0526219211913
 21
5.967680362774721
 31
0.0
  0
LINE
  5
1525
  8
0
 10
121.168855523367
 20
6.0443579183655842
 30
0.0
 11
120.551369090067
 21
6.0443579183655842
 31
0.0
  0
LINE
  5
1526
  8
0
 10
120.471604526367
 20
7.5071797423655857
 30
0.0
 11
120.521481021867
 21
8.0829470062655773
 31
0.0
  0
LINE
  5
1527
  8
0
 10
120.521481021867
 20
8.0829470062655773
 30
0.0
 11
120.521481021867
 21
6.0717688303655768
 31
0.0
  0
LINE
  5
1528
  8
0
 10
120.471604526367
 20
6.6475360942655817
 30
0.0
 11
120.521481021867
 21
6.0717688303655768
 31
0.0
  0
ARC
  5
1529
  8
0
 10
121.06285552336701
 20
7.8568681222655741
 30
0.0
 40
0.16
 50
328.27244167469968
 51
0.0
  0
ARC
  5
152A
  8
0
 10
123.1942151635273
 20
10.169024644771451
 30
0.0
 40
0.1000000045112535
 50
91.000001053200364
 51
177.89484138946679
  0
ARC
  5
152B
  8
0
 10
120.411828389867
 20
7.5123579183655727
 30
0.0
 40
0.06
 50
341.79179063463209
 51
355.04904723669978
  0
ARC
  5
152C
  8
0
 10
121.2828555243909
 20
8.0651972944658468
 30
0.0
 40
0.0600000023340643
 50
92.00000090052157
 51
180.0119735763875
  0
ARC
  5
152D
  8
0
 10
121.168855523367
 20
8.0803579183655785
 30
0.0
 40
0.03
 50
0.0
 51
90.0
  0
ARC
  5
152E
  8
0
 10
120.551369090067
 20
8.0803579183655785
 30
0.0
 40
0.03
 50
90.0
 51
175.04904723609999
  0
ARC
  5
152F
  8
0
 10
121.06285552336701
 20
6.29784771436558
 30
0.0
 40
0.16
 50
0.0
 51
31.727558325300208
  0
ARC
  5
1530
  8
0
 10
123.1942151619062
 20
3.985691187936943
 30
0.0
 40
0.100000000575456
 50
182.11343385692311
 51
268.99999944655559
  0
ARC
  5
1531
  8
0
 10
120.411828389867
 20
6.6423579183655681
 30
0.0
 40
0.06
 50
4.9509527633000481
 51
18.208209365367779
  0
ARC
  5
1532
  8
0
 10
121.2828555243909
 20
6.0895185421653011
 30
0.0
 40
0.0600000023340641
 50
179.98802642361241
 51
267.99999909948008
  0
ARC
  5
1533
  8
0
 10
121.168855523367
 20
6.0743579183655854
 30
0.0
 40
0.03
 50
270.0
 51
0.0
  0
ARC
  5
1534
  8
0
 10
120.551369090067
 20
6.0743579183655854
 30
0.0
 40
0.03
 50
184.95095276390001
 51
270.0
  0
LINE
  5
1535
  8
0
 10
119.598518641184
 20
5.8077313075872112
 30
0.0
 11
119.1261340026841
 21
5.8153727163872091
 31
0.0
  0
LINE
  5
1536
  8
0
 10
119.598518641184
 20
5.7410937608872032
 30
0.0
 11
119.1261340026841
 21
5.7491362336872021
 31
0.0
  0
LINE
  5
1537
  8
0
 10
119.602682467584
 20
5.7072873187160482
 30
0.0
 11
119.1218481657841
 21
5.7156799788872021
 31
0.0
  0
LINE
  5
1538
  8
0
 10
119.59851808493821
 20
6.0323836744871713
 30
0.0
 11
119.1261340026841
 21
6.0386729322872048
 31
0.0
  0
LINE
  5
1539
  8
0
 10
119.598518641184
 20
5.9056314674872041
 30
0.0
 11
119.1261340026841
 21
5.9126836553872053
 31
0.0
  0
LINE
  5
153A
  8
0
 10
119.598518641184
 20
6.1848666873872062
 30
0.0
 11
119.1261340026841
 21
6.1902382730872096
 31
0.0
  0
LINE
  5
153B
  8
0
 10
119.1218481657841
 20
5.7156799788872021
 30
0.0
 11
119.096636885884
 21
5.7408914521872063
 31
0.0
  0
LINE
  5
153C
  8
0
 10
119.598518641184
 20
6.3593260496872039
 30
0.0
 11
119.12613464148851
 21
6.3636476934320783
 31
0.0
  0
LINE
  5
153D
  8
0
 10
120.449482539184
 20
6.5734700875872027
 30
0.0
 11
120.29772833928401
 21
6.5708212081872039
 31
0.0
  0
LINE
  5
153E
  8
0
 10
119.598518641184
 20
6.7565552123872052
 30
0.0
 11
119.1261340026841
 21
6.7584860393871997
 31
0.0
  0
LINE
  5
153F
  8
0
 10
119.598518641184
 20
6.5514659318871997
 30
0.0
 11
119.1261340026841
 21
6.5546311070872099
 31
0.0
  0
LINE
  5
1540
  8
0
 10
119.598518628984
 20
6.9695439125872047
 30
0.0
 11
119.12613395388399
 21
6.9701928478871968
 31
0.0
  0
LINE
  5
1541
  8
0
 10
119.63661987968401
 20
5.7412245726872078
 30
0.0
 11
119.602682467584
 21
5.7072873187160482
 31
0.0
  0
LINE
  5
1542
  8
0
 10
119.598518641184
 20
7.1851875436872126
 30
0.0
 11
119.1261340026841
 21
7.1845386083872071
 31
0.0
  0
LINE
  5
1543
  8
0
 10
119.598518641184
 20
7.3981762437872121
 30
0.0
 11
119.1261340026841
 21
7.3962454168872043
 31
0.0
  0
LINE
  5
1544
  8
0
 10
119.675949897884
 20
5.8418997786871989
 30
0.0
 11
120.22221609337799
 21
6.5334173439264802
 31
0.0
  0
LINE
  5
1545
  8
0
 10
119.88323502848399
 20
7.5911452556872021
 30
0.0
 11
119.642052209184
 21
7.5869353938872086
 31
0.0
  0
LINE
  5
1546
  8
0
 10
119.598518641184
 20
7.6032655243872043
 30
0.0
 11
119.1261340026841
 21
7.6001003491872083
 31
0.0
  0
LINE
  5
1547
  8
0
 10
120.449482539184
 20
7.5812613685871986
 30
0.0
 11
119.88323502848399
 21
7.5911452556872021
 31
0.0
  0
LINE
  5
1548
  8
0
 10
119.598518641184
 20
7.7954054065872
 30
0.0
 11
119.1261340026841
 21
7.7910838202872048
 31
0.0
  0
LINE
  5
1549
  8
0
 10
119.598518641184
 20
8.1223478426872031
 30
0.0
 11
119.126134766991
 21
8.116058628455157
 31
0.0
  0
LINE
  5
154A
  8
0
 10
119.598518641184
 20
7.9698647687872111
 30
0.0
 11
119.1261340026841
 21
7.9644931831872077
 31
0.0
  0
LINE
  5
154B
  8
0
 10
119.598518641184
 20
8.3470001485872061
 30
0.0
 11
119.1261340026841
 21
8.3393587398872082
 31
0.0
  0
LINE
  5
154C
  8
0
 10
119.598518641184
 20
8.2490999887872007
 30
0.0
 11
119.1261340026841
 21
8.2420478008872067
 31
0.0
  0
LINE
  5
154D
  8
0
 10
119.636286606384
 20
8.4138401568872112
 30
0.0
 11
119.602682467584
 21
8.4474441374583691
 31
0.0
  0
LINE
  5
154E
  8
0
 10
119.602682467584
 20
8.4474441374583691
 30
0.0
 11
119.1218481657841
 21
8.4390514772871992
 31
0.0
  0
LINE
  5
154F
  8
0
 10
119.598518641184
 20
8.4136376953872016
 30
0.0
 11
119.1261340026841
 21
8.4055952224872001
 31
0.0
  0
LINE
  5
1550
  8
0
 10
120.468824027284
 20
6.5931521288872039
 30
0.0
 11
120.468824027284
 21
7.5615793273872143
 31
0.0
  0
LINE
  5
1551
  8
0
 10
119.1218481657841
 20
8.4390514772871992
 30
0.0
 11
119.096636885884
 21
8.4138400040872057
 31
0.0
  0
LINE
  5
1552
  8
0
 10
119.642052220984
 20
5.7514505504906381
 30
0.0
 11
119.642052209231
 21
8.3998992211841692
 31
0.0
  0
LINE
  5
1553
  8
0
 10
119.09087128314989
 20
5.7548323996304509
 30
0.0
 11
119.09087128314989
 21
8.3998990566439531
 31
0.0
  0
ARC
  5
1554
  8
0
 10
120.4316456084011
 20
6.8643397445673813
 30
0.0
 40
1.3097959992160519
 50
175.36450138678691
 51
184.6355250274226
  0
ARC
  5
1555
  8
0
 10
120.3364515367399
 20
6.6565585732372119
 30
0.0
 40
1.214601886051113
 50
175.1861675586448
 51
184.8138324413548
  0
ARC
  5
1556
  8
0
 10
120.1881150371463
 20
6.4591429523900308
 30
0.0
 40
1.0662653071562109
 50
174.8620595322412
 51
185.13832375547119
  0
ARC
  5
1557
  8
0
 10
120.0013158807087
 20
6.2769397592718326
 30
0.0
 40
0.8794660126061477
 50
174.34192746463509
 51
185.6576504037665
  0
ARC
  5
1558
  8
0
 10
119.7942954796996
 20
6.1144556026872081
 30
0.0
 40
0.6724453676698288
 50
173.52918258482791
 51
186.47081741517161
  0
ARC
  5
1559
  8
0
 10
119.5872103916834
 20
5.9756782938371984
 30
0.0
 40
0.4653598188135488
 50
172.22012347184301
 51
187.77987652815739
  0
ARC
  5
155A
  8
0
 10
119.79973148580611
 20
5.7442007532766217
 30
0.0
 40
0.1576926792045069
 50
141.7164759902999
 51
176.41058376318981
  0
ARC
  5
155B
  8
0
 10
120.29953286672649
 20
6.472252833914772
 30
0.0
 40
0.0985848909620666
 50
91.048817723055805
 51
141.65283866387099
  0
ARC
  5
155C
  8
0
 10
120.449138987884
 20
6.5931521288872039
 30
0.0
 40
0.0196850394
 50
271.00000000000011
 51
0.0
  0
ARC
  5
155D
  8
0
 10
118.2383221035568
 20
6.8630494844334251
 30
0.0
 40
1.3643590623262909
 50
355.52325683060468
 51
4.4767497459346872
  0
ARC
  5
155E
  8
0
 10
118.33748449850501
 20
6.654010572137202
 30
0.0
 40
1.2651966298747299
 50
355.35105708989158
 51
4.6489429101084276
  0
ARC
  5
155F
  8
0
 10
118.49193666922891
 20
6.4553959907872018
 30
0.0
 40
1.1107443874442759
 50
355.03820293806189
 51
4.9617970619377116
  0
ARC
  5
1560
  8
0
 10
118.68655768664971
 20
6.2720963685371984
 30
0.0
 40
0.916123244912341
 50
354.53624227240311
 51
5.4637577275968789
  0
ARC
  5
1561
  8
0
 10
118.9023439982634
 20
6.1086277205254538
 30
0.0
 40
0.7003367143837719
 50
353.74995254534559
 51
6.2496294338348868
  0
ARC
  5
1562
  8
0
 10
119.1180672243777
 20
5.969005462551074
 30
0.0
 40
0.4846130695323946
 50
352.48577365368652
 51
7.5147292257145457
  0
ARC
  5
1563
  8
0
 10
119.11431825280719
 20
5.7563667155286771
 30
0.0
 40
0.0234971170866266
 50
183.7439664373801
 51
221.19338919382869
  0
ARC
  5
1564
  8
0
 10
120.46444801708
 20
7.0773654234438723
 30
0.0
 40
1.342598410806243
 50
175.4214817730404
 51
184.57849213795299
  0
ARC
  5
1565
  8
0
 10
120.4316382345413
 20
7.2903920126372048
 30
0.0
 40
1.3097886251562261
 50
175.36446202483651
 51
184.63553797516349
  0
ARC
  5
1566
  8
0
 10
120.33645156508911
 20
7.4981728830372063
 30
0.0
 40
1.2146019143002791
 50
175.18616767086911
 51
184.8138323291308
  0
ARC
  5
1567
  8
0
 10
120.1881948503938
 20
7.695592084737207
 30
0.0
 40
1.0663451203978029
 50
174.86225194926081
 51
185.13774805073919
  0
ARC
  5
1568
  8
0
 10
120.00138054824041
 20
7.8777885017372071
 30
0.0
 40
0.8795306801321792
 50
174.34255776248611
 51
185.65744223751389
  0
ARC
  5
1569
  8
0
 10
119.7942368200324
 20
8.0402725367463201
 30
0.0
 40
0.672386707910441
 50
173.52832224280559
 51
186.47109990038621
  0
ARC
  5
156A
  8
0
 10
119.5871684915395
 20
8.1790560115112854
 30
0.0
 40
0.4653179186781519
 50
172.21977265835551
 51
187.78092250554391
  0
ARC
  5
156B
  8
0
 10
120.449138987884
 20
7.5615793273872143
 30
0.0
 40
0.0196850394
 50
0.0
 51
88.999999999999858
  0
ARC
  5
156C
  8
0
 10
119.622367181584
 20
8.3999207320872031
 30
0.0
 40
0.0196850394
 50
359.9373898025998
 51
44.999999999999588
  0
ARC
  5
156D
  8
0
 10
118.204179159262
 20
7.0773658071841723
 30
0.0
 40
1.3985020978565801
 50
355.57821461808999
 51
4.4217788863375613
  0
ARC
  5
156E
  8
0
 10
118.23832017345489
 20
7.2916818937371977
 30
0.0
 40
1.364360992628135
 50
355.52325989147329
 51
4.47674010852666
  0
ARC
  5
156F
  8
0
 10
118.3374845276675
 20
7.5007208840872082
 30
0.0
 40
1.2651966008121609
 50
355.3510569805951
 51
4.648943019405217
  0
ARC
  5
1570
  8
0
 10
118.4919366692277
 20
7.6993354654872022
 30
0.0
 40
1.1107443874455629
 50
355.03820293806803
 51
4.9617970619319909
  0
ARC
  5
1571
  8
0
 10
118.68655768769599
 20
7.8826350876872118
 30
0.0
 40
0.9161232438660393
 50
354.53624226928508
 51
5.4637577307148586
  0
ARC
  5
1572
  8
0
 10
118.9022969189549
 20
8.0461063057372044
 30
0.0
 40
0.7003837936875546
 50
353.75058082954092
 51
6.2494191704595714
  0
ARC
  5
1573
  8
0
 10
119.11803557964041
 20
8.1857239157372064
 30
0.0
 40
0.484644714265636
 50
352.48601933316661
 51
7.5139806668334348
  0
ARC
  5
1574
  8
0
 10
119.11337766433169
 20
8.3987537429665906
 30
0.0
 40
0.0225355039286755
 50
137.9758218369164
 51
177.08682253183929
  0
ARC
  5
1575
  8
0
 10
119.6232089670998
 20
5.75490474430591
 30
0.0
 40
0.0191572354962738
 50
314.43055441450559
 51
357.51248107433588
  0
ARC
  5
1576
  8
0
 10
119.15678555425851
 20
5.7323709109862691
 30
0.0
 40
0.0349369955661364
 50
151.32288881008819
 51
208.6782392920467
  0
ARC
  5
1577
  8
0
 10
119.2519617917756
 20
5.782254475037198
 30
0.0
 40
0.1301132215333154
 50
165.2540245819051
 51
194.7459754180949
  0
ARC
  5
1578
  8
0
 10
119.40020051614459
 20
5.8640281858872001
 30
0.0
 40
0.2783519507973759
 50
169.9330748319355
 51
190.0669251680643
  0
ARC
  5
1579
  8
0
 10
119.56643417967111
 20
5.7242266611595118
 30
0.0
 40
0.0362479202686019
 50
332.26944621463082
 51
27.73132221356575
  0
ARC
  5
157A
  8
0
 10
119.4672808221171
 20
5.7744125342372072
 30
0.0
 40
0.1354012769917341
 50
345.75467008202401
 51
14.24532991797272
  0
ARC
  5
157B
  8
0
 10
119.3128462437101
 20
5.8566813875371997
 30
0.0
 40
0.2898358656301896
 50
350.27677245843159
 51
9.7232275415683898
  0
ARC
  5
157C
  8
0
 10
119.3128464078949
 20
8.2980500686872034
 30
0.0
 40
0.2898357037954453
 50
350.27676698660377
 51
9.7232330133969622
  0
ARC
  5
157D
  8
0
 10
119.46728082171479
 20
8.3803189219872039
 30
0.0
 40
0.1354012773939779
 50
345.75467010340918
 51
14.24532989658865
  0
ARC
  5
157E
  8
0
 10
119.56643485290491
 20
8.4305045339057951
 30
0.0
 40
0.0362472028155971
 50
332.26854806397859
 51
27.731607772844239
  0
ARC
  5
157F
  8
0
 10
119.400200717769
 20
8.2907032703872048
 30
0.0
 40
0.2783521493176211
 50
169.93308208645351
 51
190.0669179135472
  0
ARC
  5
1580
  8
0
 10
119.2519616285127
 20
8.3724769811872051
 30
0.0
 40
0.1301130636349865
 50
165.25400630387711
 51
194.74599369612361
  0
ARC
  5
1581
  8
0
 10
119.1567865261693
 20
8.4223608074035283
 30
0.0
 40
0.0349379740912724
 50
151.32356038711939
 51
208.67672360540379
  0
ARC
  5
1582
  8
0
 10
119.86358774894789
 20
5.539878984811728
 30
0.0
 40
1.118624119226737
 50
67.163529784442019
 51
101.42363462236619
  0
LINE
  5
1583
  8
0
 10
123.0526219212375
 20
8.1870354738190017
 30
0.0
 11
123.094282649967
 21
10.17269801322003
 31
0.0
  0
LINE
  5
1584
  8
0
 10
123.0526219211913
 20
5.967680362774721
 30
0.0
 11
123.09428318386701
 21
3.9820033863893718
 31
0.0
  0
LINE
  5
1585
  8
0
 10
123.1924699202867
 20
3.8857064178627989
 30
0.0
 11
123.657855523367
 21
3.877583082065577
 31
0.0
  0
LINE
  5
1586
  8
0
 10
123.0526219212375
 20
8.1870354738190017
 30
0.0
 11
123.0526219212375
 21
5.9676803627731161
 31
0.0
  0
ATTDEF
  5
1714
  8
DEFPOINTS
 10
123.6667882812644
 20
7.0789422866349421
 30
0.0
 40
0.001
  1
K-T78027-9
  3

  2
MODELNUMBER
 70
     0
1001
ACDBATTR
1070
     0
1070
     1
  0
ATTDEF
  5
1715
  8
DEFPOINTS
 10
123.6667882812644
 20
7.0772756199682769
 30
0.0
 40
0.001
  1
COMPONENTS
  3

  2
TRADENAME
 70
     0
1001
ACDBATTR
1070
     0
1070
     1
  0
ATTDEF
  5
1716
  8
DEFPOINTS
 10
123.6667882812644
 20
7.0756089533016118
 30
0.0
 40
0.001
  1
VALVE TRIM
  3

  2
PRODUCT
 70
     0
1001
ACDBATTR
1070
     0
1070
     1
  0
ATTDEF
  5
1717
  8
DEFPOINTS
 10
123.6667882812644
 20
7.0739422866349466
 30
0.0
 40
0.001
  1
PREMIUM MATERIALS
  3

  2
MATERIAL
 70
     0
1001
ACDBATTR
1070
     0
1070
     1
  0
ENDSEC
  0
EOF
