  0
SECTION
  2
HEADER
  9
$ACADVER
  1
AC1009
  9
$INSBASE
 10
302.68235921001008
 20
18.248938638785908
 30
0.0
  9
$EXTMIN
 10
298.71235921001011
 20
15.049163802385911
 30
0.0
  9
$EXTMAX
 10
302.69967299400128
 20
21.448713475185912
 30
0.0
  9
$LIMMIN
 10
0.0
 20
0.0
  9
$LIMMAX
 10
11.692913385800001
 20
8.2677165353999982
  9
$ORTHOMODE
 70
     1
  9
$REGENMODE
 70
     1
  9
$FILLMODE
 70
     1
  9
$QTEXTMODE
 70
     0
  9
$MIRRTEXT
 70
     0
  9
$DRAGMODE
 70
     2
  9
$LTSCALE
 40
0.6431102362
  9
$OSMODE
 70
  3071
  9
$ATTMODE
 70
     1
  9
$TEXTSIZE
 40
0.2
  9
$TRACEWID
 40
0.05
  9
$TEXTSTYLE
  7
STANDARD
  9
$CLAYER
  8
0
  9
$CELTYPE
  6
BYLAYER
  9
$CECOLOR
 62
   256
  9
$DIMSCALE
 40
1.0
  9
$DIMASZ
 40
0.1875
  9
$DIMEXO
 40
0.0625
  9
$DIMDLI
 40
0.4443307087
  9
$DIMRND
 40
0.0
  9
$DIMDLE
 40
0.0
  9
$DIMEXE
 40
0.125
  9
$DIMTP
 40
0.01
  9
$DIMTM
 40
0.01
  9
$DIMTXT
 40
1.0
  9
$DIMCEN
 40
0.1052362205
  9
$DIMTSZ
 40
0.0
  9
$DIMTOL
 70
     1
  9
$DIMLIM
 70
     0
  9
$DIMTIH
 70
     1
  9
$DIMTOH
 70
     1
  9
$DIMSE1
 70
     0
  9
$DIMSE2
 70
     0
  9
$DIMTAD
 70
     0
  9
$DIMZIN
 70
     0
  9
$DIMBLK
  1

  9
$DIMASO
 70
     1
  9
$DIMSHO
 70
     1
  9
$DIMPOST
  1
\X
  9
$DIMAPOST
  1

  9
$DIMALT
 70
     1
  9
$DIMALTD
 70
     2
  9
$DIMALTF
 40
25.399999999999999
  9
$DIMLFAC
 40
1.0
  9
$DIMTOFL
 70
     0
  9
$DIMTVP
 40
0.0
  9
$DIMTIX
 70
     0
  9
$DIMSOXD
 70
     0
  9
$DIMSAH
 70
     0
  9
$DIMBLK1
  1

  9
$DIMBLK2
  1

  9
$DIMSTYLE
  2
STANDARD
  9
$DIMCLRD
 70
     0
  9
$DIMCLRE
 70
     0
  9
$DIMCLRT
 70
     0
  9
$DIMTFAC
 40
1.0
  9
$DIMGAP
 40
0.09
  9
$LUNITS
 70
     2
  9
$LUPREC
 70
     4
  9
$SKETCHINC
 40
0.1
  9
$FILLETRAD
 40
0.0
  9
$AUNITS
 70
     0
  9
$AUPREC
 70
     0
  9
$MENU
  1
.
  9
$ELEVATION
 40
0.0
  9
$PELEVATION
 40
0.0
  9
$THICKNESS
 40
0.0
  9
$LIMCHECK
 70
     0
  9
$BLIPMODE
 70
     0
  9
$CHAMFERA
 40
0.0
  9
$CHAMFERB
 40
0.0
  9
$SKPOLY
 70
     0
  9
$TDCREATE
 40
2458172.4620311921
  9
$TDUPDATE
 40
2458358.671047871
  9
$TDINDWG
 40
0.0906568287
  9
$TDUSRTIMER
 40
0.0906568287
  9
$USRTIMER
 70
     1
  9
$ANGBASE
 50
0.0
  9
$ANGDIR
 70
     0
  9
$PDMODE
 70
     0
  9
$PDSIZE
 40
0.3125
  9
$PLINEWID
 40
0.0
  9
$COORDS
 70
     1
  9
$SPLFRAME
 70
     0
  9
$SPLINETYPE
 70
     6
  9
$SPLINESEGS
 70
     8
  9
$ATTDIA
 70
     1
  9
$ATTREQ
 70
     1
  9
$HANDLING
 70
     1
  9
$HANDSEED
  5
2C53
  9
$SURFTAB1
 70
     6
  9
$SURFTAB2
 70
     6
  9
$SURFTYPE
 70
     6
  9
$SURFU
 70
     6
  9
$SURFV
 70
     6
  9
$UCSNAME
  2

  9
$UCSORG
 10
0.0
 20
0.0
 30
0.0
  9
$UCSXDIR
 10
1.0
 20
0.0
 30
0.0
  9
$UCSYDIR
 10
0.0
 20
1.0
 30
0.0
  9
$PUCSNAME
  2

  9
$PUCSORG
 10
0.0
 20
0.0
 30
0.0
  9
$PUCSXDIR
 10
1.0
 20
0.0
 30
0.0
  9
$PUCSYDIR
 10
0.0
 20
1.0
 30
0.0
  9
$USERI1
 70
     0
  9
$USERI2
 70
     0
  9
$USERI3
 70
     0
  9
$USERI4
 70
     0
  9
$USERI5
 70
     0
  9
$USERR1
 40
0.0
  9
$USERR2
 40
0.0
  9
$USERR3
 40
0.0
  9
$USERR4
 40
0.0
  9
$USERR5
 40
0.0
  9
$WORLDVIEW
 70
     1
  9
$SHADEDGE
 70
     3
  9
$SHADEDIF
 70
    70
  9
$TILEMODE
 70
     1
  9
$MAXACTVP
 70
    64
  9
$PLIMCHECK
 70
     0
  9
$PEXTMIN
 10
1.0000000000000000E+020
 20
1.0000000000000000E+020
 30
1.0000000000000000E+020
  9
$PEXTMAX
 10
-1.0000000000000000E+020
 20
-1.0000000000000000E+020
 30
-1.0000000000000000E+020
  9
$PLIMMIN
 10
0.0
 20
0.0
  9
$PLIMMAX
 10
12.0
 20
9.0
  9
$UNITMODE
 70
     0
  9
$VISRETAIN
 70
     1
  9
$PLINEGEN
 70
     0
  9
$PSLTSCALE
 70
     1
  0
ENDSEC
  0
SECTION
  2
TABLES
  0
TABLE
  2
VPORT
 70
     1
  0
VPORT
  2
*ACTIVE
 70
     0
 10
0.0
 20
0.0
 11
1.0
 21
1.0
 12
0.0
 22
0.0
 13
0.0
 23
0.0
 14
1.0
 24
1.0
 15
0.0
 25
0.0
 16
0.0
 26
0.0
 36
21.203490134373091
 17
300.70601610200572
 27
18.248938638785908
 37
0.0
 40
7.542348551429666
 41
2.0984340044742731
 42
50.0
 43
0.0
 44
0.0
 50
0.0
 51
0.0
 71
     0
 72
   100
 73
     1
 74
     1
 75
     0
 76
     0
 77
     0
 78
     0
  0
ENDTAB
  0
TABLE
  2
LTYPE
 70
     2
  0
LTYPE
  2
CONTINUOUS
 70
     0
  3
Solid line
 72
    65
 73
     0
 40
0.0
  0
LTYPE
  2
PHANTOM2
 70
     0
  3
___ _ _ ___ _ _ ___ _ _ ___ _ _
 72
    65
 73
     6
 40
1.25
 49
0.625
 49
-0.125
 49
0.125
 49
-0.125
 49
0.125
 49
-0.125
  0
ENDTAB
  0
TABLE
  2
LAYER
 70
     2
  0
LAYER
  2
0
 70
     0
 62
   255
  6
CONTINUOUS
  0
LAYER
  2
DEFPOINTS
 70
     0
 62
     7
  6
CONTINUOUS
  0
ENDTAB
  0
TABLE
  2
STYLE
 70
     1
  0
STYLE
  2
STANDARD
 70
     0
 40
0.0
 41
0.8
 50
0.0
 71
     0
 42
0.2
  3
txt
  4

  0
ENDTAB
  0
TABLE
  2
VIEW
 70
     0
  0
ENDTAB
  0
TABLE
  2
UCS
 70
     0
  0
ENDTAB
  0
TABLE
  2
APPID
 70
     9
  0
APPID
  2
ACAD
 70
     0
  0
APPID
  2
ACAD_MLEADERVER
 70
     0
  0
APPID
  2
ACAD_EXEMPT_FROM_CAD_STANDARDS
 70
     0
  0
APPID
  2
ACAD_DSTYLE_DIMJAG
 70
     0
  0
APPID
  2
ACAD_DSTYLE_DIMTALN
 70
     0
  0
APPID
  2
ACAD_NAV_VCDISPLAY
 70
     0
  0
APPID
  2
ACAECLAYERSTANDARD
 70
     0
  0
APPID
  2
ACCMTRANSPARENCY
 70
     0
  0
APPID
  2
ACDBATTR
 70
     0
  0
ENDTAB
  0
TABLE
  2
DIMSTYLE
 70
     1
  0
DIMSTYLE
  2
STANDARD
 70
     0
  3

  4

  5

  6

  7

 40
1.0
 41
0.1875
 42
0.0625
 43
0.38
 44
0.125
 45
0.0
 46
0.0
 47
0.01
 48
0.01
140
0.15625
141
0.09
142
0.0
143
25.399999999999999
144
1.0
145
0.0
146
1.0
147
0.09
 71
     1
 72
     0
 73
     1
 74
     1
 75
     0
 76
     0
 77
     0
 78
     4
170
     0
171
     2
172
     0
173
     0
174
     0
175
     0
176
     0
177
     0
178
     0
  0
ENDTAB
  0
ENDSEC
  0
SECTION
  2
BLOCKS
  0
BLOCK
  8
0
  2
$MODEL_SPACE
 70
     0
 10
0.0
 20
0.0
 30
0.0
  3
$MODEL_SPACE
  1

  0
ENDBLK
  5
21
  8
0
  0
BLOCK
 67
     1
  8
0
  2
$PAPER_SPACE
 70
     0
 10
0.0
 20
0.0
 30
0.0
  3
$PAPER_SPACE
  1

  0
ENDBLK
  5
1D
 67
     1
  8
0
  0
ENDSEC
  0
SECTION
  2
ENTITIES
  0
ATTDEF
  5
157D
  8
DEFPOINTS
 10
302.68900632733448
 20
18.250605305452581
 30
0.0
 40
0.001
  1
K-T78027-8
  3

  2
MODELNUMBER
 70
     0
1001
ACDBATTR
1070
     0
1070
     1
  0
ATTDEF
  5
157E
  8
DEFPOINTS
 10
302.68900632733448
 20
18.248938638785908
 30
0.0
 40
0.001
  1
COMPONENTS
  3

  2
TRADENAME
 70
     0
1001
ACDBATTR
1070
     0
1070
     1
  0
ATTDEF
  5
157F
  8
DEFPOINTS
 10
302.68900632733448
 20
18.24727197211925
 30
0.0
 40
0.001
  1
VALVE TRIM
  3

  2
PRODUCT
 70
     0
1001
ACDBATTR
1070
     0
1070
     1
  0
ATTDEF
  5
1580
  8
DEFPOINTS
 10
302.68900632733448
 20
18.245605305452582
 30
0.0
 40
0.001
  1
PREMIUM MATERIALS
  3

  2
MATERIAL
 70
     0
1001
ACDBATTR
1070
     0
1070
     1
  0
LINE
  5
2A5E
  8
0
 10
302.21697360701012
 20
21.440590139235908
 30
0.0
 11
302.68235921001008
 21
21.448713475185912
 31
0.0
  0
LINE
  5
2A5F
  8
0
 10
302.21697360701012
 20
21.440590139235908
 30
0.0
 11
302.21697360701012
 21
15.05728713833591
 31
0.0
  0
LINE
  5
2A60
  8
0
 10
302.68235921001008
 20
15.049163802385911
 30
0.0
 11
302.68235921001008
 21
21.448713475185912
 31
0.0
  0
LINE
  5
2A61
  8
0
 10
302.21697360701012
 20
15.05728713833591
 30
0.0
 11
302.68235921001008
 21
15.049163802385911
 31
0.0
  0
ARC
  5
2A62
  8
0
 10
302.21871884831012
 20
21.340605369735918
 30
0.0
 40
0.1
 50
91.000000422100115
 51
177.8821265368999
  0
ARC
  5
2A63
  8
0
 10
302.21871884831012
 20
15.157271907835909
 30
0.0
 40
0.1
 50
182.1178734630999
 51
268.99999957789993
  0
LINE
  5
2A64
  8
0
 10
298.71235921001011
 20
19.18545261503591
 30
0.0
 11
298.77141432811021
 21
19.244507733135912
 31
0.0
  0
LINE
  5
2A65
  8
0
 10
298.71235921001011
 20
19.18545261503591
 30
0.0
 11
298.71235921001011
 21
17.312424662535911
 31
0.0
  0
LINE
  5
2A66
  8
0
 10
298.77141432811021
 20
17.253369544335911
 30
0.0
 11
298.77141432811021
 21
19.244507733135912
 31
0.0
  0
LINE
  5
2A67
  8
0
 10
298.77141432811021
 20
19.244507733135912
 30
0.0
 11
300.0915639344102
 21
19.301938638735908
 31
0.0
  0
LINE
  5
2A68
  8
0
 10
300.11647478301012
 20
19.277027790135911
 30
0.0
 11
300.20881861501022
 21
19.281045054435911
 31
0.0
  0
LINE
  5
2A69
  8
0
 10
300.30526524021008
 20
19.296741466835911
 30
0.0
 11
302.07808259947461
 21
19.35864961310082
 31
0.0
  0
LINE
  5
2A6A
  8
0
 10
300.0915639344102
 20
17.19593863873591
 30
0.0
 11
300.0915639344102
 21
19.301938638735908
 31
0.0
  0
LINE
  5
2A6B
  8
0
 10
300.11647478301012
 20
17.220849487335911
 30
0.0
 11
300.11647478301012
 21
19.277027790135911
 31
0.0
  0
LINE
  5
2A6C
  8
0
 10
300.2293592100101
 20
17.23649866143591
 30
0.0
 11
300.2293592100101
 21
19.261378616035909
 31
0.0
  0
LINE
  5
2A6D
  8
0
 10
300.24735921001019
 20
19.236778017135912
 30
0.0
 11
300.24735921001019
 21
17.261099260335911
 31
0.0
  0
LINE
  5
2A6E
  8
0
 10
300.0915639344102
 20
19.301938638735908
 30
0.0
 11
300.11647478301012
 21
19.277027790135911
 31
0.0
  0
LINE
  5
2A6F
  8
0
 10
300.0915639344102
 20
17.19593863873591
 30
0.0
 11
300.11647478301012
 21
17.220849487335911
 31
0.0
  0
LINE
  5
2A70
  8
0
 10
300.30526524021008
 20
17.201135810735909
 30
0.0
 11
302.07808259947461
 21
17.139227664371241
 31
0.0
  0
LINE
  5
2A71
  8
0
 10
300.11647478301012
 20
17.220849487335911
 30
0.0
 11
300.20881861501022
 21
17.216832223035912
 31
0.0
  0
LINE
  5
2A72
  8
0
 10
298.77141432811021
 20
17.253369544335911
 30
0.0
 11
300.0915639344102
 21
17.19593863873591
 31
0.0
  0
LINE
  5
2A73
  8
0
 10
298.71235921001011
 20
17.312424662535911
 30
0.0
 11
298.77141432811021
 21
17.253369544335911
 31
0.0
  0
ARC
  5
2A74
  8
0
 10
300.08735921001011
 20
19.028448842735909
 30
0.0
 40
0.16
 50
332.5607598493246
 51
0.0
  0
ARC
  5
2A75
  8
0
 10
300.30735921001008
 20
19.236778017135912
 30
0.0
 40
0.06
 50
91.999999999899359
 51
180.0
  0
ARC
  5
2A76
  8
0
 10
300.20967417061013
 20
19.261378616035909
 30
0.0
 40
0.0196850394
 50
0.0
 51
92.490986637999498
  0
ARC
  5
2A77
  8
0
 10
620.37984030848213
 20
13.826913909746359
 30
0.0
 40
318.34982183210889
 50
178.64691431640321
 51
179.0043623740587
  0
ARC
  5
2A78
  8
0
 10
300.08735921001011
 20
17.46942843473591
 30
0.0
 40
0.16
 50
0.0
 51
27.439240150674902
  0
ARC
  5
2A79
  8
0
 10
300.30735921001008
 20
17.261099260335911
 30
0.0
 40
0.06
 50
180.0
 51
268.00000000010061
  0
ARC
  5
2A7A
  8
0
 10
300.20967417061013
 20
17.23649866143591
 30
0.0
 40
0.0196850394
 50
267.50901336200047
 51
0.0
  0
ARC
  5
2A7B
  8
0
 10
620.37984015768654
 20
22.67096336501184
 30
0.0
 40
318.34982168128897
 50
180.9956376259243
 51
181.35308568373131
  0
LINE
  5
2A7C
  8
0
 10
302.07808259947461
 20
19.35864961310083
 30
0.0
 11
302.07808259947461
 21
17.139227664371241
 31
0.0
  0
ENDSEC
  0
EOF
