  0
SECTION
  2
HEADER
  9
$ACADVER
  1
AC1009
  9
$INSBASE
 10
288.13282444870191
 20
18.87872682676705
 30
0.0
  9
$EXTMIN
 10
286.19282444870191
 20
14.93136811986705
 30
0.0
  9
$EXTMAX
 10
290.07282444870191
 20
18.88545452004843
 30
0.0
  9
$LIMMIN
 10
0.0
 20
0.0
  9
$LIMMAX
 10
11.692913385800001
 20
8.2677165353999982
  9
$ORTHOMODE
 70
     1
  9
$REGENMODE
 70
     1
  9
$FILLMODE
 70
     1
  9
$QTEXTMODE
 70
     0
  9
$MIRRTEXT
 70
     0
  9
$DRAGMODE
 70
     2
  9
$LTSCALE
 40
0.6431102362
  9
$OSMODE
 70
  3071
  9
$ATTMODE
 70
     1
  9
$TEXTSIZE
 40
0.2
  9
$TRACEWID
 40
0.05
  9
$TEXTSTYLE
  7
STANDARD
  9
$CLAYER
  8
0
  9
$CELTYPE
  6
BYLAYER
  9
$CECOLOR
 62
   256
  9
$DIMSCALE
 40
1.0
  9
$DIMASZ
 40
0.1875
  9
$DIMEXO
 40
0.0625
  9
$DIMDLI
 40
0.4443307087
  9
$DIMRND
 40
0.0
  9
$DIMDLE
 40
0.0
  9
$DIMEXE
 40
0.125
  9
$DIMTP
 40
0.01
  9
$DIMTM
 40
0.01
  9
$DIMTXT
 40
1.0
  9
$DIMCEN
 40
0.1052362205
  9
$DIMTSZ
 40
0.0
  9
$DIMTOL
 70
     1
  9
$DIMLIM
 70
     0
  9
$DIMTIH
 70
     1
  9
$DIMTOH
 70
     1
  9
$DIMSE1
 70
     0
  9
$DIMSE2
 70
     0
  9
$DIMTAD
 70
     0
  9
$DIMZIN
 70
     0
  9
$DIMBLK
  1

  9
$DIMASO
 70
     1
  9
$DIMSHO
 70
     1
  9
$DIMPOST
  1
\X
  9
$DIMAPOST
  1

  9
$DIMALT
 70
     1
  9
$DIMALTD
 70
     2
  9
$DIMALTF
 40
25.399999999999999
  9
$DIMLFAC
 40
1.0
  9
$DIMTOFL
 70
     0
  9
$DIMTVP
 40
0.0
  9
$DIMTIX
 70
     0
  9
$DIMSOXD
 70
     0
  9
$DIMSAH
 70
     0
  9
$DIMBLK1
  1

  9
$DIMBLK2
  1

  9
$DIMSTYLE
  2
STANDARD
  9
$DIMCLRD
 70
     0
  9
$DIMCLRE
 70
     0
  9
$DIMCLRT
 70
     0
  9
$DIMTFAC
 40
1.0
  9
$DIMGAP
 40
0.09
  9
$LUNITS
 70
     2
  9
$LUPREC
 70
     4
  9
$SKETCHINC
 40
0.1
  9
$FILLETRAD
 40
0.0
  9
$AUNITS
 70
     0
  9
$AUPREC
 70
     0
  9
$MENU
  1
.
  9
$ELEVATION
 40
0.0
  9
$PELEVATION
 40
0.0
  9
$THICKNESS
 40
0.0
  9
$LIMCHECK
 70
     0
  9
$BLIPMODE
 70
     0
  9
$CHAMFERA
 40
0.0
  9
$CHAMFERB
 40
0.0
  9
$SKPOLY
 70
     0
  9
$TDCREATE
 40
2458172.4620311921
  9
$TDUPDATE
 40
2458345.4968380202
  9
$TDINDWG
 40
0.0880706134
  9
$TDUSRTIMER
 40
0.0880706134
  9
$USRTIMER
 70
     1
  9
$ANGBASE
 50
0.0
  9
$ANGDIR
 70
     0
  9
$PDMODE
 70
     0
  9
$PDSIZE
 40
0.3125
  9
$PLINEWID
 40
0.0
  9
$COORDS
 70
     1
  9
$SPLFRAME
 70
     0
  9
$SPLINETYPE
 70
     6
  9
$SPLINESEGS
 70
     8
  9
$ATTDIA
 70
     1
  9
$ATTREQ
 70
     1
  9
$HANDLING
 70
     1
  9
$HANDSEED
  5
2A6A
  9
$SURFTAB1
 70
     6
  9
$SURFTAB2
 70
     6
  9
$SURFTYPE
 70
     6
  9
$SURFU
 70
     6
  9
$SURFV
 70
     6
  9
$UCSNAME
  2

  9
$UCSORG
 10
0.0
 20
0.0
 30
0.0
  9
$UCSXDIR
 10
1.0
 20
0.0
 30
0.0
  9
$UCSYDIR
 10
0.0
 20
1.0
 30
0.0
  9
$PUCSNAME
  2

  9
$PUCSORG
 10
0.0
 20
0.0
 30
0.0
  9
$PUCSXDIR
 10
1.0
 20
0.0
 30
0.0
  9
$PUCSYDIR
 10
0.0
 20
1.0
 30
0.0
  9
$USERI1
 70
     0
  9
$USERI2
 70
     0
  9
$USERI3
 70
     0
  9
$USERI4
 70
     0
  9
$USERI5
 70
     0
  9
$USERR1
 40
0.0
  9
$USERR2
 40
0.0
  9
$USERR3
 40
0.0
  9
$USERR4
 40
0.0
  9
$USERR5
 40
0.0
  9
$WORLDVIEW
 70
     1
  9
$SHADEDGE
 70
     3
  9
$SHADEDIF
 70
    70
  9
$TILEMODE
 70
     1
  9
$MAXACTVP
 70
    64
  9
$PLIMCHECK
 70
     0
  9
$PEXTMIN
 10
1.0000000000000000E+020
 20
1.0000000000000000E+020
 30
1.0000000000000000E+020
  9
$PEXTMAX
 10
-1.0000000000000000E+020
 20
-1.0000000000000000E+020
 30
-1.0000000000000000E+020
  9
$PLIMMIN
 10
0.0
 20
0.0
  9
$PLIMMAX
 10
12.0
 20
9.0
  9
$UNITMODE
 70
     0
  9
$VISRETAIN
 70
     1
  9
$PLINEGEN
 70
     0
  9
$PSLTSCALE
 70
     1
  0
ENDSEC
  0
SECTION
  2
TABLES
  0
TABLE
  2
VPORT
 70
     1
  0
VPORT
  2
*ACTIVE
 70
     0
 10
0.0
 20
0.0
 11
1.0
 21
1.0
 12
0.0
 22
0.0
 13
0.0
 23
0.0
 14
1.0
 24
1.0
 15
0.0
 25
0.0
 16
0.0
 26
0.0
 36
15.591541866489001
 17
288.13282444870191
 27
16.908411319957739
 37
0.0
 40
5.5403930608751111
 41
2.1006711409395971
 42
50.0
 43
0.0
 44
0.0
 50
0.0
 51
0.0
 71
     0
 72
   100
 73
     1
 74
     1
 75
     0
 76
     0
 77
     0
 78
     0
  0
ENDTAB
  0
TABLE
  2
LTYPE
 70
     2
  0
LTYPE
  2
CONTINUOUS
 70
     0
  3
Solid line
 72
    65
 73
     0
 40
0.0
  0
LTYPE
  2
PHANTOM2
 70
     0
  3
___ _ _ ___ _ _ ___ _ _ ___ _ _
 72
    65
 73
     6
 40
1.25
 49
0.625
 49
-0.125
 49
0.125
 49
-0.125
 49
0.125
 49
-0.125
  0
ENDTAB
  0
TABLE
  2
LAYER
 70
     2
  0
LAYER
  2
0
 70
     0
 62
   255
  6
CONTINUOUS
  0
LAYER
  2
DEFPOINTS
 70
     0
 62
     7
  6
CONTINUOUS
  0
ENDTAB
  0
TABLE
  2
STYLE
 70
     1
  0
STYLE
  2
STANDARD
 70
     0
 40
0.0
 41
0.8
 50
0.0
 71
     0
 42
0.2
  3
txt
  4

  0
ENDTAB
  0
TABLE
  2
VIEW
 70
     0
  0
ENDTAB
  0
TABLE
  2
UCS
 70
     0
  0
ENDTAB
  0
TABLE
  2
APPID
 70
     9
  0
APPID
  2
ACAD
 70
     0
  0
APPID
  2
ACAD_MLEADERVER
 70
     0
  0
APPID
  2
ACAD_EXEMPT_FROM_CAD_STANDARDS
 70
     0
  0
APPID
  2
ACAD_DSTYLE_DIMJAG
 70
     0
  0
APPID
  2
ACAD_DSTYLE_DIMTALN
 70
     0
  0
APPID
  2
ACAD_NAV_VCDISPLAY
 70
     0
  0
APPID
  2
ACAECLAYERSTANDARD
 70
     0
  0
APPID
  2
ACCMTRANSPARENCY
 70
     0
  0
APPID
  2
ACDBATTR
 70
     0
  0
ENDTAB
  0
TABLE
  2
DIMSTYLE
 70
     1
  0
DIMSTYLE
  2
STANDARD
 70
     0
  3

  4

  5

  6

  7

 40
1.0
 41
0.1875
 42
0.0625
 43
0.38
 44
0.125
 45
0.0
 46
0.0
 47
0.01
 48
0.01
140
0.15625
141
0.09
142
0.0
143
25.399999999999999
144
1.0
145
0.0
146
1.0
147
0.09
 71
     1
 72
     0
 73
     1
 74
     1
 75
     0
 76
     0
 77
     0
 78
     4
170
     0
171
     2
172
     0
173
     0
174
     0
175
     0
176
     0
177
     0
178
     0
  0
ENDTAB
  0
ENDSEC
  0
SECTION
  2
BLOCKS
  0
BLOCK
  8
0
  2
$MODEL_SPACE
 70
     0
 10
0.0
 20
0.0
 30
0.0
  3
$MODEL_SPACE
  1

  0
ENDBLK
  5
21
  8
0
  0
BLOCK
 67
     1
  8
0
  2
$PAPER_SPACE
 70
     0
 10
0.0
 20
0.0
 30
0.0
  3
$PAPER_SPACE
  1

  0
ENDBLK
  5
1D
 67
     1
  8
0
  0
ENDSEC
  0
SECTION
  2
ENTITIES
  0
ATTDEF
  5
157D
  8
DEFPOINTS
 10
288.1297626031336
 20
18.884454520048418
 30
0.0
 40
0.001
  1
K-T78026-8
  3

  2
MODELNUMBER
 70
     0
1001
ACDBATTR
1070
     0
1070
     1
  0
ATTDEF
  5
157E
  8
DEFPOINTS
 10
288.1297626031336
 20
18.88278785338176
 30
0.0
 40
0.001
  1
COMPONENTS
  3

  2
TRADENAME
 70
     0
1001
ACDBATTR
1070
     0
1070
     1
  0
ATTDEF
  5
157F
  8
DEFPOINTS
 10
288.1297626031336
 20
18.881121186715092
 30
0.0
 40
0.001
  1
VALVE TRIM
  3

  2
PRODUCT
 70
     0
1001
ACDBATTR
1070
     0
1070
     1
  0
ATTDEF
  5
1580
  8
DEFPOINTS
 10
288.1297626031336
 20
18.87945452004843
 30
0.0
 40
0.001
  1
PREMIUM MATERIALS
  3

  2
MATERIAL
 70
     0
1001
ACDBATTR
1070
     0
1070
     1
  0
LINE
  5
28C0
  8
0
 10
287.19631047240188
 20
14.93136811986705
 30
0.0
 11
287.13725535430189
 21
14.99042323796705
 31
0.0
  0
LINE
  5
28C1
  8
0
 10
286.20158421310191
 20
18.376880261767049
 30
0.0
 11
286.19282444870191
 21
18.87872682676705
 31
0.0
  0
LINE
  5
28C2
  8
0
 10
287.19631047240188
 20
14.93136811986705
 30
0.0
 11
289.0693384249019
 21
14.93136811986705
 31
0.0
  0
LINE
  5
28C3
  8
0
 10
289.12839354310188
 20
14.99042323796705
 30
0.0
 11
287.13725535430189
 21
14.99042323796705
 31
0.0
  0
LINE
  5
28C4
  8
0
 10
287.13725535430189
 20
14.99042323796705
 30
0.0
 11
287.07982444870191
 21
16.31057284426705
 31
0.0
  0
LINE
  5
28C5
  8
0
 10
287.10473529730189
 20
16.335483692867051
 30
0.0
 11
287.1007180330019
 21
16.427827524867048
 31
0.0
  0
LINE
  5
28C6
  8
0
 10
287.08502162060188
 20
16.52427415006705
 30
0.0
 11
287.02311347433698
 21
18.297091509331469
 31
0.0
  0
LINE
  5
28C7
  8
0
 10
289.18582444870191
 20
16.31057284426705
 30
0.0
 11
287.07982444870191
 21
16.31057284426705
 31
0.0
  0
LINE
  5
28C8
  8
0
 10
289.16091360010188
 20
16.335483692867051
 30
0.0
 11
287.10473529730189
 21
16.335483692867051
 31
0.0
  0
LINE
  5
28C9
  8
0
 10
289.14526442600192
 20
16.448368119867052
 30
0.0
 11
287.12038447140191
 21
16.448368119867052
 31
0.0
  0
LINE
  5
28CA
  8
0
 10
287.14498507030191
 20
16.466368119867049
 30
0.0
 11
289.12066382710191
 21
16.466368119867049
 31
0.0
  0
LINE
  5
28CB
  8
0
 10
287.07982444870191
 20
16.31057284426705
 30
0.0
 11
287.10473529730189
 21
16.335483692867051
 31
0.0
  0
LINE
  5
28CC
  8
0
 10
289.18582444870191
 20
16.31057284426705
 30
0.0
 11
289.16091360010188
 21
16.335483692867051
 31
0.0
  0
LINE
  5
28CD
  8
0
 10
289.1806272767019
 20
16.52427415006705
 30
0.0
 11
289.2425354230665
 21
18.29709150933148
 31
0.0
  0
LINE
  5
28CE
  8
0
 10
289.16091360010188
 20
16.335483692867051
 30
0.0
 11
289.16493086440192
 21
16.427827524867048
 31
0.0
  0
LINE
  5
28CF
  8
0
 10
289.12839354310188
 20
14.99042323796705
 30
0.0
 11
289.18582444870191
 21
16.31057284426705
 31
0.0
  0
LINE
  5
28D0
  8
0
 10
286.20158421310191
 20
18.376880261767049
 30
0.0
 11
290.06406468430191
 21
18.376880261767049
 31
0.0
  0
LINE
  5
28D1
  8
0
 10
290.06406468430191
 20
18.376880261767049
 30
0.0
 11
290.07282444870191
 21
18.87872682676705
 31
0.0
  0
LINE
  5
28D2
  8
0
 10
290.07282444870191
 20
18.87872682676705
 30
0.0
 11
286.19282444870191
 21
18.87872682676705
 31
0.0
  0
LINE
  5
28D3
  8
0
 10
289.0693384249019
 20
14.93136811986705
 30
0.0
 11
289.12839354310188
 21
14.99042323796705
 31
0.0
  0
ARC
  5
28D4
  8
0
 10
287.35331424470189
 20
16.306368119867049
 30
0.0
 40
0.16
 50
62.560759849323937
 51
90.0
  0
ARC
  5
28D5
  8
0
 10
286.2635747702019
 20
18.37796231096705
 30
0.0
 40
0.062
 50
180.99999999999989
 51
267.79318606320072
  0
ARC
  5
28D6
  8
0
 10
287.14498507030191
 20
16.526368119867051
 30
0.0
 40
0.06
 50
181.9999999998999
 51
270.0
  0
ARC
  5
28D7
  8
0
 10
287.12038447140191
 20
16.428683080467049
 30
0.0
 40
0.0196850394
 50
90.0
 51
182.4909866379999
  0
ARC
  5
28D8
  8
0
 10
287.3328244456136
 20
46.125367959103471
 30
0.0
 40
27.829999839214231
 50
267.7931920101845
 51
269.3623608362447
  0
ARC
  5
28D9
  8
0
 10
288.91233465270187
 20
16.306368119867049
 30
0.0
 40
0.16
 50
90.0
 51
117.4392401506759
  0
ARC
  5
28DA
  8
0
 10
290.00207412720192
 20
18.37796231096705
 30
0.0
 40
0.062
 50
272.20681393679928
 51
358.99999999999977
  0
ARC
  5
28DB
  8
0
 10
289.12066382710191
 20
16.526368119867051
 30
0.0
 40
0.06
 50
270.0
 51
358.0000000001001
  0
ARC
  5
28DC
  8
0
 10
289.14526442600192
 20
16.428683080467049
 30
0.0
 40
0.0196850394
 50
357.50901336199991
 51
90.0
  0
ARC
  5
28DD
  8
0
 10
288.93282445179102
 20
46.125367959066487
 30
0.0
 40
27.829999839177241
 50
270.637639163752
 51
272.20680798981869
  0
LINE
  5
28DE
  8
0
 10
287.02311347433698
 20
18.29709150933148
 30
0.0
 11
289.2425354230665
 21
18.29709150933148
 31
0.0
  0
ENDSEC
  0
EOF
