  0
SECTION
  2
HEADER
  9
$ACADVER
  1
AC1009
  9
$INSBASE
 10
277.91466383375251
 20
20.81664421781333
 30
0.0
  9
$EXTMIN
 10
273.96730512675248
 20
18.876644217813329
 30
0.0
  9
$EXTMAX
 10
277.93193162412632
 20
22.756644217813331
 30
0.0
  9
$LIMMIN
 10
0.0
 20
0.0
  9
$LIMMAX
 10
11.692913385800001
 20
8.2677165353999982
  9
$ORTHOMODE
 70
     1
  9
$REGENMODE
 70
     1
  9
$FILLMODE
 70
     1
  9
$QTEXTMODE
 70
     0
  9
$MIRRTEXT
 70
     0
  9
$DRAGMODE
 70
     2
  9
$LTSCALE
 40
0.6431102362
  9
$OSMODE
 70
  3071
  9
$ATTMODE
 70
     1
  9
$TEXTSIZE
 40
0.2
  9
$TRACEWID
 40
0.05
  9
$TEXTSTYLE
  7
STANDARD
  9
$CLAYER
  8
0
  9
$CELTYPE
  6
BYLAYER
  9
$CECOLOR
 62
   256
  9
$DIMSCALE
 40
1.0
  9
$DIMASZ
 40
0.1875
  9
$DIMEXO
 40
0.0625
  9
$DIMDLI
 40
0.4443307087
  9
$DIMRND
 40
0.0
  9
$DIMDLE
 40
0.0
  9
$DIMEXE
 40
0.125
  9
$DIMTP
 40
0.01
  9
$DIMTM
 40
0.01
  9
$DIMTXT
 40
1.0
  9
$DIMCEN
 40
0.1052362205
  9
$DIMTSZ
 40
0.0
  9
$DIMTOL
 70
     1
  9
$DIMLIM
 70
     0
  9
$DIMTIH
 70
     1
  9
$DIMTOH
 70
     1
  9
$DIMSE1
 70
     0
  9
$DIMSE2
 70
     0
  9
$DIMTAD
 70
     0
  9
$DIMZIN
 70
     0
  9
$DIMBLK
  1

  9
$DIMASO
 70
     1
  9
$DIMSHO
 70
     1
  9
$DIMPOST
  1
\X
  9
$DIMAPOST
  1

  9
$DIMALT
 70
     1
  9
$DIMALTD
 70
     2
  9
$DIMALTF
 40
25.399999999999999
  9
$DIMLFAC
 40
1.0
  9
$DIMTOFL
 70
     0
  9
$DIMTVP
 40
0.0
  9
$DIMTIX
 70
     0
  9
$DIMSOXD
 70
     0
  9
$DIMSAH
 70
     0
  9
$DIMBLK1
  1

  9
$DIMBLK2
  1

  9
$DIMSTYLE
  2
STANDARD
  9
$DIMCLRD
 70
     0
  9
$DIMCLRE
 70
     0
  9
$DIMCLRT
 70
     0
  9
$DIMTFAC
 40
1.0
  9
$DIMGAP
 40
0.09
  9
$LUNITS
 70
     2
  9
$LUPREC
 70
     4
  9
$SKETCHINC
 40
0.1
  9
$FILLETRAD
 40
0.0
  9
$AUNITS
 70
     0
  9
$AUPREC
 70
     0
  9
$MENU
  1
.
  9
$ELEVATION
 40
0.0
  9
$PELEVATION
 40
0.0
  9
$THICKNESS
 40
0.0
  9
$LIMCHECK
 70
     0
  9
$BLIPMODE
 70
     0
  9
$CHAMFERA
 40
0.0
  9
$CHAMFERB
 40
0.0
  9
$SKPOLY
 70
     0
  9
$TDCREATE
 40
2458172.4620311921
  9
$TDUPDATE
 40
2458344.5348030911
  9
$TDINDWG
 40
0.0860179398
  9
$TDUSRTIMER
 40
0.0860179398
  9
$USRTIMER
 70
     1
  9
$ANGBASE
 50
0.0
  9
$ANGDIR
 70
     0
  9
$PDMODE
 70
     0
  9
$PDSIZE
 40
0.3125
  9
$PLINEWID
 40
0.0
  9
$COORDS
 70
     1
  9
$SPLFRAME
 70
     0
  9
$SPLINETYPE
 70
     6
  9
$SPLINESEGS
 70
     8
  9
$ATTDIA
 70
     1
  9
$ATTREQ
 70
     1
  9
$HANDLING
 70
     1
  9
$HANDSEED
  5
28CC
  9
$SURFTAB1
 70
     6
  9
$SURFTAB2
 70
     6
  9
$SURFTYPE
 70
     6
  9
$SURFU
 70
     6
  9
$SURFV
 70
     6
  9
$UCSNAME
  2

  9
$UCSORG
 10
0.0
 20
0.0
 30
0.0
  9
$UCSXDIR
 10
1.0
 20
0.0
 30
0.0
  9
$UCSYDIR
 10
0.0
 20
1.0
 30
0.0
  9
$PUCSNAME
  2

  9
$PUCSORG
 10
0.0
 20
0.0
 30
0.0
  9
$PUCSXDIR
 10
1.0
 20
0.0
 30
0.0
  9
$PUCSYDIR
 10
0.0
 20
1.0
 30
0.0
  9
$USERI1
 70
     0
  9
$USERI2
 70
     0
  9
$USERI3
 70
     0
  9
$USERI4
 70
     0
  9
$USERI5
 70
     0
  9
$USERR1
 40
0.0
  9
$USERR2
 40
0.0
  9
$USERR3
 40
0.0
  9
$USERR4
 40
0.0
  9
$USERR5
 40
0.0
  9
$WORLDVIEW
 70
     1
  9
$SHADEDGE
 70
     3
  9
$SHADEDIF
 70
    70
  9
$TILEMODE
 70
     1
  9
$MAXACTVP
 70
    64
  9
$PLIMCHECK
 70
     0
  9
$PEXTMIN
 10
1.0000000000000000E+020
 20
1.0000000000000000E+020
 30
1.0000000000000000E+020
  9
$PEXTMAX
 10
-1.0000000000000000E+020
 20
-1.0000000000000000E+020
 30
-1.0000000000000000E+020
  9
$PLIMMIN
 10
0.0
 20
0.0
  9
$PLIMMAX
 10
12.0
 20
9.0
  9
$UNITMODE
 70
     0
  9
$VISRETAIN
 70
     1
  9
$PLINEGEN
 70
     0
  9
$PSLTSCALE
 70
     1
  0
ENDSEC
  0
SECTION
  2
TABLES
  0
TABLE
  2
VPORT
 70
     1
  0
VPORT
  2
*ACTIVE
 70
     0
 10
0.0
 20
0.0
 11
1.0
 21
1.0
 12
0.0
 22
0.0
 13
0.0
 23
0.0
 14
1.0
 24
1.0
 15
0.0
 25
0.0
 16
0.0
 26
0.0
 36
15.612729270283911
 17
275.9496183754394
 27
20.81664421781333
 37
0.0
 40
5.5495317495667651
 41
2.1006711409395971
 42
50.0
 43
0.0
 44
0.0
 50
0.0
 51
0.0
 71
     0
 72
   100
 73
     1
 74
     1
 75
     0
 76
     0
 77
     0
 78
     0
  0
ENDTAB
  0
TABLE
  2
LTYPE
 70
     2
  0
LTYPE
  2
CONTINUOUS
 70
     0
  3
Solid line
 72
    65
 73
     0
 40
0.0
  0
LTYPE
  2
PHANTOM2
 70
     0
  3
___ _ _ ___ _ _ ___ _ _ ___ _ _
 72
    65
 73
     6
 40
1.25
 49
0.625
 49
-0.125
 49
0.125
 49
-0.125
 49
0.125
 49
-0.125
  0
ENDTAB
  0
TABLE
  2
LAYER
 70
     2
  0
LAYER
  2
0
 70
     0
 62
   255
  6
CONTINUOUS
  0
LAYER
  2
DEFPOINTS
 70
     0
 62
     7
  6
CONTINUOUS
  0
ENDTAB
  0
TABLE
  2
STYLE
 70
     1
  0
STYLE
  2
STANDARD
 70
     0
 40
0.0
 41
0.8
 50
0.0
 71
     0
 42
0.2
  3
txt
  4

  0
ENDTAB
  0
TABLE
  2
VIEW
 70
     0
  0
ENDTAB
  0
TABLE
  2
UCS
 70
     0
  0
ENDTAB
  0
TABLE
  2
APPID
 70
     9
  0
APPID
  2
ACAD
 70
     0
  0
APPID
  2
ACAD_MLEADERVER
 70
     0
  0
APPID
  2
ACAD_EXEMPT_FROM_CAD_STANDARDS
 70
     0
  0
APPID
  2
ACAD_DSTYLE_DIMJAG
 70
     0
  0
APPID
  2
ACAD_DSTYLE_DIMTALN
 70
     0
  0
APPID
  2
ACAD_NAV_VCDISPLAY
 70
     0
  0
APPID
  2
ACAECLAYERSTANDARD
 70
     0
  0
APPID
  2
ACCMTRANSPARENCY
 70
     0
  0
APPID
  2
ACDBATTR
 70
     0
  0
ENDTAB
  0
TABLE
  2
DIMSTYLE
 70
     1
  0
DIMSTYLE
  2
STANDARD
 70
     0
  3

  4

  5

  6

  7

 40
1.0
 41
0.1875
 42
0.0625
 43
0.38
 44
0.125
 45
0.0
 46
0.0
 47
0.01
 48
0.01
140
0.15625
141
0.09
142
0.0
143
25.399999999999999
144
1.0
145
0.0
146
1.0
147
0.09
 71
     1
 72
     0
 73
     1
 74
     1
 75
     0
 76
     0
 77
     0
 78
     4
170
     0
171
     2
172
     0
173
     0
174
     0
175
     0
176
     0
177
     0
178
     0
  0
ENDTAB
  0
ENDSEC
  0
SECTION
  2
BLOCKS
  0
BLOCK
  8
0
  2
$MODEL_SPACE
 70
     0
 10
0.0
 20
0.0
 30
0.0
  3
$MODEL_SPACE
  1

  0
ENDBLK
  5
21
  8
0
  0
BLOCK
 67
     1
  8
0
  2
$PAPER_SPACE
 70
     0
 10
0.0
 20
0.0
 30
0.0
  3
$PAPER_SPACE
  1

  0
ENDBLK
  5
1D
 67
     1
  8
0
  0
ENDSEC
  0
SECTION
  2
ENTITIES
  0
ATTDEF
  5
157D
  8
DEFPOINTS
 10
277.92126495745958
 20
20.81822517865518
 30
0.0
 40
0.001
  1
K-T78025-8
  3

  2
MODELNUMBER
 70
     0
1001
ACDBATTR
1070
     0
1070
     1
  0
ATTDEF
  5
157E
  8
DEFPOINTS
 10
277.92126495745958
 20
20.816558511988511
 30
0.0
 40
0.001
  1
COMPONENTS
  3

  2
TRADENAME
 70
     0
1001
ACDBATTR
1070
     0
1070
     1
  0
ATTDEF
  5
157F
  8
DEFPOINTS
 10
277.92126495745958
 20
20.814891845321849
 30
0.0
 40
0.001
  1
VALVE TRIM
  3

  2
PRODUCT
 70
     0
1001
ACDBATTR
1070
     0
1070
     1
  0
ATTDEF
  5
1580
  8
DEFPOINTS
 10
277.92126495745958
 20
20.813225178655191
 30
0.0
 40
0.001
  1
PREMIUM MATERIALS
  3

  2
MATERIAL
 70
     0
1001
ACDBATTR
1070
     0
1070
     1
  0
LINE
  5
2722
  8
0
 10
273.96730512675248
 20
21.753158194113329
 30
0.0
 11
274.02636024485253
 21
21.812213312213331
 31
0.0
  0
LINE
  5
2723
  8
0
 10
273.96730512675248
 20
21.753158194113329
 30
0.0
 11
273.96730512675248
 21
19.88013024161333
 31
0.0
  0
LINE
  5
2724
  8
0
 10
274.02636024485253
 20
19.82107512341333
 30
0.0
 11
274.02636024485253
 21
21.812213312213331
 31
0.0
  0
LINE
  5
2725
  8
0
 10
274.02636024485253
 20
21.812213312213331
 30
0.0
 11
275.34650985115252
 21
21.869644217813331
 31
0.0
  0
LINE
  5
2726
  8
0
 10
275.37142069975249
 20
21.84473336921333
 30
0.0
 11
275.46376453175247
 21
21.84875063351333
 31
0.0
  0
LINE
  5
2727
  8
0
 10
275.34650985115252
 20
19.763644217813329
 30
0.0
 11
275.34650985115252
 21
21.869644217813331
 31
0.0
  0
LINE
  5
2728
  8
0
 10
275.37142069975249
 20
19.78855506641332
 30
0.0
 11
275.37142069975249
 21
21.84473336921333
 31
0.0
  0
LINE
  5
2729
  8
0
 10
275.48430512675247
 20
19.804204240513329
 30
0.0
 11
275.48430512675247
 21
21.829084195113332
 31
0.0
  0
LINE
  5
272A
  8
0
 10
275.34650985115252
 20
21.869644217813331
 30
0.0
 11
275.37142069975249
 21
21.84473336921333
 31
0.0
  0
LINE
  5
272B
  8
0
 10
275.34650985115252
 20
19.763644217813329
 30
0.0
 11
275.37142069975249
 21
19.78855506641332
 31
0.0
  0
LINE
  5
272C
  8
0
 10
275.37142069975249
 20
19.78855506641332
 30
0.0
 11
275.46376453175247
 21
19.784537802113331
 31
0.0
  0
LINE
  5
272D
  8
0
 10
274.02636024485253
 20
19.82107512341333
 30
0.0
 11
275.34650985115252
 21
19.763644217813329
 31
0.0
  0
LINE
  5
272E
  8
0
 10
273.96730512675248
 20
19.88013024161333
 30
0.0
 11
274.02636024485253
 21
19.82107512341333
 31
0.0
  0
ARC
  5
272F
  8
0
 10
275.34230512675248
 20
21.596154421813331
 30
0.0
 40
0.16
 50
332.5607598493246
 51
0.0
  0
ARC
  5
2730
  8
0
 10
275.34230512675248
 20
20.037134013813329
 30
0.0
 40
0.16
 50
0.0
 51
27.439240150675431
  0
ARC
  5
2731
  8
0
 10
275.4646200873525
 20
19.804204240513329
 30
0.0
 40
0.0196850394
 50
267.50901336200047
 51
0.0
  0
ARC
  5
2732
  8
0
 10
275.4646200873525
 20
21.829084195113332
 30
0.0
 40
0.0196850394
 50
0.0
 51
92.490986637999498
  0
LINE
  5
2733
  8
0
 10
277.41281726865247
 20
22.747884453413331
 30
0.0
 11
277.91466383375251
 21
22.756644217813331
 31
0.0
  0
LINE
  5
2734
  8
0
 10
275.56021115695251
 20
21.864447045813328
 30
0.0
 11
277.33302887620567
 21
21.926355204727891
 31
0.0
  0
LINE
  5
2735
  8
0
 10
275.5023051267525
 20
21.804483596213331
 30
0.0
 11
275.5023051267525
 21
19.828804839313332
 31
0.0
  0
LINE
  5
2736
  8
0
 10
275.56021115695251
 20
19.76884138971333
 30
0.0
 11
277.33302887620567
 21
19.706933230777569
 31
0.0
  0
LINE
  5
2737
  8
0
 10
277.33302887620567
 20
21.926355204727891
 30
0.0
 11
277.35194530052138
 21
22.6882813084143
 31
0.0
  0
LINE
  5
2738
  8
0
 10
277.41281726865247
 20
22.747884453413331
 30
0.0
 11
277.41281726865247
 21
18.885403982113331
 31
0.0
  0
LINE
  5
2739
  8
0
 10
277.41281726865247
 20
18.885403982113331
 30
0.0
 11
277.91466383375251
 21
18.876644217813329
 31
0.0
  0
LINE
  5
273A
  8
0
 10
277.91466383375251
 20
18.876644217813329
 30
0.0
 11
277.91466383375251
 21
22.756644217813331
 31
0.0
  0
ARC
  5
273B
  8
0
 10
305.15938832043912
 20
20.016583485918719
 30
0.0
 40
27.828082276725159
 50
180.63755808629119
 51
182.2068349888502
  0
ARC
  5
273C
  8
0
 10
277.41389931787239
 20
18.947394539261062
 30
0.0
 40
0.0620000000480719
 50
182.20680795286631
 51
268.99999998232357
  0
ARC
  5
273D
  8
0
 10
277.4138993178525
 20
22.685893896313331
 30
0.0
 40
0.062
 50
90.999999999998494
 51
177.7931860631999
  0
ARC
  5
273E
  8
0
 10
275.56230512675251
 20
19.828804839313332
 30
0.0
 40
0.06
 50
180.0
 51
268.00000000010061
  0
ARC
  5
273F
  8
0
 10
275.56230512675251
 20
21.804483596213331
 30
0.0
 40
0.06
 50
91.999999999899359
 51
180.0
  0
LINE
  5
2740
  8
0
 10
277.33302887620567
 20
21.926355204727891
 30
0.0
 11
277.33302887620567
 21
19.706933230777569
 31
0.0
  0
ENDSEC
  0
EOF
