  0
SECTION
  2
HEADER
  9
$ACADVER
  1
AC1009
  9
$INSBASE
 10
385.6696539183770938
 20
32.4542097506128826
 30
0.0
  9
$EXTMIN
 10
382.3485706836303848
 20
29.2045859904549303
 30
-0.0000000000000053
  9
$EXTMAX
 10
385.6847933074297998
 20
34.3961433344837388
 30
0.0000000000000099
  9
$LIMMIN
 10
0.0
 20
0.0
  9
$LIMMAX
 10
22.0
 20
17.0
  9
$ORTHOMODE
 70
     0
  9
$REGENMODE
 70
     1
  9
$FILLMODE
 70
     1
  9
$QTEXTMODE
 70
     0
  9
$MIRRTEXT
 70
     0
  9
$DRAGMODE
 70
     2
  9
$LTSCALE
 40
1.2099999999999991
  9
$OSMODE
 70
  4095
  9
$ATTMODE
 70
     1
  9
$TEXTSIZE
 40
0.2
  9
$TRACEWID
 40
0.05
  9
$TEXTSTYLE
  7
STANDARD
  9
$CLAYER
  8
0
  9
$CELTYPE
  6
BYLAYER
  9
$CECOLOR
 62
   256
  9
$DIMSCALE
 40
1.0
  9
$DIMASZ
 40
0.1875
  9
$DIMEXO
 40
0.0625
  9
$DIMDLI
 40
0.38
  9
$DIMRND
 40
0.0
  9
$DIMDLE
 40
0.0
  9
$DIMEXE
 40
0.125
  9
$DIMTP
 40
1.5
  9
$DIMTM
 40
1.5
  9
$DIMTXT
 40
1.5
  9
$DIMCEN
 40
0.09
  9
$DIMTSZ
 40
0.0
  9
$DIMTOL
 70
     0
  9
$DIMLIM
 70
     0
  9
$DIMTIH
 70
     1
  9
$DIMTOH
 70
     1
  9
$DIMSE1
 70
     0
  9
$DIMSE2
 70
     0
  9
$DIMTAD
 70
     0
  9
$DIMZIN
 70
     4
  9
$DIMBLK
  1

  9
$DIMASO
 70
     1
  9
$DIMSHO
 70
     1
  9
$DIMPOST
  1

  9
$DIMAPOST
  1

  9
$DIMALT
 70
     0
  9
$DIMALTD
 70
     2
  9
$DIMALTF
 40
25.3999999999999986
  9
$DIMLFAC
 40
1.0
  9
$DIMTOFL
 70
     0
  9
$DIMTVP
 40
0.0
  9
$DIMTIX
 70
     0
  9
$DIMSOXD
 70
     0
  9
$DIMSAH
 70
     0
  9
$DIMBLK1
  1

  9
$DIMBLK2
  1

  9
$DIMSTYLE
  2
STANDARD
  9
$DIMCLRD
 70
     0
  9
$DIMCLRE
 70
     0
  9
$DIMCLRT
 70
     0
  9
$DIMTFAC
 40
1.0
  9
$DIMGAP
 40
0.09
  9
$LUNITS
 70
     2
  9
$LUPREC
 70
     4
  9
$SKETCHINC
 40
0.1
  9
$FILLETRAD
 40
0.0
  9
$AUNITS
 70
     0
  9
$AUPREC
 70
     0
  9
$MENU
  1
.
  9
$ELEVATION
 40
0.0
  9
$PELEVATION
 40
0.0
  9
$THICKNESS
 40
0.0
  9
$LIMCHECK
 70
     0
  9
$BLIPMODE
 70
     0
  9
$CHAMFERA
 40
0.0
  9
$CHAMFERB
 40
0.0
  9
$SKPOLY
 70
     0
  9
$TDCREATE
 40
2457827.4934837957844138
  9
$TDUPDATE
 40
2459648.7602430549450219
  9
$TDINDWG
 40
0.4232774306
  9
$TDUSRTIMER
 40
0.4232774306
  9
$USRTIMER
 70
     1
  9
$ANGBASE
 50
0.0
  9
$ANGDIR
 70
     0
  9
$PDMODE
 70
     0
  9
$PDSIZE
 40
0.3125
  9
$PLINEWID
 40
0.0
  9
$COORDS
 70
     1
  9
$SPLFRAME
 70
     0
  9
$SPLINETYPE
 70
     6
  9
$SPLINESEGS
 70
     8
  9
$ATTDIA
 70
     1
  9
$ATTREQ
 70
     1
  9
$HANDLING
 70
     1
  9
$HANDSEED
  5
93DF
  9
$SURFTAB1
 70
     6
  9
$SURFTAB2
 70
     6
  9
$SURFTYPE
 70
     6
  9
$SURFU
 70
     6
  9
$SURFV
 70
     6
  9
$UCSNAME
  2

  9
$UCSORG
 10
0.0
 20
0.0
 30
0.0
  9
$UCSXDIR
 10
1.0
 20
0.0
 30
0.0
  9
$UCSYDIR
 10
0.0
 20
1.0
 30
0.0
  9
$PUCSNAME
  2

  9
$PUCSORG
 10
0.0
 20
0.0
 30
0.0
  9
$PUCSXDIR
 10
1.0
 20
0.0
 30
0.0
  9
$PUCSYDIR
 10
0.0
 20
1.0
 30
0.0
  9
$USERI1
 70
     0
  9
$USERI2
 70
     0
  9
$USERI3
 70
     0
  9
$USERI4
 70
     0
  9
$USERI5
 70
     0
  9
$USERR1
 40
0.0
  9
$USERR2
 40
0.0
  9
$USERR3
 40
0.0
  9
$USERR4
 40
0.0
  9
$USERR5
 40
0.0
  9
$WORLDVIEW
 70
     1
  9
$SHADEDGE
 70
     3
  9
$SHADEDIF
 70
    70
  9
$TILEMODE
 70
     1
  9
$MAXACTVP
 70
    48
  9
$PLIMCHECK
 70
     0
  9
$PEXTMIN
 10
1.0000000000000000E+20
 20
1.0000000000000000E+20
 30
1.0000000000000000E+20
  9
$PEXTMAX
 10
-1.0000000000000000E+20
 20
-1.0000000000000000E+20
 30
-1.0000000000000000E+20
  9
$PLIMMIN
 10
0.0
 20
0.0
  9
$PLIMMAX
 10
12.0
 20
9.0
  9
$UNITMODE
 70
     0
  9
$VISRETAIN
 70
     1
  9
$PLINEGEN
 70
     0
  9
$PSLTSCALE
 70
     1
  0
ENDSEC
  0
SECTION
  2
TABLES
  0
TABLE
  2
VPORT
 70
     1
  0
VPORT
  2
*ACTIVE
 70
     0
 10
0.0
 20
0.0
 11
1.0
 21
1.0
 12
173.0377543832254048
 22
24.5979154769087813
 13
0.0
 23
0.0
 14
1.0
 24
1.0
 15
0.0
 25
0.0
 16
-0.0000000000000284
 26
0.0
 36
157.2215818301446859
 17
210.9789276123046875
 27
7.2024491855605604
 37
0.0
 40
5.2263903456806808
 41
2.005224660397074
 42
50.0
 43
0.0
 44
0.0
 50
0.0
 51
0.0
 71
     0
 72
   100
 73
     1
 74
     1
 75
     0
 76
     0
 77
     0
 78
     0
  0
ENDTAB
  0
TABLE
  2
LTYPE
 70
     2
  0
LTYPE
  2
CONTINUOUS
 70
     0
  3
Solid line
 72
    65
 73
     0
 40
0.0
  0
LTYPE
  2
PHANTOM2
 70
     0
  3
___ _ _ ___ _ _ ___ _ _ ___ _ _
 72
    65
 73
     6
 40
1.25
 49
0.625
 49
-0.125
 49
0.125
 49
-0.125
 49
0.125
 49
-0.125
  0
ENDTAB
  0
TABLE
  2
LAYER
 70
     2
  0
LAYER
  2
0
 70
     0
 62
     7
  6
CONTINUOUS
  0
LAYER
  2
DEFPOINTS
 70
     0
 62
     7
  6
CONTINUOUS
  0
ENDTAB
  0
TABLE
  2
STYLE
 70
     1
  0
STYLE
  2
STANDARD
 70
     0
 40
0.0
 41
0.8
 50
0.0
 71
     0
 42
0.2
  3
txt
  4

  0
ENDTAB
  0
TABLE
  2
VIEW
 70
     0
  0
ENDTAB
  0
TABLE
  2
UCS
 70
     0
  0
ENDTAB
  0
TABLE
  2
APPID
 70
     9
  0
APPID
  2
ACAD
 70
     0
  0
APPID
  2
ACAD_MLEADERVER
 70
     0
  0
APPID
  2
ACAD_EXEMPT_FROM_CAD_STANDARDS
 70
     0
  0
APPID
  2
ACAD_NAV_VCDISPLAY
 70
     0
  0
APPID
  2
ACADANNOMONITORALERTICONDI
 70
     0
  0
APPID
  2
ACAD_DSTYLE_DIMJAG
 70
     0
  0
APPID
  2
ACAD_DSTYLE_DIMTALN
 70
     0
  0
APPID
  2
ACDBATTR
 70
     0
  0
APPID
  2
DCO15
 70
     0
  0
ENDTAB
  0
TABLE
  2
DIMSTYLE
 70
     1
  0
DIMSTYLE
  2
STANDARD
 70
     0
  3

  4

  5

  6

  7

 40
1.0
 41
0.1875
 42
0.0625
 43
0.38
 44
0.125
 45
0.0
 46
0.0
 47
1.5
 48
1.5
140
1.5
141
0.09
142
0.0
143
25.3999999999999986
144
1.0
145
0.0
146
1.0
147
0.09
 71
     0
 72
     0
 73
     1
 74
     1
 75
     0
 76
     0
 77
     0
 78
     4
170
     0
171
     2
172
     0
173
     0
174
     0
175
     0
176
     0
177
     0
178
     0
  0
ENDTAB
  0
ENDSEC
  0
SECTION
  2
BLOCKS
  0
BLOCK
  8
0
  2
$MODEL_SPACE
 70
     0
 10
0.0
 20
0.0
 30
0.0
  3
$MODEL_SPACE
  1

  0
ENDBLK
  5
21
  8
0
  0
BLOCK
 67
     1
  8
0
  2
$PAPER_SPACE
 70
     0
 10
0.0
 20
0.0
 30
0.0
  3
$PAPER_SPACE
  1

  0
ENDBLK
  5
1D
 67
     1
  8
0
  0
ENDSEC
  0
SECTION
  2
ENTITIES
  0
ATTDEF
  5
4EF9
  8
DEFPOINTS
 10
385.6718909309752235
 20
32.4546748731323831
 30
0.0
 40
0.001
  1
K-T73140-4
  3

  2
MODELNUMBER
 70
     0
1001
ACDBATTR
1070
     0
1070
     1
  0
ATTDEF
  5
4EFA
  8
DEFPOINTS
 10
385.6718909309752235
 20
32.4530082064656966
 30
0.0
 40
0.001
  1
COMPOSED
  3

  2
TRADENAME
 70
     0
1001
ACDBATTR
1070
     0
1070
     1
  0
ATTDEF
  5
4EFB
  8
DEFPOINTS
 10
385.6718909309752235
 20
32.4513415397990173
 30
0.0
 40
0.001
  1
VALVE TRIM
  3

  2
PRODUCT
 70
     0
1001
ACDBATTR
1070
     0
1070
     1
  0
LINE
  5
92BA
  8
0
 10
385.6696539183770938
 20
34.3942097508128768
 30
0.0
 11
385.6696539183770938
 21
30.5142097504128813
 31
0.0
  0
LINE
  5
92BB
  8
0
 10
385.0862952113772053
 20
33.242709750819273
 30
0.0
 11
385.0862952113772053
 21
31.6657097504064708
 31
0.0
  0
ARC
  5
92BC
  8
0
 10
412.924759603079508
 20
33.2539874039427588
 30
0.0
 40
27.8384666760499613
 50
177.7934060448498883
 51
180.0232111183545101
  0
ARC
  5
92BD
  8
0
 10
385.1688894024775891
 20
34.3234594293132034
 30
0.0
 40
0.062
 50
91.0000000025295037
 51
177.7934060448424987
  0
LINE
  5
92BE
  8
0
 10
385.6696539183770938
 20
34.3942097508128768
 30
0.0
 11
385.1678073532756912
 21
34.3854499864128513
 31
0.0
  0
LINE
  5
92BF
  8
0
 10
383.9562952113770962
 20
33.212709750812877
 30
0.0
 11
383.9562952113770962
 21
31.6957097504128811
 31
0.0
  0
ARC
  5
92C0
  8
0
 10
383.9262952113771235
 20
31.8636566299346313
 30
0.0
 40
0.03
 50
0.0
 51
89.4885239312650924
  0
LINE
  5
92C1
  8
0
 10
383.9862952113771257
 20
33.2427097508128782
 30
0.0
 11
385.0862929615519761
 21
33.2526010041101685
 31
0.0
  0
LINE
  5
92C2
  8
0
 10
382.7142952113770775
 20
32.974209750812868
 30
0.0
 11
382.7142952113770775
 21
31.9342097504128688
 31
0.0
  0
LINE
  5
92C3
  8
0
 10
383.9265642879364009
 20
33.0148142072110815
 30
0.0
 11
382.7442952113771071
 21
33.0042097508128833
 31
0.0
  0
ARC
  5
92C4
  8
0
 10
383.9262952113771235
 20
33.0448130004835576
 30
0.0
 40
0.03
 50
270.5139052642455226
 51
0.0
  0
ARC
  5
92C5
  8
0
 10
383.9862952113771257
 20
33.212709750812877
 30
0.0
 40
0.03
 50
90.0000000000065086
 51
179.999999999996902
  0
ARC
  5
92C6
  8
0
 10
382.7442952113771071
 20
32.974209750812868
 30
0.0
 40
0.03
 50
90.0000000000065086
 51
179.9999999999984084
  0
LINE
  5
92C7
  8
0
 10
382.7032952113771103
 20
32.973681529058311
 30
0.0
 11
382.7032952113771103
 21
29.2347379726674497
 31
0.0
  0
ARC
  5
92C8
  8
0
 10
382.733295211377083
 20
32.9246431207128722
 30
0.0
 40
0.0299999999999806
 50
180.0
 51
230.7035197608257135
  0
ARC
  5
92C9
  8
0
 10
412.924759603079508
 20
31.6544320972829816
 30
0.0
 40
27.8384666760499613
 50
179.9767888816454047
 51
182.2065939551501117
  0
ARC
  5
92CA
  8
0
 10
385.1688894024775891
 20
30.5849600719125512
 30
0.0
 40
0.062
 50
182.2065939551573877
 51
268.9999999974672278
  0
LINE
  5
92CB
  8
0
 10
385.6696539183770938
 20
30.5142097504128813
 30
0.0
 11
385.1678073532756912
 21
30.5229695148128997
 31
0.0
  0
LINE
  5
92CC
  8
0
 10
383.9862952113771257
 20
31.6657097504128799
 30
0.0
 11
385.0862929638477112
 21
31.6558638512882595
 31
0.0
  0
LINE
  5
92CD
  8
0
 10
383.9265630160634828
 20
31.8936554345883216
 30
0.0
 11
382.7442952113771071
 21
31.9042097504128712
 31
0.0
  0
ARC
  5
92CE
  8
0
 10
383.9862952113771257
 20
31.6957097504128811
 30
0.0
 40
0.03
 50
180.0
 51
269.9999999999935199
  0
ARC
  5
92CF
  8
0
 10
382.7442952113771071
 20
31.9342097504128688
 30
0.0
 40
0.03
 50
180.0000000000015916
 51
269.9999999999935199
  0
ARC
  5
92D0
  8
0
 10
382.733295211377083
 20
31.9837763805128787
 30
0.0
 40
0.0299999999999806
 50
129.2964802391742865
 51
180.0
  0
LINE
  5
92D1
  8
0
 10
385.1069353759806972
 20
30.5825728976780908
 30
0.0
 11
385.1069353759806972
 21
34.3258466035475465
 31
0.0
  0
LINE
  5
92D2
  8
0
 10
382.3532952113770875
 20
29.2397999414674494
 30
0.0
 11
382.3532952113770875
 21
32.9686195602583112
 31
0.0
  0
LINE
  5
92D3
  8
0
 10
382.6727716391869762
 20
29.2047425418126991
 30
0.0
 11
382.3827716391870126
 21
29.2098045106126989
 31
0.0
  0
ARC
  5
92D4
  8
0
 10
382.6732952113771944
 20
29.234737972667439
 30
0.0
 40
0.03
 50
269.0000000057605121
 51
0.0000000000042747
  0
ARC
  5
92D5
  8
0
 10
382.3832952113771171
 20
29.2397999414674494
 30
0.0
 40
0.03
 50
179.9999999999976978
 51
269.000000005763809
  0
LINE
  5
92D6
  8
0
 10
382.3827716391870126
 20
32.9986149911130511
 30
0.0
 11
382.6727716391869762
 21
33.0036769599130508
 31
0.0
  0
ARC
  5
92D7
  8
0
 10
382.3832952113771171
 20
32.9686195602583112
 30
0.0
 40
0.03
 50
90.9999999942362052
 51
180.0
  0
ARC
  5
92D8
  8
0
 10
382.6732952113771944
 20
32.973681529058311
 30
0.0
 40
0.03
 50
359.9999999999984084
 51
90.9999999942394737
  0
ENDSEC
  0
EOF
